  0
SECTION
  2
HEADER
  9
$ACADVER
  1
AC1015
  9
$ACADMAINTVER
 70
     6
  9
$DWGCODEPAGE
  3
ANSI_1252
  9
$INSBASE
 10
0.0
 20
0.0
 30
0.0
  9
$EXTMIN
 10
-2278.000001999871
 20
495.942229685638
 30
0.0
  9
$EXTMAX
 10
-503.5309003625141
 20
1865.592584656611
 30
0.0
  9
$LIMMIN
 10
0.0
 20
0.0
  9
$LIMMAX
 10
12.0
 20
9.0
  9
$ORTHOMODE
 70
     0
  9
$REGENMODE
 70
     1
  9
$FILLMODE
 70
     1
  9
$QTEXTMODE
 70
     0
  9
$MIRRTEXT
 70
     1
  9
$LTSCALE
 40
1.0
  9
$ATTMODE
 70
     1
  9
$TEXTSIZE
 40
0.2
  9
$TRACEWID
 40
0.05
  9
$TEXTSTYLE
  7
Standard
  9
$CLAYER
  8
0
  9
$CELTYPE
  6
ByLayer
  9
$CECOLOR
 62
   256
  9
$CELTSCALE
 40
1.0
  9
$DISPSILH
 70
     0
  9
$DIMSCALE
 40
1.0
  9
$DIMASZ
 40
0.18
  9
$DIMEXO
 40
0.0625
  9
$DIMDLI
 40
0.38
  9
$DIMRND
 40
0.0
  9
$DIMDLE
 40
0.0
  9
$DIMEXE
 40
0.18
  9
$DIMTP
 40
0.0
  9
$DIMTM
 40
0.0
  9
$DIMTXT
 40
0.18
  9
$DIMCEN
 40
0.09
  9
$DIMTSZ
 40
0.0
  9
$DIMTOL
 70
     0
  9
$DIMLIM
 70
     0
  9
$DIMTIH
 70
     1
  9
$DIMTOH
 70
     1
  9
$DIMSE1
 70
     0
  9
$DIMSE2
 70
     0
  9
$DIMTAD
 70
     0
  9
$DIMZIN
 70
     0
  9
$DIMBLK
  1

  9
$DIMASO
 70
     1
  9
$DIMSHO
 70
     1
  9
$DIMPOST
  1

  9
$DIMAPOST
  1

  9
$DIMALT
 70
     0
  9
$DIMALTD
 70
     2
  9
$DIMALTF
 40
25.4
  9
$DIMLFAC
 40
1.0
  9
$DIMTOFL
 70
     0
  9
$DIMTVP
 40
0.0
  9
$DIMTIX
 70
     0
  9
$DIMSOXD
 70
     0
  9
$DIMSAH
 70
     0
  9
$DIMBLK1
  1

  9
$DIMBLK2
  1

  9
$DIMSTYLE
  2
Standard
  9
$DIMCLRD
 70
     0
  9
$DIMCLRE
 70
     0
  9
$DIMCLRT
 70
     0
  9
$DIMTFAC
 40
1.0
  9
$DIMGAP
 40
0.09
  9
$DIMJUST
 70
     0
  9
$DIMSD1
 70
     0
  9
$DIMSD2
 70
     0
  9
$DIMTOLJ
 70
     1
  9
$DIMTZIN
 70
     0
  9
$DIMALTZ
 70
     0
  9
$DIMALTTZ
 70
     0
  9
$DIMUPT
 70
     0
  9
$DIMDEC
 70
     4
  9
$DIMTDEC
 70
     4
  9
$DIMALTU
 70
     2
  9
$DIMALTTD
 70
     2
  9
$DIMTXSTY
  7
Standard
  9
$DIMAUNIT
 70
     0
  9
$DIMADEC
 70
     0
  9
$DIMALTRND
 40
0.0
  9
$DIMAZIN
 70
     0
  9
$DIMDSEP
 70
    46
  9
$DIMATFIT
 70
     3
  9
$DIMFRAC
 70
     0
  9
$DIMLDRBLK
  1

  9
$DIMLUNIT
 70
     2
  9
$DIMLWD
 70
    -2
  9
$DIMLWE
 70
    -2
  9
$DIMTMOVE
 70
     0
  9
$LUNITS
 70
     2
  9
$LUPREC
 70
     4
  9
$SKETCHINC
 40
0.1
  9
$FILLETRAD
 40
0.5
  9
$AUNITS
 70
     0
  9
$AUPREC
 70
     0
  9
$MENU
  1
.
  9
$ELEVATION
 40
0.0
  9
$PELEVATION
 40
0.0
  9
$THICKNESS
 40
0.0
  9
$LIMCHECK
 70
     0
  9
$CHAMFERA
 40
0.5
  9
$CHAMFERB
 40
0.5
  9
$CHAMFERC
 40
1.0
  9
$CHAMFERD
 40
0.0
  9
$SKPOLY
 70
     0
  9
$TDCREATE
 40
2456735.440718438
  9
$TDUCREATE
 40
2456735.399051771
  9
$TDUPDATE
 40
2456735.440718449
  9
$TDUUPDATE
 40
2456735.399051782
  9
$TDINDWG
 40
0.0000000116
  9
$TDUSRTIMER
 40
0.0000000116
  9
$USRTIMER
 70
     1
  9
$ANGBASE
 50
0.0
  9
$ANGDIR
 70
     0
  9
$PDMODE
 70
     0
  9
$PDSIZE
 40
0.0
  9
$PLINEWID
 40
0.0
  9
$SPLFRAME
 70
     0
  9
$SPLINETYPE
 70
     6
  9
$SPLINESEGS
 70
     8
  9
$HANDSEED
  5
25C
  9
$SURFTAB1
 70
     6
  9
$SURFTAB2
 70
     6
  9
$SURFTYPE
 70
     6
  9
$SURFU
 70
     6
  9
$SURFV
 70
     6
  9
$UCSBASE
  2

  9
$UCSNAME
  2

  9
$UCSORG
 10
0.0
 20
0.0
 30
0.0
  9
$UCSXDIR
 10
1.0
 20
0.0
 30
0.0
  9
$UCSYDIR
 10
0.0
 20
1.0
 30
0.0
  9
$UCSORTHOREF
  2

  9
$UCSORTHOVIEW
 70
     0
  9
$UCSORGTOP
 10
0.0
 20
0.0
 30
0.0
  9
$UCSORGBOTTOM
 10
0.0
 20
0.0
 30
0.0
  9
$UCSORGLEFT
 10
0.0
 20
0.0
 30
0.0
  9
$UCSORGRIGHT
 10
0.0
 20
0.0
 30
0.0
  9
$UCSORGFRONT
 10
0.0
 20
0.0
 30
0.0
  9
$UCSORGBACK
 10
0.0
 20
0.0
 30
0.0
  9
$PUCSBASE
  2

  9
$PUCSNAME
  2

  9
$PUCSORG
 10
0.0
 20
0.0
 30
0.0
  9
$PUCSXDIR
 10
1.0
 20
0.0
 30
0.0
  9
$PUCSYDIR
 10
0.0
 20
1.0
 30
0.0
  9
$PUCSORTHOREF
  2

  9
$PUCSORTHOVIEW
 70
     0
  9
$PUCSORGTOP
 10
0.0
 20
0.0
 30
0.0
  9
$PUCSORGBOTTOM
 10
0.0
 20
0.0
 30
0.0
  9
$PUCSORGLEFT
 10
0.0
 20
0.0
 30
0.0
  9
$PUCSORGRIGHT
 10
0.0
 20
0.0
 30
0.0
  9
$PUCSORGFRONT
 10
0.0
 20
0.0
 30
0.0
  9
$PUCSORGBACK
 10
0.0
 20
0.0
 30
0.0
  9
$USERI1
 70
     0
  9
$USERI2
 70
     0
  9
$USERI3
 70
     0
  9
$USERI4
 70
     0
  9
$USERI5
 70
     0
  9
$USERR1
 40
17.0
  9
$USERR2
 40
0.0
  9
$USERR3
 40
0.0
  9
$USERR4
 40
0.0
  9
$USERR5
 40
0.0
  9
$WORLDVIEW
 70
     1
  9
$SHADEDGE
 70
     3
  9
$SHADEDIF
 70
    70
  9
$TILEMODE
 70
     1
  9
$MAXACTVP
 70
    64
  9
$PINSBASE
 10
0.0
 20
0.0
 30
0.0
  9
$PLIMCHECK
 70
     0
  9
$PEXTMIN
 10
1.00000000000000E+20
 20
1.00000000000000E+20
 30
1.00000000000000E+20
  9
$PEXTMAX
 10
-1.00000000000000E+20
 20
-1.00000000000000E+20
 30
-1.00000000000000E+20
  9
$PLIMMIN
 10
0.0
 20
0.0
  9
$PLIMMAX
 10
12.0
 20
9.0
  9
$UNITMODE
 70
     0
  9
$VISRETAIN
 70
     1
  9
$PLINEGEN
 70
     0
  9
$PSLTSCALE
 70
     1
  9
$TREEDEPTH
 70
  3020
  9
$CMLSTYLE
  2
Standard
  9
$CMLJUST
 70
     0
  9
$CMLSCALE
 40
1.0
  9
$PROXYGRAPHICS
 70
     1
  9
$MEASUREMENT
 70
     1
  9
$CELWEIGHT
370
    -1
  9
$ENDCAPS
280
     0
  9
$JOINSTYLE
280
     0
  9
$LWDISPLAY
290
     0
  9
$INSUNITS
 70
     1
  9
$HYPERLINKBASE
  1

  9
$STYLESHEET
  1

  9
$XEDIT
290
     1
  9
$CEPSNTYPE
380
     0
  9
$PSTYLEMODE
290
     1
  9
$FINGERPRINTGUID
  2
{3447FB6F-04D3-4703-8F82-93424952EAFE}
  9
$VERSIONGUID
  2
{FAEB1C32-E019-11D5-929B-00C0DF256EC4}
  9
$EXTNAMES
290
     1
  9
$PSVPSCALE
 40
0.0
  9
$OLESTARTUP
290
     0
  0
ENDSEC
  0
SECTION
  2
CLASSES
  0
CLASS
  1
ACDBDICTIONARYWDFLT
  2
AcDbDictionaryWithDefault
  3
ObjectDBX Classes
 90
        0
280
     0
281
     0
  0
CLASS
  1
VISUALSTYLE
  2
AcDbVisualStyle
  3
ObjectDBX Classes
 90
     4095
280
     0
281
     0
  0
CLASS
  1
MATERIAL
  2
AcDbMaterial
  3
ObjectDBX Classes
 90
     1153
280
     0
281
     0
  0
CLASS
  1

  2
exOdDbSpline
  3

 90
        0
280
     0
281
     1
  0
CLASS
  1
DICTIONARYVAR
  2
AcDbDictionaryVar
  3
ObjectDBX Classes
 90
        0
280
     0
281
     0
  0
CLASS
  1
ACDBPLACEHOLDER
  2
AcDbPlaceHolder
  3
ObjectDBX Classes
 90
        0
280
     0
281
     0
  0
CLASS
  1
LAYOUT
  2
AcDbLayout
  3
ObjectDBX Classes
 90
        0
280
     0
281
     0
  0
ENDSEC
  0
SECTION
  2
TABLES
  0
TABLE
  2
VPORT
  5
8
330
0
100
AcDbSymbolTable
 70
     1
  0
VPORT
  5
29
330
8
100
AcDbSymbolTableRecord
100
AcDbViewportTableRecord
  2
*Active
 70
     0
 10
0.0
 20
0.0
 11
1.0
 21
1.0
 12
-1390.765451181192
 22
1180.767407171124
 13
0.0
 23
0.0
 14
0.5
 24
0.5
 15
0.5
 25
0.5
 16
0.0
 26
0.0
 36
1.0
 17
0.0
 27
0.0
 37
0.0
 40
1506.61539046807
 41
1.60267857142857
 42
50.0
 43
0.0
 44
0.0
 50
0.0
 51
0.0
 71
     0
 72
   100
 73
     1
 74
     3
 75
     0
 76
     0
 77
     0
 78
     0
281
     0
 65
     1
110
0.0
120
0.0
130
0.0
111
1.0
121
0.0
131
0.0
112
0.0
122
1.0
132
0.0
 79
     0
146
0.0
  0
ENDTAB
  0
TABLE
  2
LTYPE
  5
5
330
0
100
AcDbSymbolTable
 70
     8
  0
LTYPE
  5
14
330
5
100
AcDbSymbolTableRecord
100
AcDbLinetypeTableRecord
  2
ByBlock
 70
     0
  3

 72
    65
 73
     0
 40
0.0
  0
LTYPE
  5
15
330
5
100
AcDbSymbolTableRecord
100
AcDbLinetypeTableRecord
  2
ByLayer
 70
     0
  3

 72
    65
 73
     0
 40
0.0
  0
LTYPE
  5
16
330
5
100
AcDbSymbolTableRecord
100
AcDbLinetypeTableRecord
  2
Continuous
 70
     0
  3
Solid line
 72
    65
 73
     0
 40
0.0
  0
LTYPE
  5
3F
330
5
100
AcDbSymbolTableRecord
100
AcDbLinetypeTableRecord
  2
DASHED
 70
     0
  3
Dashed
 72
    65
 73
     2
 40
15.0
 49
7.0
 74
     0
 49
-8.0
 74
     0
  0
LTYPE
  5
40
330
5
100
AcDbSymbolTableRecord
100
AcDbLinetypeTableRecord
  2
DOTTED
 70
     0
  3
Dotted
 72
    65
 73
     2
 40
1.0
 49
0.0
 74
     0
 49
-1.0
 74
     0
  0
LTYPE
  5
41
330
5
100
AcDbSymbolTableRecord
100
AcDbLinetypeTableRecord
  2
DOT_CENTER
 70
     0
  3
Dot_Center
 72
    65
 73
     4
 40
14.0
 49
12.0
 74
     0
 49
-1.0
 74
     0
 49
0.0
 74
     0
 49
-1.0
 74
     0
  0
LTYPE
  5
42
330
5
100
AcDbSymbolTableRecord
100
AcDbLinetypeTableRecord
  2
LONG_DASHED
 70
     0
  3
Long_Dashed
 72
    65
 73
     2
 40
15.0
 49
10.0
 74
     0
 49
-5.0
 74
     0
  0
LTYPE
  5
43
330
5
100
AcDbSymbolTableRecord
100
AcDbLinetypeTableRecord
  2
DASH_CENTER
 70
     0
  3
Dash_Center
 72
    65
 73
     4
 40
14.0
 49
11.0
 74
     0
 49
-1.0
 74
     0
 49
1.0
 74
     0
 49
-1.0
 74
     0
  0
LTYPE
  5
44
330
5
100
AcDbSymbolTableRecord
100
AcDbLinetypeTableRecord
  2
PHANTOM
 70
     0
  3
Phantom
 72
    65
 73
     6
 40
13.0
 49
10.0
 74
     0
 49
-1.0
 74
     0
 49
0.0
 74
     0
 49
-1.0
 74
     0
 49
0.0
 74
     0
 49
-1.0
 74
     0
  0
LTYPE
  5
45
330
5
100
AcDbSymbolTableRecord
100
AcDbLinetypeTableRecord
  2
CENTER_DASH_DASH
 70
     0
  3
Center_Dash_Dash
 72
    65
 73
     6
 40
14.0
 49
9.0
 74
     0
 49
-1.0
 74
     0
 49
1.0
 74
     0
 49
-1.0
 74
     0
 49
1.0
 74
     0
 49
-1.0
 74
     0
  0
ENDTAB
  0
TABLE
  2
LAYER
  5
2
330
0
100
AcDbSymbolTable
 70
     2
  0
LAYER
  5
10
330
2
100
AcDbSymbolTableRecord
100
AcDbLayerTableRecord
  2
0
 70
     0
 62
     7
  6
Continuous
370
    -3
390
F
  0
LAYER
  5
46
330
2
100
AcDbSymbolTableRecord
100
AcDbLayerTableRecord
  2
1
 70
     0
 62
     7
  6
Continuous
370
    -3
390
F
  0
ENDTAB
  0
TABLE
  2
STYLE
  5
3
330
0
100
AcDbSymbolTable
 70
     1
  0
STYLE
  5
11
330
3
100
AcDbSymbolTableRecord
100
AcDbTextStyleTableRecord
  2
Standard
 70
     0
 40
0.0
 41
1.0
 50
0.0
 71
     0
 42
0.2
  3
txt
  4

  0
ENDTAB
  0
TABLE
  2
VIEW
  5
6
330
0
100
AcDbSymbolTable
 70
     0
  0
ENDTAB
  0
TABLE
  2
UCS
  5
7
330
0
100
AcDbSymbolTable
 70
     0
  0
ENDTAB
  0
TABLE
  2
APPID
  5
9
330
0
100
AcDbSymbolTable
 70
     1
  0
APPID
  5
12
330
9
100
AcDbSymbolTableRecord
100
AcDbRegAppTableRecord
  2
ACAD
 70
     0
  0
ENDTAB
  0
TABLE
  2
DIMSTYLE
  5
A
330
0
100
AcDbSymbolTable
 70
     1
100
AcDbDimStyleTable
  0
DIMSTYLE
105
27
330
A
100
AcDbSymbolTableRecord
100
AcDbDimStyleTableRecord
  2
Standard
 70
     0
340
11
  0
ENDTAB
  0
TABLE
  2
BLOCK_RECORD
  5
1
330
0
100
AcDbSymbolTable
 70
     1
  0
BLOCK_RECORD
  5
1F
330
1
100
AcDbSymbolTableRecord
100
AcDbBlockTableRecord
  2
*Model_Space
340
22
  0
BLOCK_RECORD
  5
1B
330
1
100
AcDbSymbolTableRecord
100
AcDbBlockTableRecord
  2
*Paper_Space
340
1E
  0
BLOCK_RECORD
  5
23
330
1
100
AcDbSymbolTableRecord
100
AcDbBlockTableRecord
  2
*Paper_Space0
340
26
  0
ENDTAB
  0
ENDSEC
  0
SECTION
  2
BLOCKS
  0
BLOCK
  5
20
330
1F
100
AcDbEntity
  8
0
100
AcDbBlockBegin
  2
*Model_Space
 70
     0
 10
0.0
 20
0.0
 30
0.0
  3
*Model_Space
  1

  0
ENDBLK
  5
21
330
1F
100
AcDbEntity
  8
0
100
AcDbBlockEnd
  0
BLOCK
  5
1C
330
1B
100
AcDbEntity
 67
     1
  8
0
100
AcDbBlockBegin
  2
*Paper_Space
 70
     0
 10
0.0
 20
0.0
 30
0.0
  3
*Paper_Space
  1

  0
ENDBLK
  5
1D
330
1B
100
AcDbEntity
 67
     1
  8
0
100
AcDbBlockEnd
  0
BLOCK
  5
24
330
23
100
AcDbEntity
  8
0
100
AcDbBlockBegin
  2
*Paper_Space0
 70
     0
 10
0.0
 20
0.0
 30
0.0
  3
*Paper_Space0
  1

  0
ENDBLK
  5
25
330
23
100
AcDbEntity
  8
0
100
AcDbBlockEnd
  0
ENDSEC
  0
SECTION
  2
ENTITIES
  0
LINE
  5
47
330
1F
100
AcDbEntity
  8
1
  6
Continuous
 62
     1
100
AcDbLine
 10
-1775.500001999869
 20
1860.592584656611
 30
0.0
 11
-1829.364473274233
 21
1860.592584656611
 31
0.0
  0
LINE
  5
48
330
1F
100
AcDbEntity
  8
1
  6
Continuous
 62
     1
100
AcDbLine
 10
-2270.500001999871
 20
1860.592584656611
 30
0.0
 11
-2216.635530725508
 21
1860.592584656611
 31
0.0
  0
LINE
  5
49
330
1F
100
AcDbEntity
  8
1
  6
Continuous
 62
     1
100
AcDbLine
 10
-1773.000001999869
 20
1725.592584656606
 30
0.0
 11
-1773.000001999869
 21
1858.092584656611
 31
0.0
  0
LINE
  5
4A
330
1F
100
AcDbEntity
  8
1
  6
Continuous
 62
     1
100
AcDbLine
 10
-2273.000001999871
 20
1725.592584656606
 30
0.0
 11
-2273.000001999871
 21
1858.092584656611
 31
0.0
  0
LINE
  5
4B
330
1F
100
AcDbEntity
  8
1
  6
Continuous
 62
     1
100
AcDbLine
 10
-518.1062284160771
 20
1040.235696252189
 30
0.0
 11
-518.1062284160771
 21
1069.219722325294
 31
0.0
  0
LINE
  5
4C
330
1F
100
AcDbEntity
  8
1
  6
Continuous
 62
     1
100
AcDbLine
 10
-766.8275109404417
 20
854.8271298804505
 30
0.0
 11
-522.066908221161
 21
1066.796029680938
 31
0.0
  0
LINE
  5
4D
330
1F
100
AcDbEntity
  8
1
  6
Continuous
 62
     1
100
AcDbLine
 10
-768.5542425869019
 20
734.8027046239356
 30
0.0
 11
-768.5542425869019
 21
851.0474851503582
 31
0.0
  0
LINE
  5
4E
330
1F
100
AcDbEntity
  8
1
  6
Continuous
 62
     7
100
AcDbLine
 10
-1285.89134913192
 20
881.7756320356137
 30
0.0
 11
-773.2142614310048
 21
733.7785047398752
 31
0.0
  0
LINE
  5
4F
330
1F
100
AcDbEntity
  8
1
  6
Continuous
 62
     7
100
AcDbLine
 10
-761.0309142584804
 20
741.31809807736
 30
0.0
 11
-768.5542425869019
 21
734.8027046239356
 31
0.0
  0
LINE
  5
50
330
1F
100
AcDbEntity
  8
1
  6
Continuous
 62
     1
100
AcDbLine
 10
-683.5977408638032
 20
889.407939401672
 30
0.0
 11
-686.6283946580766
 21
890.2828137936441
 31
0.0
  0
LINE
  5
51
330
1F
100
AcDbEntity
  8
1
  6
Continuous
 62
     1
100
AcDbLine
 10
-683.5977408638032
 20
889.407939401672
 30
0.0
 11
-533.5977408638034
 21
1019.311749969337
 31
0.0
  0
LINE
  5
52
330
1F
100
AcDbEntity
  8
0
  6
Continuous
 62
     7
100
AcDbLine
 10
-533.9863667496783
 20
1015.862638144106
 30
0.0
 11
-532.8477360214561
 21
1016.848721280276
 31
0.0
  0
LINE
  5
53
330
1F
100
AcDbEntity
  8
1
  6
Continuous
 62
     7
100
AcDbLine
 10
-549.2140777891561
 20
1035.746944930738
 30
0.0
 11
-550.3527085173791
 21
1034.760861794567
 31
0.0
  0
LINE
  5
54
330
1F
100
AcDbEntity
  8
0
  6
Continuous
 62
     7
100
AcDbLine
 10
-1037.273461980018
 20
1223.3285946742
 30
0.0
 11
-1283.259585791358
 21
1010.298362475115
 31
0.0
  0
LINE
  5
55
330
1F
100
AcDbEntity
  8
1
  6
Continuous
 62
     7
100
AcDbLine
 10
-1250.510730390315
 20
1057.37483236803
 30
0.0
 11
-1100.510730390317
 21
1187.278642935697
 31
0.0
  0
LINE
  5
56
330
1F
100
AcDbEntity
  8
1
  6
Continuous
 62
     7
100
AcDbLine
 10
-688.9506089678295
 20
877.6910407383859
 30
0.0
 11
-538.9506089678297
 21
1007.594851306051
 31
0.0
  0
LINE
  5
57
330
1F
100
AcDbEntity
  8
1
  6
Continuous
 62
     7
100
AcDbLine
 10
-709.2448727597765
 20
901.1248380649579
 30
0.0
 11
-559.2448727597765
 21
1031.028648632623
 31
0.0
  0
LINE
  5
58
330
1F
100
AcDbEntity
  8
0
  6
Continuous
 62
     7
100
AcDbLine
 10
-1853.00000199987
 20
521.9996519172319
 30
0.0
 11
-1840.50000199987
 21
521.9996519172319
 31
0.0
  0
LINE
  5
59
330
1F
100
AcDbEntity
  8
0
  6
Continuous
 62
     7
100
AcDbLine
 10
-2193.00000199987
 20
1171.999651917232
 30
0.0
 11
-2205.50000199987
 21
1171.999651917232
 31
0.0
  0
LINE
  5
5A
330
1F
100
AcDbEntity
  8
1
  6
Continuous
 62
     7
100
AcDbLine
 10
-1853.00000199987
 20
1174.999651917232
 30
0.0
 11
-1853.00000199987
 21
1146.999655917232
 31
0.0
  0
LINE
  5
5B
330
1F
100
AcDbEntity
  8
1
  6
Continuous
 62
     7
100
AcDbLine
 10
-2193.00000199987
 20
1174.999651917232
 30
0.0
 11
-1853.00000199987
 21
1174.999651917232
 31
0.0
  0
LINE
  5
5C
330
1F
100
AcDbEntity
  8
1
  6
Continuous
 62
     7
100
AcDbLine
 10
-2193.00000199987
 20
1146.999655917232
 30
0.0
 11
-2193.00000199987
 21
1174.999651917232
 31
0.0
  0
LINE
  5
5D
330
1F
100
AcDbEntity
  8
1
  6
Continuous
 62
     7
100
AcDbLine
 10
-1853.00000199987
 20
518.9996519172319
 30
0.0
 11
-1853.00000199987
 21
546.9996519172319
 31
0.0
  0
LINE
  5
5E
330
1F
100
AcDbEntity
  8
1
  6
Continuous
 62
     7
100
AcDbLine
 10
-2193.00000199987
 20
518.9996519172319
 30
0.0
 11
-1853.00000199987
 21
518.9996519172319
 31
0.0
  0
LINE
  5
5F
330
1F
100
AcDbEntity
  8
1
  6
Continuous
 62
     7
100
AcDbLine
 10
-2193.00000199987
 20
546.9996519172319
 30
0.0
 11
-2193.00000199987
 21
518.9996519172319
 31
0.0
  0
LINE
  5
60
330
1F
100
AcDbEntity
  8
0
  6
Continuous
 62
     7
100
AcDbLine
 10
-2193.00000199987
 20
1861.592584656607
 30
0.0
 11
-2205.50000199987
 21
1861.592584656607
 31
0.0
  0
LINE
  5
61
330
1F
100
AcDbEntity
  8
0
  6
Continuous
 62
     7
100
AcDbLine
 10
-2193.00000199987
 20
1836.592584656607
 30
0.0
 11
-2205.50000199987
 21
1836.592584656607
 31
0.0
  0
LINE
  5
62
330
1F
100
AcDbEntity
  8
1
  6
Continuous
 62
     1
100
AcDbLine
 10
-1853.00000199987
 20
1849.092584656607
 30
0.0
 11
-2193.00000199987
 21
1849.092584656607
 31
0.0
  0
LINE
  5
63
330
1F
100
AcDbEntity
  8
1
  6
Continuous
 62
     7
100
AcDbLine
 10
-2193.00000199987
 20
1833.592584656607
 30
0.0
 11
-2193.00000199987
 21
1864.592584656607
 31
0.0
  0
LINE
  5
64
330
1F
100
AcDbEntity
  8
1
  6
Continuous
 62
     7
100
AcDbLine
 10
-1853.00000199987
 20
1833.592584656607
 30
0.0
 11
-2193.00000199987
 21
1833.592584656607
 31
0.0
  0
LINE
  5
65
330
1F
100
AcDbEntity
  8
1
  6
Continuous
 62
     7
100
AcDbLine
 10
-1853.00000199987
 20
1864.592584656607
 30
0.0
 11
-1853.00000199987
 21
1833.592584656607
 31
0.0
  0
LINE
  5
66
330
1F
100
AcDbEntity
  8
1
  6
Continuous
 62
     7
100
AcDbLine
 10
-2193.00000199987
 20
1864.592584656607
 30
0.0
 11
-1853.00000199987
 21
1864.592584656607
 31
0.0
  0
LINE
  5
67
330
1F
100
AcDbEntity
  8
1
  6
Continuous
 62
     1
100
AcDbLine
 10
-1767.999997999871
 20
1860.592584656611
 30
0.0
 11
-1775.500001999869
 21
1860.592584656611
 31
0.0
  0
LINE
  5
68
330
1F
100
AcDbEntity
  8
1
  6
Continuous
 62
     1
100
AcDbLine
 10
-2278.000001999871
 20
1860.592584656611
 30
0.0
 11
-2270.500001999871
 21
1860.592584656611
 31
0.0
  0
LINE
  5
69
330
1F
100
AcDbEntity
  8
1
  6
Continuous
 62
     1
100
AcDbLine
 10
-766.8275109404417
 20
854.8271298804505
 30
0.0
 11
-767.5282486723144
 21
854.2202732032584
 31
0.0
  0
LINE
  5
6A
330
1F
100
AcDbEntity
  8
1
  6
Continuous
 62
     1
100
AcDbLine
 10
-1280.736040431287
 20
998.816454387742
 30
0.0
 11
-774.5182769384686
 21
852.6839733771677
 31
0.0
  0
LINE
  5
6B
330
1F
100
AcDbEntity
  8
0
  6
Continuous
 62
     7
100
AcDbLine
 10
-768.5542425869021
 20
856.0462611537611
 30
0.0
 11
-522.5681187755621
 21
1069.076493352846
 31
0.0
  0
LINE
  5
6C
330
1F
100
AcDbEntity
  8
1
  6
Continuous
 62
     1
100
AcDbLine
 10
-894.9138039172317
 20
1860.592584656611
 30
0.0
 11
-1494.913807917233
 21
1860.592584656611
 31
0.0
  0
LINE
  5
6D
330
1F
100
AcDbEntity
  8
0
  6
Continuous
 62
     7
100
AcDbLine
 10
-2243.00000199987
 20
1799.092584656607
 30
0.0
 11
-2243.00000199987
 21
1489.092584656607
 31
0.0
  0
LINE
  5
6E
330
1F
100
AcDbEntity
  8
0
  6
Continuous
 62
     7
100
AcDbLine
 10
-1865.348417974112
 20
1426.592584656607
 30
0.0
 11
-1840.50000199987
 21
1426.592584656607
 31
0.0
  0
LINE
  5
6F
330
1F
100
AcDbEntity
  8
0
  6
Continuous
 62
     7
100
AcDbLine
 10
-1778.00000199987
 20
1725.592584656606
 30
0.0
 11
-1778.00000199987
 21
1770.592584656611
 31
0.0
  0
LINE
  5
70
330
1F
100
AcDbEntity
  8
0
  6
Continuous
 62
     7
100
AcDbLine
 10
-1778.00000199987
 20
1489.092584656607
 30
0.0
 11
-1778.00000199987
 21
1725.592584656606
 31
0.0
  0
LINE
  5
71
330
1F
100
AcDbEntity
  8
0
  6
Continuous
 62
     7
100
AcDbLine
 10
-1803.00000199987
 20
1725.592584656606
 30
0.0
 11
-1803.00000199987
 21
1770.592584656611
 31
0.0
  0
LINE
  5
72
330
1F
100
AcDbEntity
  8
0
  6
Continuous
 62
     7
100
AcDbLine
 10
-1778.00000199987
 20
1771.592584656611
 30
0.0
 11
-1778.00000199987
 21
1799.092584656607
 31
0.0
  0
LINE
  5
73
330
1F
100
AcDbEntity
  8
0
  6
Continuous
 62
     7
100
AcDbLine
 10
-1803.00000199987
 20
1770.592584656611
 30
0.0
 11
-1803.00000199987
 21
1771.592584656611
 31
0.0
  0
LINE
  5
74
330
1F
100
AcDbEntity
  8
0
  6
Continuous
 62
     7
100
AcDbLine
 10
-1778.00000199987
 20
1770.592584656611
 30
0.0
 11
-1778.00000199987
 21
1771.592584656611
 31
0.0
  0
LINE
  5
75
330
1F
100
AcDbEntity
  8
0
  6
Continuous
 62
     7
100
AcDbLine
 10
-1840.50000199987
 20
1836.592584656607
 30
0.0
 11
-1853.00000199987
 21
1836.592584656607
 31
0.0
  0
LINE
  5
76
330
1F
100
AcDbEntity
  8
0
  6
Continuous
 62
     7
100
AcDbLine
 10
-2268.00000199987
 20
1771.592584656611
 30
0.0
 11
-2268.00000199987
 21
1770.592584656611
 31
0.0
  0
LINE
  5
77
330
1F
100
AcDbEntity
  8
0
  6
Continuous
 62
     7
100
AcDbLine
 10
-2268.00000199987
 20
1799.092584656607
 30
0.0
 11
-2268.00000199987
 21
1771.592584656611
 31
0.0
  0
LINE
  5
78
330
1F
100
AcDbEntity
  8
0
  6
Continuous
 62
     7
100
AcDbLine
 10
-2268.00000199987
 20
1725.592584656606
 30
0.0
 11
-2268.00000199987
 21
1489.092584656607
 31
0.0
  0
LINE
  5
79
330
1F
100
AcDbEntity
  8
0
  6
Continuous
 62
     7
100
AcDbLine
 10
-2268.00000199987
 20
1770.592584656611
 30
0.0
 11
-2268.00000199987
 21
1725.592584656606
 31
0.0
  0
LINE
  5
7A
330
1F
100
AcDbEntity
  8
0
  6
Continuous
 62
     7
100
AcDbLine
 10
-1840.50000199987
 20
1861.592584656607
 30
0.0
 11
-1853.00000199987
 21
1861.592584656607
 31
0.0
  0
LINE
  5
7B
330
1F
100
AcDbEntity
  8
0
  6
Continuous
 62
     7
100
AcDbLine
 10
-1803.00000199987
 20
1771.592584656611
 30
0.0
 11
-1803.00000199987
 21
1799.092584656607
 31
0.0
  0
LINE
  5
7C
330
1F
100
AcDbEntity
  8
0
  6
Continuous
 62
     7
100
AcDbLine
 10
-2205.50000199987
 20
1451.592584656607
 30
0.0
 11
-1840.50000199987
 21
1451.592584656607
 31
0.0
  0
LINE
  5
7D
330
1F
100
AcDbEntity
  8
0
  6
Continuous
 62
     7
100
AcDbLine
 10
-1803.00000199987
 20
1489.092584656607
 30
0.0
 11
-1803.00000199987
 21
1725.592584656606
 31
0.0
  0
LINE
  5
7E
330
1F
100
AcDbEntity
  8
0
  6
Continuous
 62
     7
100
AcDbLine
 10
-2085.348417974229
 20
1426.592584656607
 30
0.0
 11
-1962.228167412221
 21
1426.592584656607
 31
0.0
  0
LINE
  5
7F
330
1F
100
AcDbEntity
  8
0
  6
Continuous
 62
     7
100
AcDbLine
 10
-2205.50000199987
 20
1426.592584656607
 30
0.0
 11
-2182.228167407462
 21
1426.592584656607
 31
0.0
  0
LINE
  5
80
330
1F
100
AcDbEntity
  8
0
  6
Continuous
 62
     7
100
AcDbLine
 10
-1090.479952365155
 20
1191.996924558611
 30
0.0
 11
-1091.618566147917
 21
1191.01085609764
 31
0.0
  0
LINE
  5
81
330
1F
100
AcDbEntity
  8
0
  6
Continuous
 62
     7
100
AcDbLine
 10
-1090.073857077541
 20
1192.265570326921
 30
0.0
 11
-1090.479952365155
 21
1191.996924558611
 31
0.0
  0
LINE
  5
82
330
1F
100
AcDbEntity
  8
0
  6
Continuous
 62
     7
100
AcDbLine
 10
-1065.234399096021
 20
1199.113712182674
 30
0.0
 11
-1068.798600275556
 21
1199.515357057777
 31
0.0
  0
LINE
  5
83
330
1F
100
AcDbEntity
  8
0
  6
Continuous
 62
     7
100
AcDbLine
 10
-1088.108085868555
 20
1193.456760650668
 30
0.0
 11
-1090.073857077541
 21
1192.265570326921
 31
0.0
  0
LINE
  5
84
330
1F
100
AcDbEntity
  8
0
  6
Continuous
 62
     7
100
AcDbLine
 10
-1084.182877795687
 20
1196.318551208967
 30
0.0
 11
-1088.108085868555
 21
1193.456760650668
 31
0.0
  0
LINE
  5
85
330
1F
100
AcDbEntity
  8
0
  6
Continuous
 62
     7
100
AcDbLine
 10
-1083.808602663113
 20
1196.559236205048
 30
0.0
 11
-1084.182877795687
 21
1196.318551208967
 31
0.0
  0
LINE
  5
86
330
1F
100
AcDbEntity
  8
0
  6
Continuous
 62
     7
100
AcDbLine
 10
-1083.338536090252
 20
1196.828297482385
 30
0.0
 11
-1083.808602663113
 21
1196.559236205048
 31
0.0
  0
LINE
  5
87
330
1F
100
AcDbEntity
  8
0
  6
Continuous
 62
     7
100
AcDbLine
 10
-1082.633700085627
 20
1197.219852387404
 30
0.0
 11
-1083.338536090252
 21
1196.828297482385
 31
0.0
  0
LINE
  5
88
330
1F
100
AcDbEntity
  8
0
  6
Continuous
 62
     7
100
AcDbLine
 10
-1073.641112747039
 20
1199.980548270927
 30
0.0
 11
-1082.633700085627
 21
1197.219852387404
 31
0.0
  0
LINE
  5
89
330
1F
100
AcDbEntity
  8
0
  6
Continuous
 62
     7
100
AcDbLine
 10
-1073.480521530265
 20
1200.004607475913
 30
0.0
 11
-1073.641112747039
 21
1199.980548270927
 31
0.0
  0
LINE
  5
8A
330
1F
100
AcDbEntity
  8
0
  6
Continuous
 62
     7
100
AcDbLine
 10
-1073.306478636828
 20
1200.028971934523
 30
0.0
 11
-1073.480521530265
 21
1200.004607475913
 31
0.0
  0
LINE
  5
8B
330
1F
100
AcDbEntity
  8
0
  6
Continuous
 62
     7
100
AcDbLine
 10
-1068.798600275556
 20
1199.515357057777
 30
0.0
 11
-1073.306478636828
 21
1200.028971934523
 31
0.0
  0
LINE
  5
8C
330
1F
100
AcDbEntity
  8
0
  6
Continuous
 62
     7
100
AcDbLine
 10
-1248.546769378192
 20
1055.107045529975
 30
0.0
 11
-1272.979956282568
 21
1033.947284975371
 31
0.0
  0
LINE
  5
8D
330
1F
100
AcDbEntity
  8
0
  6
Continuous
 62
     7
100
AcDbLine
 10
-1301.586562507888
 20
970.3906715679489
 30
0.0
 11
-1302.296788875521
 21
959.5462822376707
 31
0.0
  0
LINE
  5
8E
330
1F
100
AcDbEntity
  8
0
  6
Continuous
 62
     7
100
AcDbLine
 10
-1299.748082113038
 20
981.5769608447124
 30
0.0
 11
-1301.586562507888
 21
970.3906715679489
 31
0.0
  0
LINE
  5
8F
330
1F
100
AcDbEntity
  8
0
  6
Continuous
 62
     7
100
AcDbLine
 10
-1296.845948542182
 20
992.7711289091852
 30
0.0
 11
-1299.748082113038
 21
981.5769608447124
 31
0.0
  0
LINE
  5
90
330
1F
100
AcDbEntity
  8
0
  6
Continuous
 62
     7
100
AcDbLine
 10
-1292.976597042464
 20
1003.610091481436
 30
0.0
 11
-1296.845948542182
 21
992.7711289091852
 31
0.0
  0
LINE
  5
91
330
1F
100
AcDbEntity
  8
0
  6
Continuous
 62
     7
100
AcDbLine
 10
-1288.258780293359
 20
1013.74611547383
 30
0.0
 11
-1292.976597042464
 21
1003.610091481436
 31
0.0
  0
LINE
  5
92
330
1F
100
AcDbEntity
  8
0
  6
Continuous
 62
     7
100
AcDbLine
 10
-1285.140528048377
 20
1018.977335576091
 30
0.0
 11
-1288.258780293359
 21
1013.74611547383
 31
0.0
  0
LINE
  5
93
330
1F
100
AcDbEntity
  8
0
  6
Continuous
 62
     7
100
AcDbLine
 10
-1282.720231918067
 20
1022.825917304857
 30
0.0
 11
-1285.140528048377
 21
1018.977335576091
 31
0.0
  0
LINE
  5
94
330
1F
100
AcDbEntity
  8
0
  6
Continuous
 62
     7
100
AcDbLine
 10
-1276.329058064418
 20
1030.507844678923
 30
0.0
 11
-1282.720231918067
 21
1022.825917304857
 31
0.0
  0
LINE
  5
95
330
1F
100
AcDbEntity
  8
0
  6
Continuous
 62
     7
100
AcDbLine
 10
-1274.677934282881
 20
1032.073931070544
 30
0.0
 11
-1276.329058064418
 21
1030.507844678923
 31
0.0
  0
LINE
  5
96
330
1F
100
AcDbEntity
  8
0
  6
Continuous
 62
     7
100
AcDbLine
 10
-1273.393725002383
 20
1033.51285149092
 30
0.0
 11
-1274.677934282881
 21
1032.073931070544
 31
0.0
  0
LINE
  5
97
330
1F
100
AcDbEntity
  8
0
  6
Continuous
 62
     7
100
AcDbLine
 10
-1272.979956282568
 20
1033.947284975371
 30
0.0
 11
-1273.393725002383
 21
1033.51285149092
 31
0.0
  0
LINE
  5
98
330
1F
100
AcDbEntity
  8
0
  6
Continuous
 62
     7
100
AcDbLine
 10
-1072.618871483828
 20
819.7046870899828
 30
0.0
 11
-1072.21183725239
 21
820.0916917167269
 31
0.0
  0
LINE
  5
99
330
1F
100
AcDbEntity
  8
0
  6
Continuous
 62
     7
100
AcDbLine
 10
-1072.960100770884
 20
819.2693994985751
 30
0.0
 11
-1072.618871483828
 21
819.7046870899828
 31
0.0
  0
LINE
  5
9A
330
1F
100
AcDbEntity
  8
0
  6
Continuous
 62
     7
100
AcDbLine
 10
-1074.113613223313
 20
818.0283237570691
 30
0.0
 11
-1072.960100770884
 21
819.2693994985751
 31
0.0
  0
LINE
  5
9B
330
1F
100
AcDbEntity
  8
0
  6
Continuous
 62
     7
100
AcDbLine
 10
-1275.06204579946
 20
677.4730943983285
 30
0.0
 11
-1274.928293088854
 21
677.5702990927864
 31
0.0
  0
LINE
  5
9C
330
1F
100
AcDbEntity
  8
0
  6
Continuous
 62
     7
100
AcDbLine
 10
-1274.928293088854
 20
677.5702990927864
 30
0.0
 11
-1272.979966141088
 21
678.8768812135725
 31
0.0
  0
LINE
  5
9D
330
1F
100
AcDbEntity
  8
0
  6
Continuous
 62
     7
100
AcDbLine
 10
-1302.181820664959
 20
687.5530783593654
 30
0.0
 11
-1302.296773816254
 21
691.0784144278358
 31
0.0
  0
LINE
  5
9E
330
1F
100
AcDbEntity
  8
0
  6
Continuous
 62
     7
100
AcDbLine
 10
-1302.126501121325
 20
686.6141183437419
 30
0.0
 11
-1302.181820664959
 21
687.5530783593654
 31
0.0
  0
LINE
  5
9F
330
1F
100
AcDbEntity
  8
0
  6
Continuous
 62
     7
100
AcDbLine
 10
-1302.090606761016
 20
686.364948559198
 30
0.0
 11
-1302.126501121325
 21
686.6141183437419
 31
0.0
  0
LINE
  5
A0
330
1F
100
AcDbEntity
  8
0
  6
Continuous
 62
     7
100
AcDbLine
 10
-1302.066234977001
 20
685.8761900892271
 30
0.0
 11
-1302.090606761016
 21
686.364948559198
 31
0.0
  0
LINE
  5
A1
330
1F
100
AcDbEntity
  8
0
  6
Continuous
 62
     7
100
AcDbLine
 10
-1300.594747841003
 20
676.0646492083038
 30
0.0
 11
-1302.066234977001
 21
685.8761900892271
 31
0.0
  0
LINE
  5
A2
330
1F
100
AcDbEntity
  8
0
  6
Continuous
 62
     7
100
AcDbLine
 10
-1297.685500299852
 20
667.0621481475282
 30
0.0
 11
-1300.594747841003
 21
676.0646492083038
 31
0.0
  0
LINE
  5
A3
330
1F
100
AcDbEntity
  8
0
  6
Continuous
 62
     7
100
AcDbLine
 10
-1296.802831171255
 20
665.4625091992502
 30
0.0
 11
-1297.685500299852
 21
667.0621481475282
 31
0.0
  0
LINE
  5
A4
330
1F
100
AcDbEntity
  8
0
  6
Continuous
 62
     7
100
AcDbLine
 10
-1292.33066903539
 20
659.1978420471319
 30
0.0
 11
-1296.802831171255
 21
665.4625091992502
 31
0.0
  0
LINE
  5
A5
330
1F
100
AcDbEntity
  8
0
  6
Continuous
 62
     7
100
AcDbLine
 10
-1289.765558717844
 20
656.984613310583
 30
0.0
 11
-1292.33066903539
 21
659.1978420471319
 31
0.0
  0
LINE
  5
A6
330
1F
100
AcDbEntity
  8
0
  6
Continuous
 62
     7
100
AcDbLine
 10
-1284.006544971047
 20
653.4647332402145
 30
0.0
 11
-1289.765558717844
 21
656.984613310583
 31
0.0
  0
LINE
  5
A7
330
1F
100
AcDbEntity
  8
0
  6
Continuous
 62
     7
100
AcDbLine
 10
-1282.072021721207
 20
652.8858659746047
 30
0.0
 11
-1284.006544971047
 21
653.4647332402145
 31
0.0
  0
LINE
  5
A8
330
1F
100
AcDbEntity
  8
0
  6
Continuous
 62
     7
100
AcDbLine
 10
-1273.787085874442
 20
651.9466310306371
 30
0.0
 11
-1282.072021721207
 21
652.8858659746047
 31
0.0
  0
LINE
  5
A9
330
1F
100
AcDbEntity
  8
0
  6
Continuous
 62
     7
100
AcDbLine
 10
-1273.452450991562
 20
651.9950654561242
 30
0.0
 11
-1273.787085874442
 21
651.9466310306371
 31
0.0
  0
LINE
  5
AA
330
1F
100
AcDbEntity
  8
0
  6
Continuous
 62
     7
100
AcDbLine
 10
-1264.459893262044
 20
654.755725604701
 30
0.0
 11
-1273.452450991562
 21
651.9950654561242
 31
0.0
  0
LINE
  5
AB
330
1F
100
AcDbEntity
  8
0
  6
Continuous
 62
     7
100
AcDbLine
 10
-1256.613611373446
 20
659.9786891684407
 30
0.0
 11
-1264.459893262044
 21
654.755725604701
 31
0.0
  0
LINE
  5
AC
330
1F
100
AcDbEntity
  8
0
  6
Continuous
 62
     7
100
AcDbLine
 10
-1274.834257753744
 20
677.2850870125237
 30
0.0
 11
-1274.420153223684
 21
676.1327077208052
 31
0.0
  0
LINE
  5
AD
330
1F
100
AcDbEntity
  8
0
  6
Continuous
 62
     7
100
AcDbLine
 10
-1275.209352179468
 20
677.5946753657738
 30
0.0
 11
-1274.834257753744
 21
677.2850870125237
 31
0.0
  0
LINE
  5
AE
330
1F
100
AcDbEntity
  8
0
  6
Continuous
 62
     7
100
AcDbLine
 10
-1276.551655088327
 20
681.4498127832171
 30
0.0
 11
-1275.209352179468
 21
677.5946753657738
 31
0.0
  0
LINE
  5
AF
330
1F
100
AcDbEntity
  8
0
  6
Continuous
 62
     7
100
AcDbLine
 10
-1277.158644054052
 20
686.5931967700486
 30
0.0
 11
-1276.551655088327
 21
681.4498127832171
 31
0.0
  0
LINE
  5
B0
330
1F
100
AcDbEntity
  8
0
  6
Continuous
 62
     7
100
AcDbLine
 10
-1277.25343757375
 20
687.4653919539508
 30
0.0
 11
-1277.158644054052
 21
686.5931967700486
 31
0.0
  0
LINE
  5
B1
330
1F
100
AcDbEntity
  8
0
  6
Continuous
 62
     7
100
AcDbLine
 10
-1277.252864793557
 20
687.74261074947
 30
0.0
 11
-1277.25343757375
 21
687.4653919539508
 31
0.0
  0
LINE
  5
B2
330
1F
100
AcDbEntity
  8
0
  6
Continuous
 62
     7
100
AcDbLine
 10
-1277.222748752508
 20
688.1161951470681
 30
0.0
 11
-1277.252864793557
 21
687.74261074947
 31
0.0
  0
LINE
  5
B3
330
1F
100
AcDbEntity
  8
0
  6
Continuous
 62
     7
100
AcDbLine
 10
-1277.296779379735
 20
691.0784211979616
 30
0.0
 11
-1277.222748752508
 21
688.1161951470681
 31
0.0
  0
LINE
  5
B4
330
1F
100
AcDbEntity
  8
0
  6
Continuous
 62
     7
100
AcDbLine
 10
-1256.613611373446
 20
659.9786891684407
 30
0.0
 11
-1074.113613223313
 21
818.0283237570691
 31
0.0
  0
LINE
  5
B5
330
1F
100
AcDbEntity
  8
0
  6
Continuous
 62
     7
100
AcDbLine
 10
-1100.492330544896
 20
828.2555556401566
 30
0.0
 11
-1272.979966141088
 21
678.8768812135725
 31
0.0
  0
LINE
  5
B6
330
1F
100
AcDbEntity
  8
0
  6
Continuous
 62
     7
100
AcDbLine
 10
-1302.296773816254
 20
691.0784144278358
 30
0.0
 11
-1302.296788875521
 21
959.5462822376707
 31
0.0
  0
LINE
  5
B7
330
1F
100
AcDbEntity
  8
0
  6
Continuous
 62
     7
100
AcDbLine
 10
-1277.296789937416
 20
879.2946323196986
 30
0.0
 11
-1277.296779379735
 21
691.0784211979616
 31
0.0
  0
LINE
  5
B8
330
1F
100
AcDbEntity
  8
0
  6
Continuous
 62
     7
100
AcDbLine
 10
-546.279673063972
 20
1037.84617212843
 30
0.0
 11
-549.2140777891561
 21
1035.746944930738
 31
0.0
  0
LINE
  5
B9
330
1F
100
AcDbEntity
  8
0
  6
Continuous
 62
     7
100
AcDbLine
 10
-530.9435715163941
 20
1018.288109527822
 30
0.0
 11
-530.458614744944
 21
1017.601193305608
 31
0.0
  0
LINE
  5
BA
330
1F
100
AcDbEntity
  8
0
  6
Continuous
 62
     7
100
AcDbLine
 10
-528.809373700582
 20
1009.339599476636
 30
0.0
 11
-528.530905206311
 21
1004.645016647247
 31
0.0
  0
LINE
  5
BB
330
1F
100
AcDbEntity
  8
0
  6
Continuous
 62
     7
100
AcDbLine
 10
-528.8151454096101
 20
1010.262648685311
 30
0.0
 11
-528.809373700582
 21
1009.339599476636
 31
0.0
  0
LINE
  5
BC
330
1F
100
AcDbEntity
  8
0
  6
Continuous
 62
     7
100
AcDbLine
 10
-528.8009300109061
 20
1010.489571611279
 30
0.0
 11
-528.8151454096101
 21
1010.262648685311
 31
0.0
  0
LINE
  5
BD
330
1F
100
AcDbEntity
  8
0
  6
Continuous
 62
     7
100
AcDbLine
 10
-528.8289351664641
 20
1011.494606368312
 30
0.0
 11
-528.8009300109061
 21
1010.489571611279
 31
0.0
  0
LINE
  5
BE
330
1F
100
AcDbEntity
  8
0
  6
Continuous
 62
     7
100
AcDbLine
 10
-529.548192851599
 20
1014.844748435222
 30
0.0
 11
-528.8289351664641
 21
1011.494606368312
 31
0.0
  0
LINE
  5
BF
330
1F
100
AcDbEntity
  8
0
  6
Continuous
 62
     7
100
AcDbLine
 10
-529.886728092983
 20
1016.520682132526
 30
0.0
 11
-529.548192851599
 21
1014.844748435222
 31
0.0
  0
LINE
  5
C0
330
1F
100
AcDbEntity
  8
0
  6
Continuous
 62
     7
100
AcDbLine
 10
-530.458614744944
 20
1017.601193305608
 30
0.0
 11
-529.886728092983
 21
1016.520682132526
 31
0.0
  0
LINE
  5
C1
330
1F
100
AcDbEntity
  8
0
  6
Continuous
 62
     7
100
AcDbLine
 10
-530.649163081961
 20
1018.286870498821
 30
0.0
 11
-529.8652393073901
 21
1018.853678428549
 31
0.0
  0
LINE
  5
C2
330
1F
100
AcDbEntity
  8
0
  6
Continuous
 62
     7
100
AcDbLine
 10
-530.9435715163941
 20
1018.288109527822
 30
0.0
 11
-530.649163081961
 21
1018.286870498821
 31
0.0
  0
LINE
  5
C3
330
1F
100
AcDbEntity
  8
0
  6
Continuous
 62
     7
100
AcDbLine
 10
-531.4303341701741
 20
1018.107948773595
 30
0.0
 11
-530.9435715163941
 21
1018.288109527822
 31
0.0
  0
LINE
  5
C4
330
1F
100
AcDbEntity
  8
0
  6
Continuous
 62
     7
100
AcDbLine
 10
-531.882644766175
 20
1017.772584076107
 30
0.0
 11
-531.4303341701741
 21
1018.107948773595
 31
0.0
  0
LINE
  5
C5
330
1F
100
AcDbEntity
  8
0
  6
Continuous
 62
     7
100
AcDbLine
 10
-532.8477360214561
 20
1016.848721280276
 30
0.0
 11
-531.882644766175
 21
1017.772584076107
 31
0.0
  0
LINE
  5
C6
330
1F
100
AcDbEntity
  8
0
  6
Continuous
 62
     7
100
AcDbLine
 10
-545.40507582684
 20
1038.539496560272
 30
0.0
 11
-546.279673063972
 21
1037.84617212843
 31
0.0
  0
LINE
  5
C7
330
1F
100
AcDbEntity
  8
0
  6
Continuous
 62
     7
100
AcDbLine
 10
-544.4209083283681
 20
1039.091662611989
 30
0.0
 11
-545.40507582684
 21
1038.539496560272
 31
0.0
  0
LINE
  5
C8
330
1F
100
AcDbEntity
  8
0
  6
Continuous
 62
     7
100
AcDbLine
 10
-542.9440817815521
 20
1039.974744180567
 30
0.0
 11
-544.4209083283681
 21
1039.091662611989
 31
0.0
  0
LINE
  5
C9
330
1F
100
AcDbEntity
  8
0
  6
Continuous
 62
     7
100
AcDbLine
 10
-539.523955561486
 20
1041.50098825026
 30
0.0
 11
-542.9440817815521
 21
1039.974744180567
 31
0.0
  0
LINE
  5
CA
330
1F
100
AcDbEntity
  8
0
  6
Continuous
 62
     7
100
AcDbLine
 10
-536.8780657576631
 20
1042.649968484131
 30
0.0
 11
-539.523955561486
 21
1041.50098825026
 31
0.0
  0
LINE
  5
CB
330
1F
100
AcDbEntity
  8
0
  6
Continuous
 62
     7
100
AcDbLine
 10
-534.6536671838589
 20
1043.030126158996
 30
0.0
 11
-536.8780657576631
 21
1042.649968484131
 31
0.0
  0
LINE
  5
CC
330
1F
100
AcDbEntity
  8
0
  6
Continuous
 62
     7
100
AcDbLine
 10
-532.4581005962029
 20
1043.443529527418
 30
0.0
 11
-534.6536671838589
 21
1043.030126158996
 31
0.0
  0
LINE
  5
CD
330
1F
100
AcDbEntity
  8
0
  6
Continuous
 62
     7
100
AcDbLine
 10
-526.8948637531171
 20
1043.533409029165
 30
0.0
 11
-532.4581005962029
 21
1043.443529527418
 31
0.0
  0
LINE
  5
CE
330
1F
100
AcDbEntity
  8
0
  6
Continuous
 62
     7
100
AcDbLine
 10
-523.7774619897341
 20
1042.76424294079
 30
0.0
 11
-526.8948637531171
 21
1043.533409029165
 31
0.0
  0
LINE
  5
CF
330
1F
100
AcDbEntity
  8
0
  6
Continuous
 62
     7
100
AcDbLine
 10
-517.2384384977349
 20
1039.848787955091
 30
0.0
 11
-523.7774619897341
 21
1042.76424294079
 31
0.0
  0
LINE
  5
D0
330
1F
100
AcDbEntity
  8
0
  6
Continuous
 62
     7
100
AcDbLine
 10
-516.0239489034461
 20
1038.873328888617
 30
0.0
 11
-517.2384384977349
 21
1039.848787955091
 31
0.0
  0
LINE
  5
D1
330
1F
100
AcDbEntity
  8
0
  6
Continuous
 62
     7
100
AcDbLine
 10
-510.47183005183
 20
1032.77182696226
 30
0.0
 11
-516.0239489034461
 21
1038.873328888617
 31
0.0
  0
LINE
  5
D2
330
1F
100
AcDbEntity
  8
0
  6
Continuous
 62
     7
100
AcDbLine
 10
-509.878064022799
 20
1031.724555205793
 30
0.0
 11
-510.47183005183
 21
1032.77182696226
 31
0.0
  0
LINE
  5
D3
330
1F
100
AcDbEntity
  8
0
  6
Continuous
 62
     7
100
AcDbLine
 10
-509.043393596387
 20
1030.198940316636
 30
0.0
 11
-509.878064022799
 21
1031.724555205793
 31
0.0
  0
LINE
  5
D4
330
1F
100
AcDbEntity
  8
0
  6
Continuous
 62
     7
100
AcDbLine
 10
-507.459191485141
 20
1026.44589690417
 30
0.0
 11
-509.043393596387
 21
1030.198940316636
 31
0.0
  0
LINE
  5
D5
330
1F
100
AcDbEntity
  8
0
  6
Continuous
 62
     7
100
AcDbLine
 10
-506.4978193237521
 20
1024.254533235884
 30
0.0
 11
-507.459191485141
 21
1026.44589690417
 31
0.0
  0
LINE
  5
D6
330
1F
100
AcDbEntity
  8
0
  6
Continuous
 62
     7
100
AcDbLine
 10
-504.3254899025271
 20
1014.859227157459
 30
0.0
 11
-506.4978193237521
 21
1024.254533235884
 31
0.0
  0
LINE
  5
D7
330
1F
100
AcDbEntity
  8
0
  6
Continuous
 62
     7
100
AcDbLine
 10
-504.1690114941421
 20
1012.983803302076
 30
0.0
 11
-504.3254899025271
 21
1014.859227157459
 31
0.0
  0
LINE
  5
D8
330
1F
100
AcDbEntity
  8
0
  6
Continuous
 62
     7
100
AcDbLine
 10
-504.0603056102279
 20
1012.168125192738
 30
0.0
 11
-504.1690114941421
 21
1012.983803302076
 31
0.0
  0
LINE
  5
D9
330
1F
100
AcDbEntity
  8
0
  6
Continuous
 62
     7
100
AcDbLine
 10
-503.854882157784
 20
1009.684712804493
 30
0.0
 11
-504.0603056102279
 21
1012.168125192738
 31
0.0
  0
LINE
  5
DA
330
1F
100
AcDbEntity
  8
0
  6
Continuous
 62
     7
100
AcDbLine
 10
-503.5309003625141
 20
1004.647202369502
 30
0.0
 11
-503.854882157784
 21
1009.684712804493
 31
0.0
  0
LINE
  5
DB
330
1F
100
AcDbEntity
  8
0
  6
Continuous
 62
     7
100
AcDbLine
 10
-731.7140874738491
 20
877.6973003528872
 30
0.0
 11
-707.2809117476526
 21
898.8570512269025
 31
0.0
  0
LINE
  5
DC
330
1F
100
AcDbEntity
  8
0
  6
Continuous
 62
     7
100
AcDbLine
 10
-715.3477457061501
 20
858.7990767024257
 30
0.0
 11
-690.9145699799534
 21
879.9588275764413
 31
0.0
  0
LINE
  5
DD
330
1F
100
AcDbEntity
  8
0
  6
Continuous
 62
     7
100
AcDbLine
 10
-734.2912434566181
 20
874.7867314813693
 30
0.0
 11
-731.7140874738491
 21
877.6973003528872
 31
0.0
  0
LINE
  5
DE
330
1F
100
AcDbEntity
  8
0
  6
Continuous
 62
     7
100
AcDbLine
 10
-735.951310252123
 20
806.5402982155194
 30
0.0
 11
-736.030916059115
 21
803.2941023640624
 31
0.0
  0
LINE
  5
DF
330
1F
100
AcDbEntity
  8
0
  6
Continuous
 62
     7
100
AcDbLine
 10
-735.966473100355
 20
806.8306756898132
 30
0.0
 11
-735.951310252123
 21
806.5402982155194
 31
0.0
  0
LINE
  5
E0
330
1F
100
AcDbEntity
  8
0
  6
Continuous
 62
     7
100
AcDbLine
 10
-735.9684085311401
 20
807.22475608991
 30
0.0
 11
-735.966473100355
 21
806.8306756898132
 31
0.0
  0
LINE
  5
E1
330
1F
100
AcDbEntity
  8
0
  6
Continuous
 62
     7
100
AcDbLine
 10
-735.0753885675269
 20
815.7628425096493
 30
0.0
 11
-735.9684085311401
 21
807.22475608991
 31
0.0
  0
LINE
  5
E2
330
1F
100
AcDbEntity
  8
0
  6
Continuous
 62
     7
100
AcDbLine
 10
-733.204351971124
 20
824.7494951629483
 30
0.0
 11
-735.0753885675269
 21
815.7628425096493
 31
0.0
  0
LINE
  5
E3
330
1F
100
AcDbEntity
  8
0
  6
Continuous
 62
     7
100
AcDbLine
 10
-730.459845320496
 20
833.6555435638071
 30
0.0
 11
-733.204351971124
 21
824.7494951629483
 31
0.0
  0
LINE
  5
E4
330
1F
100
AcDbEntity
  8
0
  6
Continuous
 62
     7
100
AcDbLine
 10
-727.0010469446731
 20
841.968936796493
 30
0.0
 11
-730.459845320496
 21
833.6555435638071
 31
0.0
  0
LINE
  5
E5
330
1F
100
AcDbEntity
  8
0
  6
Continuous
 62
     7
100
AcDbLine
 10
-723.044284193365
 20
849.1903430927231
 30
0.0
 11
-727.0010469446731
 21
841.968936796493
 31
0.0
  0
LINE
  5
E6
330
1F
100
AcDbEntity
  8
0
  6
Continuous
 62
     7
100
AcDbLine
 10
-722.957090223458
 20
849.3130691248043
 30
0.0
 11
-723.044284193365
 21
849.1903430927231
 31
0.0
  0
LINE
  5
E7
330
1F
100
AcDbEntity
  8
0
  6
Continuous
 62
     7
100
AcDbLine
 10
-722.6130110498061
 20
849.7772778627067
 30
0.0
 11
-722.957090223458
 21
849.3130691248043
 31
0.0
  0
LINE
  5
E8
330
1F
100
AcDbEntity
  8
0
  6
Continuous
 62
     7
100
AcDbLine
 10
-719.597559155801
 20
854.2528649387085
 30
0.0
 11
-722.6130110498061
 21
849.7772778627067
 31
0.0
  0
LINE
  5
E9
330
1F
100
AcDbEntity
  8
0
  6
Continuous
 62
     7
100
AcDbLine
 10
-719.1092258388201
 20
855.0063415195071
 30
0.0
 11
-719.597559155801
 21
854.2528649387085
 31
0.0
  0
LINE
  5
EA
330
1F
100
AcDbEntity
  8
0
  6
Continuous
 62
     7
100
AcDbLine
 10
-716.5838686933321
 20
857.7130603442359
 30
0.0
 11
-719.1092258388201
 21
855.0063415195071
 31
0.0
  0
LINE
  5
EB
330
1F
100
AcDbEntity
  8
0
  6
Continuous
 62
     7
100
AcDbLine
 10
-715.3477457061501
 20
858.7990767024257
 30
0.0
 11
-716.5838686933321
 21
857.7130603442359
 31
0.0
  0
LINE
  5
EC
330
1F
100
AcDbEntity
  8
0
  6
Continuous
 62
     7
100
AcDbLine
 10
-738.348178532395
 20
870.5947271579798
 30
0.0
 11
-734.2912434566181
 21
874.7867314813693
 31
0.0
  0
LINE
  5
ED
330
1F
100
AcDbEntity
  8
0
  6
Continuous
 62
     7
100
AcDbLine
 10
-743.779324168381
 20
863.0575591157452
 30
0.0
 11
-738.348178532395
 21
870.5947271579798
 31
0.0
  0
LINE
  5
EE
330
1F
100
AcDbEntity
  8
0
  6
Continuous
 62
     7
100
AcDbLine
 10
-744.2580868272341
 20
862.346080720591
 30
0.0
 11
-743.779324168381
 21
863.0575591157452
 31
0.0
  0
LINE
  5
EF
330
1F
100
AcDbEntity
  8
0
  6
Continuous
 62
     7
100
AcDbLine
 10
-744.354382878867
 20
862.2066409067521
 30
0.0
 11
-744.2580868272341
 21
862.346080720591
 31
0.0
  0
LINE
  5
F0
330
1F
100
AcDbEntity
  8
0
  6
Continuous
 62
     7
100
AcDbLine
 10
-749.45004284368
 20
852.535977986025
 30
0.0
 11
-744.354382878867
 21
862.2066409067521
 31
0.0
  0
LINE
  5
F1
330
1F
100
AcDbEntity
  8
0
  6
Continuous
 62
     7
100
AcDbLine
 10
-753.7592194274341
 20
842.0075895406529
 30
0.0
 11
-749.45004284368
 21
852.535977986025
 31
0.0
  0
LINE
  5
F2
330
1F
100
AcDbEntity
  8
0
  6
Continuous
 62
     7
100
AcDbLine
 10
-757.158736498543
 20
830.945617504796
 30
0.0
 11
-753.7592194274341
 21
842.0075895406529
 31
0.0
  0
LINE
  5
F3
330
1F
100
AcDbEntity
  8
0
  6
Continuous
 62
     7
100
AcDbLine
 10
-759.539266618835
 20
819.7107061094136
 30
0.0
 11
-757.158736498543
 21
830.945617504796
 31
0.0
  0
LINE
  5
F4
330
1F
100
AcDbEntity
  8
0
  6
Continuous
 62
     7
100
AcDbLine
 10
-760.819516567886
 20
808.6574588224253
 30
0.0
 11
-759.539266618835
 21
819.7107061094136
 31
0.0
  0
LINE
  5
F5
330
1F
100
AcDbEntity
  8
0
  6
Continuous
 62
     7
100
AcDbLine
 10
-760.8317537829571
 20
808.2895679842309
 30
0.0
 11
-760.819516567886
 21
808.6574588224253
 31
0.0
  0
LINE
  5
F6
330
1F
100
AcDbEntity
  8
0
  6
Continuous
 62
     7
100
AcDbLine
 10
-760.862709339285
 20
808.059552453027
 30
0.0
 11
-760.8317537829571
 21
808.2895679842309
 31
0.0
  0
LINE
  5
F7
330
1F
100
AcDbEntity
  8
0
  6
Continuous
 62
     7
100
AcDbLine
 10
-760.911862556984
 20
807.1622707134663
 30
0.0
 11
-760.862709339285
 21
808.059552453027
 31
0.0
  0
LINE
  5
F8
330
1F
100
AcDbEntity
  8
0
  6
Continuous
 62
     7
100
AcDbLine
 10
-761.03091507219
 20
803.2962918479064
 30
0.0
 11
-760.911862556984
 21
807.1622707134663
 31
0.0
  0
LINE
  5
F9
330
1F
100
AcDbEntity
  8
0
  6
Continuous
 62
     7
100
AcDbLine
 10
-547.1233245444009
 20
682.7367382949544
 30
0.0
 11
-549.2140842783581
 21
680.6765139702009
 31
0.0
  0
LINE
  5
FA
330
1F
100
AcDbEntity
  8
0
  6
Continuous
 62
     7
100
AcDbLine
 10
-503.7423034273991
 20
730.8181203156412
 30
0.0
 11
-503.5309183615912
 21
736.179326115783
 31
0.0
  0
LINE
  5
FB
330
1F
100
AcDbEntity
  8
0
  6
Continuous
 62
     7
100
AcDbLine
 10
-546.569697097669
 20
683.2499842225534
 30
0.0
 11
-547.1233245444009
 21
682.7367382949544
 31
0.0
  0
LINE
  5
FC
330
1F
100
AcDbEntity
  8
0
  6
Continuous
 62
     7
100
AcDbLine
 10
-545.452592611128
 20
684.4692591423418
 30
0.0
 11
-546.569697097669
 21
683.2499842225534
 31
0.0
  0
LINE
  5
FD
330
1F
100
AcDbEntity
  8
0
  6
Continuous
 62
     7
100
AcDbLine
 10
-541.948833918535
 20
689.6983301117605
 30
0.0
 11
-545.452592611128
 21
684.4692591423418
 31
0.0
  0
LINE
  5
FE
330
1F
100
AcDbEntity
  8
0
  6
Continuous
 62
     7
100
AcDbLine
 10
-541.5175407965321
 20
690.2852418126236
 30
0.0
 11
-541.948833918535
 21
689.6983301117605
 31
0.0
  0
LINE
  5
FF
330
1F
100
AcDbEntity
  8
0
  6
Continuous
 62
     7
100
AcDbLine
 10
-537.5607665106631
 20
697.5066580980757
 30
0.0
 11
-541.5175407965321
 21
690.2852418126236
 31
0.0
  0
LINE
  5
100
330
1F
100
AcDbEntity
  8
0
  6
Continuous
 62
     7
100
AcDbLine
 10
-534.1019739021201
 20
705.8200463361507
 30
0.0
 11
-537.5607665106631
 21
697.5066580980757
 31
0.0
  0
LINE
  5
101
330
1F
100
AcDbEntity
  8
0
  6
Continuous
 62
     7
100
AcDbLine
 10
-531.357455716932
 20
714.7261047262316
 30
0.0
 11
-534.1019739021201
 21
705.8200463361507
 31
0.0
  0
LINE
  5
102
330
1F
100
AcDbEntity
  8
0
  6
Continuous
 62
     7
100
AcDbLine
 10
-529.4864506335341
 20
723.7127704594291
 30
0.0
 11
-531.357455716932
 21
714.7261047262316
 31
0.0
  0
LINE
  5
103
330
1F
100
AcDbEntity
  8
0
  6
Continuous
 62
     7
100
AcDbLine
 10
-528.5934249026411
 20
732.2508618737795
 30
0.0
 11
-529.4864506335341
 21
723.7127704594291
 31
0.0
  0
LINE
  5
104
330
1F
100
AcDbEntity
  8
0
  6
Continuous
 62
     7
100
AcDbLine
 10
-528.5309182107771
 20
736.1771346262478
 30
0.0
 11
-528.5934249026411
 21
732.2508618737795
 31
0.0
  0
LINE
  5
105
330
1F
100
AcDbEntity
  8
0
  6
Continuous
 62
     7
100
AcDbLine
 10
-505.0225518311131
 20
719.7648945524353
 30
0.0
 11
-503.7423034273991
 21
730.8181203156412
 31
0.0
  0
LINE
  5
106
330
1F
100
AcDbEntity
  8
0
  6
Continuous
 62
     7
100
AcDbLine
 10
-507.4030977079071
 20
708.5299896970022
 30
0.0
 11
-505.0225518311131
 21
719.7648945524353
 31
0.0
  0
LINE
  5
107
330
1F
100
AcDbEntity
  8
0
  6
Continuous
 62
     7
100
AcDbLine
 10
-510.8026097844049
 20
697.4680118938651
 30
0.0
 11
-507.4030977079071
 21
708.5299896970022
 31
0.0
  0
LINE
  5
108
330
1F
100
AcDbEntity
  8
0
  6
Continuous
 62
     7
100
AcDbLine
 10
-515.1117806008781
 20
686.9396284431041
 30
0.0
 11
-510.8026097844049
 21
697.4680118938651
 31
0.0
  0
LINE
  5
109
330
1F
100
AcDbEntity
  8
0
  6
Continuous
 62
     7
100
AcDbLine
 10
-520.2074620894741
 20
677.2689670677152
 30
0.0
 11
-515.1117806008781
 21
686.9396284431041
 31
0.0
  0
LINE
  5
10A
330
1F
100
AcDbEntity
  8
0
  6
Continuous
 62
     7
100
AcDbLine
 10
-520.7825108107381
 20
676.4180373241616
 30
0.0
 11
-520.2074620894741
 21
677.2689670677152
 31
0.0
  0
LINE
  5
10B
330
1F
100
AcDbEntity
  8
0
  6
Continuous
 62
     7
100
AcDbLine
 10
-526.213654901386
 20
668.8808908057097
 30
0.0
 11
-520.7825108107381
 21
676.4180373241616
 31
0.0
  0
LINE
  5
10C
330
1F
100
AcDbEntity
  8
0
  6
Continuous
 62
     7
100
AcDbLine
 10
-528.56845631075
 20
666.4613188810972
 30
0.0
 11
-526.213654901386
 21
668.8808908057097
 31
0.0
  0
LINE
  5
10D
330
1F
100
AcDbEntity
  8
0
  6
Continuous
 62
     7
100
AcDbLine
 10
-531.5630300052751
 20
663.1639531672972
 30
0.0
 11
-528.56845631075
 21
666.4613188810972
 31
0.0
  0
LINE
  5
10E
330
1F
100
AcDbEntity
  8
0
  6
Continuous
 62
     7
100
AcDbLine
 10
-532.8477425106591
 20
661.7782903197397
 30
0.0
 11
-531.5630300052751
 21
663.1639531672972
 31
0.0
  0
LINE
  5
10F
330
1F
100
AcDbEntity
  8
0
  6
Continuous
 62
     7
100
AcDbLine
 10
-733.131496587002
 20
521.367631137141
 30
0.0
 11
-733.656505894173
 21
521.247393218956
 31
0.0
  0
LINE
  5
110
330
1F
100
AcDbEntity
  8
0
  6
Continuous
 62
     7
100
AcDbLine
 10
-735.7328717489231
 20
527.9810042827589
 30
0.0
 11
-736.030922523631
 21
534.826236099565
 31
0.0
  0
LINE
  5
111
330
1F
100
AcDbEntity
  8
0
  6
Continuous
 62
     7
100
AcDbLine
 10
-760.2363393093121
 20
524.6163742770591
 30
0.0
 11
-761.030911547484
 21
534.828414048849
 31
0.0
  0
LINE
  5
112
330
1F
100
AcDbEntity
  8
0
  6
Continuous
 62
     7
100
AcDbLine
 10
-734.6750795950729
 20
522.9549177566539
 30
0.0
 11
-735.7328717489231
 21
527.9810042827589
 31
0.0
  0
LINE
  5
113
330
1F
100
AcDbEntity
  8
0
  6
Continuous
 62
     7
100
AcDbLine
 10
-733.555817012932
 20
521.078599646489
 30
0.0
 11
-734.6750795950729
 21
522.9549177566539
 31
0.0
  0
LINE
  5
114
330
1F
100
AcDbEntity
  8
0
  6
Continuous
 62
     7
100
AcDbLine
 10
-733.422672696013
 20
520.3191480207361
 30
0.0
 11
-733.555817012932
 21
521.078599646489
 31
0.0
  0
LINE
  5
115
330
1F
100
AcDbEntity
  8
0
  6
Continuous
 62
     7
100
AcDbLine
 10
-732.3111439746651
 20
521.9471139414591
 30
0.0
 11
-733.131496587002
 21
521.367631137141
 31
0.0
  0
LINE
  5
116
330
1F
100
AcDbEntity
  8
0
  6
Continuous
 62
     7
100
AcDbLine
 10
-732.1383409135981
 20
522.186914138482
 30
0.0
 11
-732.3111439746651
 21
521.9471139414591
 31
0.0
  0
LINE
  5
117
330
1F
100
AcDbEntity
  8
0
  6
Continuous
 62
     7
100
AcDbLine
 10
-731.7140824284911
 20
522.626879381572
 30
0.0
 11
-732.1383409135981
 21
522.186914138482
 31
0.0
  0
LINE
  5
118
330
1F
100
AcDbEntity
  8
0
  6
Continuous
 62
     7
100
AcDbLine
 10
-758.064005666145
 20
515.2210516694631
 30
0.0
 11
-760.2363393093121
 21
524.6163742770591
 31
0.0
  0
LINE
  5
119
330
1F
100
AcDbEntity
  8
0
  6
Continuous
 62
     7
100
AcDbLine
 10
-755.518424080891
 20
509.276671107104
 30
0.0
 11
-758.064005666145
 21
515.2210516694631
 31
0.0
  0
LINE
  5
11A
330
1F
100
AcDbEntity
  8
0
  6
Continuous
 62
     7
100
AcDbLine
 10
-754.090009149231
 20
506.7037860068181
 30
0.0
 11
-755.518424080891
 21
509.276671107104
 31
0.0
  0
LINE
  5
11B
330
1F
100
AcDbEntity
  8
0
  6
Continuous
 62
     7
100
AcDbLine
 10
-748.5378810810621
 20
500.6022617840101
 30
0.0
 11
-754.090009149231
 21
506.7037860068181
 31
0.0
  0
LINE
  5
11C
330
1F
100
AcDbEntity
  8
0
  6
Continuous
 62
     7
100
AcDbLine
 10
-747.3233649683791
 20
499.6267954049181
 30
0.0
 11
-748.5378810810621
 21
500.6022617840101
 31
0.0
  0
LINE
  5
11D
330
1F
100
AcDbEntity
  8
0
  6
Continuous
 62
     7
100
AcDbLine
 10
-740.7843591368171
 20
496.711395774013
 30
0.0
 11
-747.3233649683791
 21
499.6267954049181
 31
0.0
  0
LINE
  5
11E
330
1F
100
AcDbEntity
  8
0
  6
Continuous
 62
     7
100
AcDbLine
 10
-737.6669573734341
 20
495.942229685638
 30
0.0
 11
-740.7843591368171
 21
496.711395774013
 31
0.0
  0
LINE
  5
11F
330
1F
100
AcDbEntity
  8
0
  6
Continuous
 62
     7
100
AcDbLine
 10
-732.1037220756859
 20
496.0320876636019
 30
0.0
 11
-737.6669573734341
 21
495.942229685638
 31
0.0
  0
LINE
  5
120
330
1F
100
AcDbEntity
  8
0
  6
Continuous
 62
     7
100
AcDbLine
 10
-727.683762681507
 20
496.8256437122791
 30
0.0
 11
-732.1037220756859
 21
496.0320876636019
 31
0.0
  0
LINE
  5
121
330
1F
100
AcDbEntity
  8
0
  6
Continuous
 62
     7
100
AcDbLine
 10
-721.6177458849481
 20
499.500878777734
 30
0.0
 11
-727.683762681507
 21
496.8256437122791
 31
0.0
  0
LINE
  5
122
330
1F
100
AcDbEntity
  8
0
  6
Continuous
 62
     7
100
AcDbLine
 10
-719.156731861216
 20
500.9361033289081
 30
0.0
 11
-721.6177458849481
 21
499.500878777734
 31
0.0
  0
LINE
  5
123
330
1F
100
AcDbEntity
  8
0
  6
Continuous
 62
     7
100
AcDbLine
 10
-716.7752196922831
 20
502.8389265861699
 30
0.0
 11
-719.156731861216
 21
500.9361033289081
 31
0.0
  0
LINE
  5
124
330
1F
100
AcDbEntity
  8
0
  6
Continuous
 62
     7
100
AcDbLine
 10
-715.6057041759391
 20
503.5493378633389
 30
0.0
 11
-716.7752196922831
 21
502.8389265861699
 31
0.0
  0
LINE
  5
125
330
1F
100
AcDbEntity
  8
0
  6
Continuous
 62
     7
100
AcDbLine
 10
-715.347746428072
 20
503.7286507365
 30
0.0
 11
-715.6057041759391
 21
503.5493378633389
 31
0.0
  0
LINE
  5
126
330
1F
100
AcDbEntity
  8
0
  6
Continuous
 62
     7
100
AcDbLine
 10
-731.7140824284911
 20
522.626879381572
 30
0.0
 11
-549.2140842783581
 21
680.6765139702009
 31
0.0
  0
LINE
  5
127
330
1F
100
AcDbEntity
  8
0
  6
Continuous
 62
     7
100
AcDbLine
 10
-715.347746428072
 20
503.7286507365
 30
0.0
 11
-532.8477425106591
 21
661.7782903197397
 31
0.0
  0
LINE
  5
128
330
1F
100
AcDbEntity
  8
0
  6
Continuous
 62
     7
100
AcDbLine
 10
-736.030922523631
 20
534.826236099565
 30
0.0
 11
-736.030916059115
 21
803.2941023640624
 31
0.0
  0
LINE
  5
129
330
1F
100
AcDbEntity
  8
0
  6
Continuous
 62
     7
100
AcDbLine
 10
-761.030911547484
 20
534.828414048849
 30
0.0
 11
-761.03091507219
 21
803.2962918479064
 31
0.0
  0
LINE
  5
12A
330
1F
100
AcDbEntity
  8
0
  6
Continuous
 62
     7
100
AcDbLine
 10
-503.5309183615912
 20
736.179326115783
 30
0.0
 11
-503.5309003625141
 21
1004.647202369502
 31
0.0
  0
LINE
  5
12B
330
1F
100
AcDbEntity
  8
0
  6
Continuous
 62
     7
100
AcDbLine
 10
-528.530905206311
 20
1004.645016647247
 30
0.0
 11
-528.5309182107771
 21
736.1771346262478
 31
0.0
  0
LINE
  5
12C
330
1F
100
AcDbEntity
  8
0
  6
Continuous
 62
     7
100
AcDbLine
 10
-503.561058057549
 20
735.7455177410066
 30
0.0
 11
-503.5309183615912
 21
736.179326115783
 31
0.0
  0
LINE
  5
12D
330
1F
100
AcDbEntity
  8
0
  6
Continuous
 62
     7
100
AcDbLine
 10
-528.7471473586099
 20
960.3210711980387
 30
0.0
 11
-528.5309058857831
 21
960.064642219489
 31
0.0
  0
LINE
  5
12E
330
1F
100
AcDbEntity
  8
0
  6
Continuous
 62
     7
100
AcDbLine
 10
-1519.913803917232
 20
1849.092584656607
 30
0.0
 11
-1519.913803917232
 21
1799.092584656607
 31
0.0
  0
LINE
  5
12F
330
1F
100
AcDbEntity
  8
0
  6
Continuous
 62
     7
100
AcDbLine
 10
-1519.913803917232
 20
1799.092584656607
 30
0.0
 11
-1519.913803917232
 21
1489.092584656606
 31
0.0
  0
LINE
  5
130
330
1F
100
AcDbEntity
  8
0
  6
Continuous
 62
     7
100
AcDbLine
 10
-1519.913803917232
 20
1489.092584656606
 30
0.0
 11
-1519.913803917232
 21
1439.092584656606
 31
0.0
  0
LINE
  5
131
330
1F
100
AcDbEntity
  8
0
  6
Continuous
 62
     7
100
AcDbLine
 10
-1494.913807917233
 20
1725.592584656606
 30
0.0
 11
-1494.913803917232
 21
1489.092584656606
 31
0.0
  0
LINE
  5
132
330
1F
100
AcDbEntity
  8
0
  6
Continuous
 62
     7
100
AcDbLine
 10
-1494.913803917232
 20
1489.092584656606
 30
0.0
 11
-1494.913803917232
 21
1439.092584656607
 31
0.0
  0
LINE
  5
133
330
1F
100
AcDbEntity
  8
0
  6
Continuous
 62
     7
100
AcDbLine
 10
-894.9138039172317
 20
1771.592584656611
 30
0.0
 11
-894.9138039172319
 21
1799.092584656607
 31
0.0
  0
LINE
  5
134
330
1F
100
AcDbEntity
  8
0
  6
Continuous
 62
     7
100
AcDbLine
 10
-894.9138039172315
 20
1725.592584656606
 30
0.0
 11
-894.9138039172317
 21
1489.092584656607
 31
0.0
  0
LINE
  5
135
330
1F
100
AcDbEntity
  8
0
  6
Continuous
 62
     7
100
AcDbLine
 10
-869.9138039172318
 20
1799.092584656607
 30
0.0
 11
-869.9138039172317
 21
1489.092584656607
 31
0.0
  0
LINE
  5
136
330
1F
100
AcDbEntity
  8
0
  6
Continuous
 62
     7
100
AcDbLine
 10
-869.9138039172319
 20
1849.092584656607
 30
0.0
 11
-869.9138039172318
 21
1799.092584656607
 31
0.0
  0
LINE
  5
137
330
1F
100
AcDbEntity
  8
0
  6
Continuous
 62
     7
100
AcDbLine
 10
-869.9138039172317
 20
1489.092584656607
 30
0.0
 11
-869.9138039172316
 21
1439.092584656607
 31
0.0
  0
LINE
  5
138
330
1F
100
AcDbEntity
  8
0
  6
Continuous
 62
     7
100
AcDbLine
 10
-894.9138039172317
 20
1489.092584656607
 30
0.0
 11
-894.9138039172317
 21
1439.092584656607
 31
0.0
  0
LINE
  5
139
330
1F
100
AcDbEntity
  8
0
  6
Continuous
 62
     7
100
AcDbLine
 10
-1503.209495833368
 20
1422.605666809032
 30
0.0
 11
-1506.409495833368
 21
1422.605666809032
 31
0.0
  0
LINE
  5
13A
330
1F
100
AcDbEntity
  8
0
  6
Continuous
 62
     7
100
AcDbLine
 10
-1506.409495833368
 20
1422.605666809032
 30
0.0
 11
-1507.409495833368
 21
1422.605666809032
 31
0.0
  0
LINE
  5
13B
330
1F
100
AcDbEntity
  8
0
  6
Continuous
 62
     7
100
AcDbLine
 10
-1501.409495833368
 20
1422.605666809032
 30
0.0
 11
-1502.609495833368
 21
1422.605666809032
 31
0.0
  0
LINE
  5
13C
330
1F
100
AcDbEntity
  8
0
  6
Continuous
 62
     7
100
AcDbLine
 10
-1502.609495833368
 20
1422.605666809032
 30
0.0
 11
-1503.209495833368
 21
1422.605666809032
 31
0.0
  0
LINE
  5
13D
330
1F
100
AcDbEntity
  8
0
  6
Continuous
 62
     7
100
AcDbLine
 10
-1501.409495833368
 20
1427.605666809032
 30
0.0
 11
-1501.409495833368
 21
1422.605666809032
 31
0.0
  0
LINE
  5
13E
330
1F
100
AcDbEntity
  8
0
  6
Continuous
 62
     7
100
AcDbLine
 10
-1510.159495833368
 20
1426.369012489419
 30
0.0
 11
-1510.159495833368
 21
1426.89786547568
 31
0.0
  0
LINE
  5
13F
330
1F
100
AcDbEntity
  8
0
  6
Continuous
 62
     7
100
AcDbLine
 10
-1504.659495833368
 20
1426.369012489419
 30
0.0
 11
-1504.659495833368
 21
1426.899808640491
 31
0.0
  0
LINE
  5
140
330
1F
100
AcDbEntity
  8
0
  6
Continuous
 62
     7
100
AcDbLine
 10
-1513.409495833368
 20
1422.605666809032
 30
0.0
 11
-1513.409495833368
 21
1427.605666809032
 31
0.0
  0
LINE
  5
141
330
1F
100
AcDbEntity
  8
0
  6
Continuous
 62
     7
100
AcDbLine
 10
-1511.609495833368
 20
1422.605666809032
 30
0.0
 11
-1507.409495833368
 21
1422.605666809032
 31
0.0
  0
LINE
  5
142
330
1F
100
AcDbEntity
  8
0
  6
Continuous
 62
     7
100
AcDbLine
 10
-1513.409495833368
 20
1422.605666809032
 30
0.0
 11
-1512.209495833368
 21
1422.605666809032
 31
0.0
  0
LINE
  5
143
330
1F
100
AcDbEntity
  8
0
  6
Continuous
 62
     7
100
AcDbLine
 10
-1512.209495833368
 20
1422.605666809032
 30
0.0
 11
-1511.609495833368
 21
1422.605666809032
 31
0.0
  0
LINE
  5
144
330
1F
100
AcDbEntity
  8
0
  6
Continuous
 62
     7
100
AcDbLine
 10
-1502.909495833368
 20
1422.305666809032
 30
0.0
 11
-1502.909495833368
 21
1420.905666809032
 31
0.0
  0
LINE
  5
145
330
1F
100
AcDbEntity
  8
0
  6
Continuous
 62
     7
100
AcDbLine
 10
-1503.209495833368
 20
1420.605666809032
 30
0.0
 11
-1511.609495833368
 21
1420.605666809032
 31
0.0
  0
LINE
  5
146
330
1F
100
AcDbEntity
  8
0
  6
Continuous
 62
     7
100
AcDbLine
 10
-1511.909495833368
 20
1422.305666809032
 30
0.0
 11
-1511.909495833368
 21
1420.905666809032
 31
0.0
  0
LINE
  5
147
330
1F
100
AcDbEntity
  8
0
  6
Continuous
 62
     7
100
AcDbLine
 10
-1200.793053448427
 20
708.3207103860282
 30
0.0
 11
-1200.79306688741
 21
705.3780694796785
 31
0.0
  0
LINE
  5
148
330
1F
100
AcDbEntity
  8
0
  6
Continuous
 62
     7
100
AcDbLine
 10
-1245.203416552844
 20
666.0468486522669
 30
0.0
 11
-1245.3438360089
 21
665.9921252691346
 31
0.0
  0
LINE
  5
149
330
1F
100
AcDbEntity
  8
0
  6
Continuous
 62
     7
100
AcDbLine
 10
-1251.079656105419
 20
664.1113413754576
 30
0.0
 11
-1251.716772635958
 21
664.2194755985652
 31
0.0
  0
LINE
  5
14A
330
1F
100
AcDbEntity
  8
0
  6
Continuous
 62
     7
100
AcDbLine
 10
-1246.096906901272
 20
665.3399499825755
 30
0.0
 11
-1201.596906901272
 21
703.878080450983
 31
0.0
  0
LINE
  5
14B
330
1F
100
AcDbEntity
  8
0
  6
Continuous
 62
     7
100
AcDbLine
 10
-2183.50000199987
 20
1425.655792437965
 30
0.0
 11
-2183.50000199987
 21
1422.605666809031
 31
0.0
  0
LINE
  5
14C
330
1F
100
AcDbEntity
  8
0
  6
Continuous
 62
     7
100
AcDbLine
 10
-2178.50000199987
 20
1422.605666809031
 30
0.0
 11
-2174.55000199987
 21
1422.605666809031
 31
0.0
  0
LINE
  5
14D
330
1F
100
AcDbEntity
  8
0
  6
Continuous
 62
     7
100
AcDbLine
 10
-2178.50000199987
 20
1422.605666809031
 30
0.0
 11
-2183.50000199987
 21
1422.605666809031
 31
0.0
  0
LINE
  5
14E
330
1F
100
AcDbEntity
  8
0
  6
Continuous
 62
     7
100
AcDbLine
 10
-2174.55000199987
 20
1422.605666809031
 30
0.0
 11
-2173.95000199987
 21
1422.605666809031
 31
0.0
  0
LINE
  5
14F
330
1F
100
AcDbEntity
  8
0
  6
Continuous
 62
     7
100
AcDbLine
 10
-2174.25000199987
 20
1422.305666809031
 30
0.0
 11
-2174.25000199987
 21
1420.905666809032
 31
0.0
  0
LINE
  5
150
330
1F
100
AcDbEntity
  8
0
  6
Continuous
 62
     7
100
AcDbLine
 10
-2173.95000199987
 20
1422.605666809031
 30
0.0
 11
-2094.05000199987
 21
1422.605666809031
 31
0.0
  0
LINE
  5
151
330
1F
100
AcDbEntity
  8
0
  6
Continuous
 62
     7
100
AcDbLine
 10
-2094.05000199987
 20
1420.605666809031
 30
0.0
 11
-2173.95000199987
 21
1420.605666809031
 31
0.0
  0
LINE
  5
152
330
1F
100
AcDbEntity
  8
0
  6
Continuous
 62
     7
100
AcDbLine
 10
-2093.75000199987
 20
1420.905666809032
 30
0.0
 11
-2093.75000199987
 21
1422.305666809031
 31
0.0
  0
LINE
  5
153
330
1F
100
AcDbEntity
  8
0
  6
Continuous
 62
     7
100
AcDbLine
 10
-2094.05000199987
 20
1422.605666809031
 30
0.0
 11
-2093.45000199987
 21
1422.605666809031
 31
0.0
  0
LINE
  5
154
330
1F
100
AcDbEntity
  8
0
  6
Continuous
 62
     7
100
AcDbLine
 10
-2178.50000199987
 20
1427.605666809031
 30
0.0
 11
-2089.50000199987
 21
1427.605666809031
 31
0.0
  0
LINE
  5
155
330
1F
100
AcDbEntity
  8
0
  6
Continuous
 62
     7
100
AcDbLine
 10
-2083.50000199987
 20
1425.605666809031
 30
0.0
 11
-2083.50000199987
 21
1422.605666809031
 31
0.0
  0
LINE
  5
156
330
1F
100
AcDbEntity
  8
0
  6
Continuous
 62
     7
100
AcDbLine
 10
-2083.50000199987
 20
1422.605666809031
 30
0.0
 11
-2089.50000199987
 21
1422.605666809031
 31
0.0
  0
LINE
  5
157
330
1F
100
AcDbEntity
  8
0
  6
Continuous
 62
     7
100
AcDbLine
 10
-2093.45000199987
 20
1422.605666809031
 30
0.0
 11
-2089.50000199987
 21
1422.605666809031
 31
0.0
  0
LINE
  5
158
330
1F
100
AcDbEntity
  8
0
  6
Continuous
 62
     7
100
AcDbLine
 10
-1963.50000199987
 20
1425.655792437965
 30
0.0
 11
-1963.50000199987
 21
1422.605666809031
 31
0.0
  0
LINE
  5
159
330
1F
100
AcDbEntity
  8
0
  6
Continuous
 62
     7
100
AcDbLine
 10
-1958.50000199987
 20
1422.605666809031
 30
0.0
 11
-1954.55000199987
 21
1422.605666809031
 31
0.0
  0
LINE
  5
15A
330
1F
100
AcDbEntity
  8
0
  6
Continuous
 62
     7
100
AcDbLine
 10
-1954.55000199987
 20
1422.605666809031
 30
0.0
 11
-1953.95000199987
 21
1422.605666809031
 31
0.0
  0
LINE
  5
15B
330
1F
100
AcDbEntity
  8
0
  6
Continuous
 62
     7
100
AcDbLine
 10
-1863.50000199987
 20
1422.605666809031
 30
0.0
 11
-1869.50000199987
 21
1422.605666809031
 31
0.0
  0
LINE
  5
15C
330
1F
100
AcDbEntity
  8
0
  6
Continuous
 62
     7
100
AcDbLine
 10
-1873.45000199987
 20
1422.605666809031
 30
0.0
 11
-1869.50000199987
 21
1422.605666809031
 31
0.0
  0
LINE
  5
15D
330
1F
100
AcDbEntity
  8
0
  6
Continuous
 62
     7
100
AcDbLine
 10
-1863.50000199987
 20
1425.605666809031
 30
0.0
 11
-1863.50000199987
 21
1422.605666809031
 31
0.0
  0
LINE
  5
15E
330
1F
100
AcDbEntity
  8
0
  6
Continuous
 62
     7
100
AcDbLine
 10
-1874.05000199987
 20
1422.605666809031
 30
0.0
 11
-1873.45000199987
 21
1422.605666809031
 31
0.0
  0
LINE
  5
15F
330
1F
100
AcDbEntity
  8
0
  6
Continuous
 62
     7
100
AcDbLine
 10
-1953.95000199987
 20
1422.605666809031
 30
0.0
 11
-1874.05000199987
 21
1422.605666809031
 31
0.0
  0
LINE
  5
160
330
1F
100
AcDbEntity
  8
0
  6
Continuous
 62
     7
100
AcDbLine
 10
-1958.50000199987
 20
1422.605666809031
 30
0.0
 11
-1963.50000199987
 21
1422.605666809031
 31
0.0
  0
LINE
  5
161
330
1F
100
AcDbEntity
  8
0
  6
Continuous
 62
     7
100
AcDbLine
 10
-1954.25000199987
 20
1422.305666809031
 30
0.0
 11
-1954.25000199987
 21
1420.905666809032
 31
0.0
  0
LINE
  5
162
330
1F
100
AcDbEntity
  8
0
  6
Continuous
 62
     7
100
AcDbLine
 10
-1873.75000199987
 20
1420.905666809032
 30
0.0
 11
-1873.75000199987
 21
1422.305666809031
 31
0.0
  0
LINE
  5
163
330
1F
100
AcDbEntity
  8
0
  6
Continuous
 62
     7
100
AcDbLine
 10
-1874.05000199987
 20
1420.605666809031
 30
0.0
 11
-1953.95000199987
 21
1420.605666809031
 31
0.0
  0
LINE
  5
164
330
1F
100
AcDbEntity
  8
0
  6
Continuous
 62
     7
100
AcDbLine
 10
-1869.50000199987
 20
1427.605666809031
 30
0.0
 11
-1958.50000199987
 21
1427.605666809031
 31
0.0
  0
LINE
  5
165
330
1F
100
AcDbEntity
  8
0
  6
Continuous
 62
     7
100
AcDbLine
 10
-1090.793055908803
 20
803.5835026715682
 30
0.0
 11
-1090.793051727607
 21
800.6408770247407
 31
0.0
  0
LINE
  5
166
330
1F
100
AcDbEntity
  8
0
  6
Continuous
 62
     7
100
AcDbLine
 10
-1135.203423942255
 20
761.3096355121356
 30
0.0
 11
-1135.34383302693
 21
761.2549222678849
 31
0.0
  0
LINE
  5
167
330
1F
100
AcDbEntity
  8
0
  6
Continuous
 62
     7
100
AcDbLine
 10
-1141.079664014737
 20
759.3741289420753
 30
0.0
 11
-1141.716777817541
 21
759.4822655274706
 31
0.0
  0
LINE
  5
168
330
1F
100
AcDbEntity
  8
0
  6
Continuous
 62
     7
100
AcDbLine
 10
-1136.096906901272
 20
760.6027443988637
 30
0.0
 11
-1091.596906901272
 21
799.1408748672712
 31
0.0
  0
LINE
  5
169
330
1F
100
AcDbEntity
  8
0
  6
Continuous
 62
     7
100
AcDbLine
 10
-549.5271874650471
 20
647.3334672677655
 30
0.0
 11
-549.5271844642261
 21
644.390870878474
 31
0.0
  0
LINE
  5
16A
330
1F
100
AcDbEntity
  8
0
  6
Continuous
 62
     7
100
AcDbLine
 10
-593.937550138924
 20
605.059645122371
 30
0.0
 11
-594.077982480826
 21
605.004921829415
 31
0.0
  0
LINE
  5
16B
330
1F
100
AcDbEntity
  8
0
  6
Continuous
 62
     7
100
AcDbLine
 10
-599.8137853956259
 20
603.124132105851
 30
0.0
 11
-600.450870278979
 21
603.232263083173
 31
0.0
  0
LINE
  5
16C
330
1F
100
AcDbEntity
  8
0
  6
Continuous
 62
     7
100
AcDbLine
 10
-594.831029535997
 20
604.352744398863
 30
0.0
 11
-550.331029535997
 21
642.8908748672709
 31
0.0
  0
LINE
  5
16D
330
1F
100
AcDbEntity
  8
0
  6
Continuous
 62
     7
100
AcDbLine
 10
-659.527188836787
 20
552.070671663515
 30
0.0
 11
-659.527180880368
 21
549.1280795658979
 31
0.0
  0
LINE
  5
16E
330
1F
100
AcDbEntity
  8
0
  6
Continuous
 62
     7
100
AcDbLine
 10
-703.937547996886
 20
509.7968525611429
 30
0.0
 11
-704.077985782927
 21
509.7421245534231
 31
0.0
  0
LINE
  5
16F
330
1F
100
AcDbEntity
  8
0
  6
Continuous
 62
     7
100
AcDbLine
 10
-709.8137888420381
 20
507.8613352291911
 30
0.0
 11
-710.4508726540191
 21
507.9694666100399
 31
0.0
  0
LINE
  5
170
330
1F
100
AcDbEntity
  8
0
  6
Continuous
 62
     7
100
AcDbLine
 10
-704.831029535997
 20
509.089949982575
 30
0.0
 11
-660.331029535997
 21
547.6280804509829
 31
0.0
  0
LINE
  5
171
330
1F
100
AcDbEntity
  8
0
  6
Continuous
 62
     7
100
AcDbLine
 10
-878.209495833368
 20
1422.605666809032
 30
0.0
 11
-881.409495833368
 21
1422.605666809032
 31
0.0
  0
LINE
  5
172
330
1F
100
AcDbEntity
  8
0
  6
Continuous
 62
     7
100
AcDbLine
 10
-881.409495833368
 20
1422.605666809032
 30
0.0
 11
-882.409495833368
 21
1422.605666809032
 31
0.0
  0
LINE
  5
173
330
1F
100
AcDbEntity
  8
0
  6
Continuous
 62
     7
100
AcDbLine
 10
-876.409495833368
 20
1422.605666809032
 30
0.0
 11
-877.6094958333681
 21
1422.605666809032
 31
0.0
  0
LINE
  5
174
330
1F
100
AcDbEntity
  8
0
  6
Continuous
 62
     7
100
AcDbLine
 10
-877.6094958333681
 20
1422.605666809032
 30
0.0
 11
-878.209495833368
 21
1422.605666809032
 31
0.0
  0
LINE
  5
175
330
1F
100
AcDbEntity
  8
0
  6
Continuous
 62
     7
100
AcDbLine
 10
-876.409495833368
 20
1427.605666809032
 30
0.0
 11
-876.409495833368
 21
1422.605666809032
 31
0.0
  0
LINE
  5
176
330
1F
100
AcDbEntity
  8
0
  6
Continuous
 62
     7
100
AcDbLine
 10
-879.659495833368
 20
1426.369012489419
 30
0.0
 11
-879.659495833368
 21
1426.899808640491
 31
0.0
  0
LINE
  5
177
330
1F
100
AcDbEntity
  8
0
  6
Continuous
 62
     7
100
AcDbLine
 10
-885.159495833368
 20
1426.369012489419
 30
0.0
 11
-885.159495833368
 21
1426.89786547568
 31
0.0
  0
LINE
  5
178
330
1F
100
AcDbEntity
  8
0
  6
Continuous
 62
     7
100
AcDbLine
 10
-888.409495833368
 20
1422.605666809032
 30
0.0
 11
-888.409495833368
 21
1427.605666809032
 31
0.0
  0
LINE
  5
179
330
1F
100
AcDbEntity
  8
0
  6
Continuous
 62
     7
100
AcDbLine
 10
-886.6094958333681
 20
1422.605666809032
 30
0.0
 11
-882.409495833368
 21
1422.605666809032
 31
0.0
  0
LINE
  5
17A
330
1F
100
AcDbEntity
  8
0
  6
Continuous
 62
     7
100
AcDbLine
 10
-888.409495833368
 20
1422.605666809032
 30
0.0
 11
-887.209495833368
 21
1422.605666809032
 31
0.0
  0
LINE
  5
17B
330
1F
100
AcDbEntity
  8
0
  6
Continuous
 62
     7
100
AcDbLine
 10
-887.209495833368
 20
1422.605666809032
 30
0.0
 11
-886.6094958333681
 21
1422.605666809032
 31
0.0
  0
LINE
  5
17C
330
1F
100
AcDbEntity
  8
0
  6
Continuous
 62
     7
100
AcDbLine
 10
-877.909495833368
 20
1422.305666809032
 30
0.0
 11
-877.909495833368
 21
1420.905666809032
 31
0.0
  0
LINE
  5
17D
330
1F
100
AcDbEntity
  8
0
  6
Continuous
 62
     7
100
AcDbLine
 10
-878.209495833368
 20
1420.605666809032
 30
0.0
 11
-886.6094958333681
 21
1420.605666809032
 31
0.0
  0
LINE
  5
17E
330
1F
100
AcDbEntity
  8
0
  6
Continuous
 62
     7
100
AcDbLine
 10
-886.909495833368
 20
1422.305666809032
 30
0.0
 11
-886.909495833368
 21
1420.905666809032
 31
0.0
  0
LINE
  5
17F
330
1F
100
AcDbEntity
  8
0
  6
Continuous
 62
     7
100
AcDbLine
 10
-2268.00000199987
 20
1725.592584656606
 30
0.0
 11
-2273.000001999871
 21
1725.592584656606
 31
0.0
  0
LINE
  5
180
330
1F
100
AcDbEntity
  8
0
  6
Continuous
 62
     7
100
AcDbLine
 10
-2273.000001999871
 20
1725.592584656606
 30
0.0
 11
-2278.000001999871
 21
1725.592584656606
 31
0.0
  0
LINE
  5
181
330
1F
100
AcDbEntity
  8
0
  6
Continuous
 62
     7
100
AcDbLine
 10
-1773.000001999869
 20
1725.592584656606
 30
0.0
 11
-1778.00000199987
 21
1725.592584656606
 31
0.0
  0
LINE
  5
182
330
1F
100
AcDbEntity
  8
0
  6
Continuous
 62
     7
100
AcDbLine
 10
-1803.00000199987
 20
1725.592584656606
 30
0.0
 11
-1810.00000199987
 21
1725.592584656607
 31
0.0
  0
LINE
  5
183
330
1F
100
AcDbEntity
  8
0
  6
Continuous
 62
     7
100
AcDbLine
 10
-2278.000001999871
 20
1725.592584656606
 30
0.0
 11
-2278.000001999871
 21
1771.592584656611
 31
0.0
  0
LINE
  5
184
330
1F
100
AcDbEntity
  8
0
  6
Continuous
 62
     7
100
AcDbLine
 10
-1810.00000199987
 20
1725.592584656607
 30
0.0
 11
-2236.00000199987
 21
1725.592584656607
 31
0.0
  0
LINE
  5
185
330
1F
100
AcDbEntity
  8
0
  6
Continuous
 62
     7
100
AcDbLine
 10
-2236.00000199987
 20
1725.592584656607
 30
0.0
 11
-2243.00000199987
 21
1725.592584656606
 31
0.0
  0
LINE
  5
186
330
1F
100
AcDbEntity
  8
0
  6
Continuous
 62
     7
100
AcDbLine
 10
-1767.999997999871
 20
1725.592584656606
 30
0.0
 11
-1773.000001999869
 21
1725.592584656606
 31
0.0
  0
LINE
  5
187
330
1F
100
AcDbEntity
  8
0
  6
Continuous
 62
     7
100
AcDbLine
 10
-1767.999997999871
 20
1771.592584656611
 30
0.0
 11
-1767.999997999871
 21
1725.592584656606
 31
0.0
  0
LINE
  5
188
330
1F
100
AcDbEntity
  8
0
  6
Continuous
 62
     7
100
AcDbLine
 10
-2278.000001999871
 20
1771.592584656611
 30
0.0
 11
-2278.000001999871
 21
1860.592584656611
 31
0.0
  0
LINE
  5
189
330
1F
100
AcDbEntity
  8
0
  6
Continuous
 62
     7
100
AcDbLine
 10
-2273.000001999871
 20
1865.592584656611
 30
0.0
 11
-1772.999997999871
 21
1865.592584656611
 31
0.0
  0
LINE
  5
18A
330
1F
100
AcDbEntity
  8
0
  6
Continuous
 62
     7
100
AcDbLine
 10
-1767.999997999871
 20
1860.592584656611
 30
0.0
 11
-1767.999997999871
 21
1771.592584656611
 31
0.0
  0
LINE
  5
18B
330
1F
100
AcDbEntity
  8
0
  6
Continuous
 62
     7
100
AcDbLine
 10
-1285.89134913192
 20
881.7756320356137
 30
0.0
 11
-1286.608226641406
 21
881.9825767471525
 31
0.0
  0
LINE
  5
18C
330
1F
100
AcDbEntity
  8
0
  6
Continuous
 62
     7
100
AcDbLine
 10
-528.530910084103
 20
942.6690080723586
 30
0.0
 11
-736.0308974436921
 21
762.9687477340046
 31
0.0
  0
LINE
  5
18D
330
1F
100
AcDbEntity
  8
0
  6
Continuous
 62
     7
100
AcDbLine
 10
-1281.373067928382
 20
1001.71487313087
 30
0.0
 11
-773.214261431005
 21
855.0220612697008
 31
0.0
  0
LINE
  5
18E
330
1F
100
AcDbEntity
  8
0
  6
Continuous
 62
     7
100
AcDbLine
 10
-524.4546366385389
 20
1077.659982697091
 30
0.0
 11
-1032.613443135915
 21
1224.35279455826
 31
0.0
  0
LINE
  5
18F
330
1F
100
AcDbEntity
  8
0
  6
Continuous
 62
     7
100
AcDbLine
 10
-515.6062284160771
 20
1065.895964698334
 30
0.0
 11
-515.6062284160771
 21
1038.412531769429
 31
0.0
  0
LINE
  5
190
330
1F
100
AcDbEntity
  8
0
  6
Continuous
 62
     7
100
AcDbLine
 10
-1290.221476150843
 20
886.7864213613052
 30
0.0
 11
-1290.221476150843
 21
993.6395000739598
 31
0.0
  0
LINE
  5
191
330
1F
100
AcDbEntity
  8
0
  6
Continuous
 62
     7
100
AcDbLine
 10
-1467.913803917232
 20
1725.592584656606
 30
0.0
 11
-921.9138039172321
 21
1725.592584656607
 31
0.0
  0
LINE
  5
192
330
1F
100
AcDbEntity
  8
0
  6
Continuous
 62
     7
100
AcDbLine
 10
-921.9138039172321
 20
1725.592584656607
 30
0.0
 11
-899.9138039172315
 21
1725.592584656606
 31
0.0
  0
LINE
  5
193
330
1F
100
AcDbEntity
  8
0
  6
Continuous
 62
     7
100
AcDbLine
 10
-1494.967381869513
 20
1745.592584656607
 30
0.0
 11
-1494.913807917233
 21
1771.592584656611
 31
0.0
  0
LINE
  5
194
330
1F
100
AcDbEntity
  8
0
  6
Continuous
 62
     7
100
AcDbLine
 10
-1494.967381869513
 20
1745.592584656607
 30
0.0
 11
-1494.913807917233
 21
1725.592584656606
 31
0.0
  0
LINE
  5
195
330
1F
100
AcDbEntity
  8
0
  6
Continuous
 62
     7
100
AcDbLine
 10
-1489.913807917233
 20
1725.592584656606
 30
0.0
 11
-1494.913807917233
 21
1725.592584656606
 31
0.0
  0
LINE
  5
196
330
1F
100
AcDbEntity
  8
0
  6
Continuous
 62
     7
100
AcDbLine
 10
-1494.913807917233
 20
1771.592584656611
 30
0.0
 11
-1494.913807917233
 21
1860.592584656611
 31
0.0
  0
LINE
  5
197
330
1F
100
AcDbEntity
  8
0
  6
Continuous
 62
     7
100
AcDbLine
 10
-1489.913807917233
 20
1865.592584656611
 30
0.0
 11
-899.9138039172317
 21
1865.592584656611
 31
0.0
  0
LINE
  5
198
330
1F
100
AcDbEntity
  8
0
  6
Continuous
 62
     7
100
AcDbLine
 10
-894.9138039172319
 20
1799.092584656607
 30
0.0
 11
-894.9138039172317
 21
1849.092584656607
 31
0.0
  0
LINE
  5
199
330
1F
100
AcDbEntity
  8
0
  6
Continuous
 62
     7
100
AcDbLine
 10
-894.9138039172317
 20
1849.092584656607
 30
0.0
 11
-894.9138039172317
 21
1860.592584656611
 31
0.0
  0
LINE
  5
19A
330
1F
100
AcDbEntity
  8
0
  6
Continuous
 62
     7
100
AcDbLine
 10
-1489.913807917233
 20
1725.592584656606
 30
0.0
 11
-1467.913803917232
 21
1725.592584656606
 31
0.0
  0
LINE
  5
19B
330
1F
100
AcDbEntity
  8
0
  6
Continuous
 62
     7
100
AcDbLine
 10
-899.9138039172315
 20
1725.592584656606
 30
0.0
 11
-894.9138039172315
 21
1725.592584656606
 31
0.0
  0
LINE
  5
19C
330
1F
100
AcDbEntity
  8
0
  6
Continuous
 62
     7
100
AcDbLine
 10
-894.9138039172315
 20
1725.592584656606
 30
0.0
 11
-894.9138039172315
 21
1745.592584656606
 31
0.0
  0
LINE
  5
19D
330
1F
100
AcDbEntity
  8
0
  6
Continuous
 62
     7
100
AcDbLine
 10
-894.9138039172312
 20
1770.577123626658
 30
0.0
 11
-894.9138039172315
 21
1745.592584656606
 31
0.0
  0
LINE
  5
19E
330
1F
100
AcDbEntity
  8
0
  6
Continuous
 62
     7
100
AcDbLine
 10
-894.9138039172317
 20
1771.592584656611
 30
0.0
 11
-894.9138039172312
 21
1770.577123626658
 31
0.0
  0
LINE
  5
19F
330
1F
100
AcDbEntity
  8
0
  6
Continuous
 62
     7
100
AcDbLine
 10
-1840.50000199987
 20
1171.999651917232
 30
0.0
 11
-1790.50000199987
 21
1171.999651917232
 31
0.0
  0
LINE
  5
1A0
330
1F
100
AcDbEntity
  8
0
  6
Continuous
 62
     7
100
AcDbLine
 10
-2205.50000199987
 20
1171.999651917232
 30
0.0
 11
-2255.50000199987
 21
1171.999651917232
 31
0.0
  0
LINE
  5
1A1
330
1F
100
AcDbEntity
  8
0
  6
Continuous
 62
     7
100
AcDbLine
 10
-1840.50000199987
 20
1171.999651917232
 30
0.0
 11
-1853.00000199987
 21
1171.999651917232
 31
0.0
  0
LINE
  5
1A2
330
1F
100
AcDbEntity
  8
0
  6
Continuous
 62
     7
100
AcDbLine
 10
-2255.50000199987
 20
546.9996519172319
 30
0.0
 11
-2253.00000199987
 21
546.9996519172319
 31
0.0
  0
LINE
  5
1A3
330
1F
100
AcDbEntity
  8
0
  6
Continuous
 62
     7
100
AcDbLine
 10
-2205.50000199987
 20
521.9996519172319
 30
0.0
 11
-2255.50000199987
 21
521.9996519172319
 31
0.0
  0
LINE
  5
1A4
330
1F
100
AcDbEntity
  8
0
  6
Continuous
 62
     7
100
AcDbLine
 10
-1840.50000199987
 20
521.9996519172319
 30
0.0
 11
-1790.50000199987
 21
521.9996519172319
 31
0.0
  0
LINE
  5
1A5
330
1F
100
AcDbEntity
  8
0
  6
Continuous
 62
     7
100
AcDbLine
 10
-2205.50000199987
 20
521.9996519172319
 30
0.0
 11
-2193.00000199987
 21
521.9996519172319
 31
0.0
  0
LINE
  5
1A6
330
1F
100
AcDbEntity
  8
0
  6
Continuous
 62
     7
100
AcDbLine
 10
-2253.00000199987
 20
546.9996519172319
 30
0.0
 11
-1793.00000199987
 21
546.9996519172319
 31
0.0
  0
LINE
  5
1A7
330
1F
100
AcDbEntity
  8
0
  6
Continuous
 62
     7
100
AcDbLine
 10
-1767.999997999871
 20
551.9996519172319
 30
0.0
 11
-1767.999997999871
 21
1141.999655917232
 31
0.0
  0
LINE
  5
1A8
330
1F
100
AcDbEntity
  8
0
  6
Continuous
 62
     7
100
AcDbLine
 10
-1788.00000199987
 20
546.9996519172319
 30
0.0
 11
-1772.999997999871
 21
546.9996519172319
 31
0.0
  0
LINE
  5
1A9
330
1F
100
AcDbEntity
  8
0
  6
Continuous
 62
     7
100
AcDbLine
 10
-1793.00000199987
 20
1146.999655917232
 30
0.0
 11
-2253.00000199987
 21
1146.999655917232
 31
0.0
  0
LINE
  5
1AA
330
1F
100
AcDbEntity
  8
0
  6
Continuous
 62
     7
100
AcDbLine
 10
-2253.00000199987
 20
1146.999655917232
 30
0.0
 11
-2258.00000199987
 21
1146.999655917232
 31
0.0
  0
LINE
  5
1AB
330
1F
100
AcDbEntity
  8
0
  6
Continuous
 62
     7
100
AcDbLine
 10
-1772.999997999871
 20
1146.999655917232
 30
0.0
 11
-1788.00000199987
 21
1146.999655917232
 31
0.0
  0
LINE
  5
1AC
330
1F
100
AcDbEntity
  8
0
  6
Continuous
 62
     7
100
AcDbLine
 10
-1788.00000199987
 20
1146.999655917232
 30
0.0
 11
-1793.00000199987
 21
1146.999655917232
 31
0.0
  0
LINE
  5
1AD
330
1F
100
AcDbEntity
  8
0
  6
Continuous
 62
     7
100
AcDbLine
 10
-1790.50000199987
 20
546.9996519172319
 30
0.0
 11
-1788.00000199987
 21
546.9996519172319
 31
0.0
  0
LINE
  5
1AE
330
1F
100
AcDbEntity
  8
0
  6
Continuous
 62
     7
100
AcDbLine
 10
-1793.00000199987
 20
546.9996519172319
 30
0.0
 11
-1790.50000199987
 21
546.9996519172319
 31
0.0
  0
LINE
  5
1AF
330
1F
100
AcDbEntity
  8
0
  6
Continuous
 62
     7
100
AcDbLine
 10
-2273.000001999871
 20
546.9996519172319
 30
0.0
 11
-2258.00000199987
 21
546.9996519172319
 31
0.0
  0
LINE
  5
1B0
330
1F
100
AcDbEntity
  8
0
  6
Continuous
 62
     7
100
AcDbLine
 10
-2258.00000199987
 20
1146.999655917232
 30
0.0
 11
-2273.000001999871
 21
1146.999655917232
 31
0.0
  0
LINE
  5
1B1
330
1F
100
AcDbEntity
  8
0
  6
Continuous
 62
     7
100
AcDbLine
 10
-2278.000001999871
 20
1141.999655917232
 30
0.0
 11
-2278.000001999871
 21
551.9996519172317
 31
0.0
  0
LINE
  5
1B2
330
1F
100
AcDbEntity
  8
0
  6
Continuous
 62
     7
100
AcDbLine
 10
-2258.00000199987
 20
546.9996519172319
 30
0.0
 11
-2255.50000199987
 21
546.9996519172319
 31
0.0
  0
ARC
  5
1B3
330
1F
100
AcDbEntity
  8
1
  6
Continuous
 62
     1
100
AcDbCircle
 10
-526.8911299373825
 20
1069.219722325294
 30
0.0
 40
8.784901521305414
100
AcDbArc
 50
0.0
 51
73.89788624801477
  0
ARC
  5
1B4
330
1F
100
AcDbEntity
  8
1
  6
Continuous
 62
     7
100
AcDbCircle
 10
-1090.363598494342
 20
1175.561744272409
 30
0.0
 40
15.50000000000039
100
AcDbArc
 50
45.89999260889815
 51
130.8933946491293
  0
ARC
  5
1B5
330
1F
100
AcDbEntity
  8
1
  6
Continuous
 62
     7
100
AcDbCircle
 10
-1240.363598494342
 20
1045.657933704744
 30
0.0
 40
12.50000000000026
100
AcDbArc
 50
47.10584435055315
 51
130.8933946491305
  0
ARC
  5
1B6
330
1F
100
AcDbEntity
  8
1
  6
Continuous
 62
     7
100
AcDbCircle
 10
-1240.363598494342
 20
1045.657933704744
 30
0.0
 40
15.5000000000002
100
AcDbArc
 50
45.89999260889282
 51
167.1427155320286
  0
ARC
  5
1B7
330
1F
100
AcDbEntity
  8
1
  6
Continuous
 62
     7
100
AcDbCircle
 10
-699.0977408638031
 20
889.407939401672
 30
0.0
 40
12.50000000000002
100
AcDbArc
 50
310.8933946491308
 51
130.8933946491306
  0
ARC
  5
1B8
330
1F
100
AcDbEntity
  8
1
  6
Continuous
 62
     7
100
AcDbCircle
 10
-699.0977408638031
 20
889.407939401672
 30
0.0
 40
15.49999999999993
100
AcDbArc
 50
274.644073766232
 51
167.1427155320309
  0
ARC
  5
1B9
330
1F
100
AcDbEntity
  8
1
  6
Continuous
 62
     7
100
AcDbCircle
 10
-549.0977408638031
 20
1019.311749969337
 30
0.0
 40
15.4999999999998
100
AcDbArc
 50
310.8933946491305
 51
130.8933946491307
  0
ARC
  5
1BA
330
1F
100
AcDbEntity
  8
1
  6
Continuous
 62
     7
100
AcDbCircle
 10
-882.4138039172317
 20
1849.092584656607
 30
0.0
 40
15.49999999999994
100
AcDbArc
 50
323.7506791170994
 51
143.7506791170993
  0
ARC
  5
1BB
330
1F
100
AcDbEntity
  8
1
  6
Continuous
 62
     7
100
AcDbCircle
 10
-1507.413803917232
 20
1849.092584656609
 30
0.0
 40
15.50000000000006
100
AcDbArc
 50
36.24934588882751
 51
216.2493208829
  0
ARC
  5
1BC
330
1F
100
AcDbEntity
  8
1
  6
Continuous
 62
     1
100
AcDbCircle
 10
-1278.881020749409
 20
1005.242431063848
 30
0.0
 40
6.688368580006248
100
AcDbArc
 50
130.8933946491317
 51
253.8978862480137
  0
ARC
  5
1BD
330
1F
100
AcDbEntity
  8
1
  6
Continuous
 62
     1
100
AcDbCircle
 10
-772.4381512026241
 20
859.8897402983968
 30
0.0
 40
7.500000000000083
100
AcDbArc
 50
253.8978862480151
 51
310.8933946491309
  0
ARC
  5
1BE
330
1F
100
AcDbEntity
  8
1
  6
Continuous
 62
     1
100
AcDbCircle
 10
-526.2098193585715
 20
1071.579851401764
 30
0.0
 40
6.328401294886853
100
AcDbArc
 50
310.8933946491269
 51
73.89788624801419
  0
ARC
  5
1BF
330
1F
100
AcDbEntity
  8
1
  6
Continuous
 62
     7
100
AcDbCircle
 10
-527.8506028899051
 20
1065.895964698334
 30
0.0
 40
12.24437447382259
100
AcDbArc
 50
359.999909397559
 51
73.89794571728598
  0
ARC
  5
1C0
330
1F
100
AcDbEntity
  8
1
  6
Continuous
 62
     7
100
AcDbCircle
 10
-1268.50823019265
 20
994.3494866831757
 30
0.0
 40
21.72485054094141
100
AcDbArc
 50
132.7662029700257
 51
181.8728083208944
  0
ARC
  5
1C1
330
1F
100
AcDbEntity
  8
0
  6
Continuous
 62
     7
100
AcDbCircle
 10
-1840.50000199987
 20
1489.092584656607
 30
0.0
 40
62.5
100
AcDbArc
 50
270.0
 51
0.0
  0
ARC
  5
1C2
330
1F
100
AcDbEntity
  8
0
  6
Continuous
 62
     7
100
AcDbCircle
 10
-2205.50000199987
 20
1489.092584656607
 30
0.0
 40
62.5
100
AcDbArc
 50
180.0
 51
270.0
  0
ARC
  5
1C3
330
1F
100
AcDbEntity
  8
0
  6
Continuous
 62
     7
100
AcDbCircle
 10
-2205.50000199987
 20
1799.092584656607
 30
0.0
 40
37.5
100
AcDbArc
 50
90.0
 51
180.0
  0
ARC
  5
1C4
330
1F
100
AcDbEntity
  8
0
  6
Continuous
 62
     7
100
AcDbCircle
 10
-2205.50000199987
 20
1799.092584656607
 30
0.0
 40
62.5
100
AcDbArc
 50
90.0
 51
180.0
  0
ARC
  5
1C5
330
1F
100
AcDbEntity
  8
0
  6
Continuous
 62
     7
100
AcDbCircle
 10
-1840.50000199987
 20
1799.092584656607
 30
0.0
 40
62.5
100
AcDbArc
 50
0.0
 51
90.0
  0
ARC
  5
1C6
330
1F
100
AcDbEntity
  8
0
  6
Continuous
 62
     7
100
AcDbCircle
 10
-1840.50000199987
 20
1799.092584656607
 30
0.0
 40
37.5
100
AcDbArc
 50
0.0
 51
90.0
  0
ARC
  5
1C7
330
1F
100
AcDbEntity
  8
0
  6
Continuous
 62
     7
100
AcDbCircle
 10
-1840.50000199987
 20
1489.092584656607
 30
0.0
 40
37.5
100
AcDbArc
 50
270.0
 51
0.0
  0
ARC
  5
1C8
330
1F
100
AcDbEntity
  8
0
  6
Continuous
 62
     7
100
AcDbCircle
 10
-2205.50000199987
 20
1489.092584656607
 30
0.0
 40
37.5
100
AcDbArc
 50
180.0
 51
270.0
  0
ARC
  5
1C9
330
1F
100
AcDbEntity
  8
0
  6
Continuous
 62
     7
100
AcDbCircle
 10
-1507.413803917232
 20
1439.092584656607
 30
0.0
 40
12.5
100
AcDbArc
 50
180.0000000000041
 51
0.0
  0
ARC
  5
1CA
330
1F
100
AcDbEntity
  8
0
  6
Continuous
 62
     7
100
AcDbCircle
 10
-1507.413803917232
 20
1849.092584656609
 30
0.0
 40
12.49999999999925
100
AcDbArc
 50
0.0458366269645
 51
180.0000000000094
  0
ARC
  5
1CB
330
1F
100
AcDbEntity
  8
0
  6
Continuous
 62
     7
100
AcDbCircle
 10
-882.4138039172317
 20
1849.092584656607
 30
0.0
 40
12.49999999999977
100
AcDbArc
 50
0.0
 51
180.0
  0
ARC
  5
1CC
330
1F
100
AcDbEntity
  8
0
  6
Continuous
 62
     7
100
AcDbCircle
 10
-882.4138039172317
 20
1439.092584656607
 30
0.0
 40
12.5
100
AcDbArc
 50
180.0
 51
0.0
  0
ARC
  5
1CD
330
1F
100
AcDbEntity
  8
0
  6
Continuous
 62
     7
100
AcDbCircle
 10
-1511.609495833368
 20
1420.905666809032
 30
0.0
 40
0.2999999999999545
100
AcDbArc
 50
180.0
 51
270.0
  0
ARC
  5
1CE
330
1F
100
AcDbEntity
  8
0
  6
Continuous
 62
     7
100
AcDbCircle
 10
-1512.209495833368
 20
1422.305666809032
 30
0.0
 40
0.2999999999999545
100
AcDbArc
 50
0.0
 51
90.0
  0
ARC
  5
1CF
330
1F
100
AcDbEntity
  8
0
  6
Continuous
 62
     7
100
AcDbCircle
 10
-1502.609495833368
 20
1422.305666809032
 30
0.0
 40
0.3000000000001819
100
AcDbArc
 50
90.0
 51
180.0
  0
ARC
  5
1D0
330
1F
100
AcDbEntity
  8
0
  6
Continuous
 62
     7
100
AcDbCircle
 10
-1507.409495411016
 20
1435.605666584598
 30
0.0
 40
10.00000007386408
100
AcDbArc
 50
233.1300996466896
 51
250.8984320489473
  0
ARC
  5
1D1
330
1F
100
AcDbEntity
  8
0
  6
Continuous
 62
     7
100
AcDbCircle
 10
-1507.409495489731
 20
1435.605666876697
 30
0.0
 40
9.999999986311797
100
AcDbArc
 50
278.8998993971924
 51
283.3792868967827
  0
ARC
  5
1D2
330
1F
100
AcDbEntity
  8
0
  6
Continuous
 62
     7
100
AcDbCircle
 10
-1507.409496325614
 20
1435.605666745803
 30
0.0
 40
9.999999986312393
100
AcDbArc
 50
275.7391733197193
 51
278.8999042448144
  0
ARC
  5
1D3
330
1F
100
AcDbEntity
  8
0
  6
Continuous
 62
     7
100
AcDbCircle
 10
-1507.409494519368
 20
1435.605667151587
 30
0.0
 40
10.00000002920343
100
AcDbArc
 50
283.3792811234572
 51
285.8438930230961
  0
ARC
  5
1D4
330
1F
100
AcDbEntity
  8
0
  6
Continuous
 62
     7
100
AcDbCircle
 10
-1507.409497767272
 20
1435.605667417777
 30
0.0
 40
10.0000000900989
100
AcDbArc
 50
250.8984463681535
 51
254.1561106192265
  0
ARC
  5
1D5
330
1F
100
AcDbEntity
  8
0
  6
Continuous
 62
     7
100
AcDbCircle
 10
-1507.409494694064
 20
1435.605666689202
 30
0.0
 40
10.000000057873
100
AcDbArc
 50
261.1000911753653
 51
266.8915316464089
  0
ARC
  5
1D6
330
1F
100
AcDbEntity
  8
0
  6
Continuous
 62
     7
100
AcDbCircle
 10
-1507.40949625572
 20
1435.605666584598
 30
0.0
 40
10.00000007386449
100
AcDbArc
 50
289.1015679510527
 51
306.8699003533093
  0
ARC
  5
1D7
330
1F
100
AcDbEntity
  8
0
  6
Continuous
 62
     7
100
AcDbCircle
 10
-1507.409500964922
 20
1435.605666412033
 30
0.0
 40
10.00000011814761
100
AcDbArc
 50
273.1084913782054
 51
275.7391999589911
  0
ARC
  5
1D8
330
1F
100
AcDbEntity
  8
0
  6
Continuous
 62
     7
100
AcDbCircle
 10
-1507.409498549844
 20
1435.605666735325
 30
0.0
 40
10.00000031000232
100
AcDbArc
 50
270.0000155642608
 51
273.1084774607426
  0
ARC
  5
1D9
330
1F
100
AcDbEntity
  8
0
  6
Continuous
 62
     7
100
AcDbCircle
 10
-1507.409494334667
 20
1435.605667280786
 30
0.0
 40
10.00000010306807
100
AcDbArc
 50
285.8438918029385
 51
289.101556244936
  0
ARC
  5
1DA
330
1F
100
AcDbEntity
  8
0
  6
Continuous
 62
     7
100
AcDbCircle
 10
-1507.409496563838
 20
1435.605666999463
 30
0.0
 40
10.00000001623517
100
AcDbArc
 50
254.1561033316542
 51
256.6207154222228
  0
ARC
  5
1DB
330
1F
100
AcDbEntity
  8
0
  6
Continuous
 62
     7
100
AcDbCircle
 10
-1507.409495833368
 20
1435.605666809032
 30
0.0
 40
9.999999999999794
100
AcDbArc
 50
256.6207110980545
 51
261.1000977307226
  0
ARC
  5
1DC
330
1F
100
AcDbEntity
  8
0
  6
Continuous
 62
     7
100
AcDbCircle
 10
-1507.409490895442
 20
1435.605666675049
 30
0.0
 40
10.00000024972755
100
AcDbArc
 50
266.8915099095344
 51
269.999971707769
  0
ARC
  5
1DD
330
1F
100
AcDbEntity
  8
0
  6
Continuous
 62
     7
100
AcDbCircle
 10
-1503.209495833368
 20
1420.905666809032
 30
0.0
 40
0.2999999999999545
100
AcDbArc
 50
270.0
 51
0.0
  0
ARC
  5
1DE
330
1F
100
AcDbEntity
  8
0
  6
Continuous
 62
     7
100
AcDbCircle
 10
-2174.55000199987
 20
1422.305666809031
 30
0.0
 40
0.2999999999997272
100
AcDbArc
 50
0.0
 51
90.0
  0
ARC
  5
1DF
330
1F
100
AcDbEntity
  8
0
  6
Continuous
 62
     7
100
AcDbCircle
 10
-2173.95000199987
 20
1420.905666809032
 30
0.0
 40
0.3000000000001819
100
AcDbArc
 50
180.0
 51
270.0
  0
ARC
  5
1E0
330
1F
100
AcDbEntity
  8
0
  6
Continuous
 62
     7
100
AcDbCircle
 10
-2094.05000199987
 20
1420.905666809032
 30
0.0
 40
0.3000000000010914
100
AcDbArc
 50
270.0
 51
0.0
  0
ARC
  5
1E1
330
1F
100
AcDbEntity
  8
0
  6
Continuous
 62
     7
100
AcDbCircle
 10
-2093.45000199987
 20
1422.305666809031
 30
0.0
 40
0.2999999999999545
100
AcDbArc
 50
90.0
 51
180.0
  0
ARC
  5
1E2
330
1F
100
AcDbEntity
  8
0
  6
Continuous
 62
     7
100
AcDbCircle
 10
-1873.45000199987
 20
1422.305666809031
 30
0.0
 40
0.2999999999999545
100
AcDbArc
 50
90.0
 51
180.0
  0
ARC
  5
1E3
330
1F
100
AcDbEntity
  8
0
  6
Continuous
 62
     7
100
AcDbCircle
 10
-1954.55000199987
 20
1422.305666809031
 30
0.0
 40
0.2999999999999545
100
AcDbArc
 50
0.0
 51
90.0
  0
ARC
  5
1E4
330
1F
100
AcDbEntity
  8
0
  6
Continuous
 62
     7
100
AcDbCircle
 10
-1874.05000199987
 20
1420.905666809032
 30
0.0
 40
0.3000000000010914
100
AcDbArc
 50
270.0
 51
0.0
  0
ARC
  5
1E5
330
1F
100
AcDbEntity
  8
0
  6
Continuous
 62
     7
100
AcDbCircle
 10
-1953.95000199987
 20
1420.905666809032
 30
0.0
 40
0.2999999999999545
100
AcDbArc
 50
180.0
 51
270.0
  0
ARC
  5
1E6
330
1F
100
AcDbEntity
  8
0
  6
Continuous
 62
     7
100
AcDbCircle
 10
-886.6094958333681
 20
1420.905666809032
 30
0.0
 40
0.2999999999999545
100
AcDbArc
 50
180.0
 51
270.0
  0
ARC
  5
1E7
330
1F
100
AcDbEntity
  8
0
  6
Continuous
 62
     7
100
AcDbCircle
 10
-887.209495833368
 20
1422.305666809032
 30
0.0
 40
0.2999999999999545
100
AcDbArc
 50
0.0
 51
90.0
  0
ARC
  5
1E8
330
1F
100
AcDbEntity
  8
0
  6
Continuous
 62
     7
100
AcDbCircle
 10
-877.6094958333681
 20
1422.305666809032
 30
0.0
 40
0.3000000000001819
100
AcDbArc
 50
90.0
 51
180.0
  0
ARC
  5
1E9
330
1F
100
AcDbEntity
  8
0
  6
Continuous
 62
     7
100
AcDbCircle
 10
-882.4094954110165
 20
1435.605666584598
 30
0.0
 40
10.0000000738638
100
AcDbArc
 50
233.1300996466917
 51
250.898432048951
  0
ARC
  5
1EA
330
1F
100
AcDbEntity
  8
0
  6
Continuous
 62
     7
100
AcDbCircle
 10
-882.409497966305
 20
1435.605666866905
 30
0.0
 40
10.00000005787376
100
AcDbArc
 50
266.8915504225931
 51
270.0000122208285
  0
ARC
  5
1EB
330
1F
100
AcDbEntity
  8
0
  6
Continuous
 62
     7
100
AcDbCircle
 10
-882.4094962557199
 20
1435.605666584598
 30
0.0
 40
10.00000007386435
100
AcDbArc
 50
289.1015679510502
 51
306.8699003533093
  0
ARC
  5
1EC
330
1F
100
AcDbEntity
  8
0
  6
Continuous
 62
     7
100
AcDbCircle
 10
-882.4094945193674
 20
1435.605667151587
 30
0.0
 40
10.00000002920317
100
AcDbArc
 50
283.3792811234509
 51
285.8438930230949
  0
ARC
  5
1ED
330
1F
100
AcDbEntity
  8
0
  6
Continuous
 62
     7
100
AcDbCircle
 10
-882.4094958333692
 20
1435.605666809031
 30
0.0
 40
9.999999999999828
100
AcDbArc
 50
278.8999014023276
 51
283.3792889019571
  0
ARC
  5
1EE
330
1F
100
AcDbEntity
  8
0
  6
Continuous
 62
     7
100
AcDbCircle
 10
-882.4095009649204
 20
1435.605666412033
 30
0.0
 40
10.00000011814751
100
AcDbArc
 50
273.108491378195
 51
275.7391999589814
  0
ARC
  5
1EF
330
1F
100
AcDbEntity
  8
0
  6
Continuous
 62
     7
100
AcDbCircle
 10
-882.4094914789803
 20
1435.605666927179
 30
0.0
 40
10.00000011814795
100
AcDbArc
 50
269.999975051196
 51
273.1084369476768
  0
ARC
  5
1F0
330
1F
100
AcDbEntity
  8
0
  6
Continuous
 62
     7
100
AcDbCircle
 10
-882.409495833368
 20
1435.605666809032
 30
0.0
 40
10.00000000000095
100
AcDbArc
 50
275.7391704772662
 51
278.8999014023202
  0
ARC
  5
1F1
330
1F
100
AcDbEntity
  8
0
  6
Continuous
 62
     7
100
AcDbCircle
 10
-882.4094943346679
 20
1435.605667280786
 30
0.0
 40
10.00000010306845
100
AcDbArc
 50
285.843891802946
 51
289.1015562449385
  0
ARC
  5
1F2
330
1F
100
AcDbEntity
  8
0
  6
Continuous
 62
     7
100
AcDbCircle
 10
-882.4094977672698
 20
1435.605667417777
 30
0.0
 40
10.0000000900995
100
AcDbArc
 50
250.8984463681437
 51
254.1561106192165
  0
ARC
  5
1F3
330
1F
100
AcDbEntity
  8
0
  6
Continuous
 62
     7
100
AcDbCircle
 10
-882.4094943188825
 20
1435.605666649741
 30
0.0
 40
10.00000003881502
100
AcDbArc
 50
261.1000890166347
 51
266.891529487678
  0
ARC
  5
1F4
330
1F
100
AcDbEntity
  8
0
  6
Continuous
 62
     7
100
AcDbCircle
 10
-882.4094963118496
 20
1435.605666903249
 30
0.0
 40
9.999999980941762
100
AcDbArc
 50
256.6207138900567
 51
261.1001005227269
  0
ARC
  5
1F5
330
1F
100
AcDbEntity
  8
0
  6
Continuous
 62
     7
100
AcDbCircle
 10
-882.4094965638376
 20
1435.605666999463
 30
0.0
 40
10.00000001623523
100
AcDbArc
 50
254.1561033316529
 51
256.6207154222176
  0
ARC
  5
1F6
330
1F
100
AcDbEntity
  8
0
  6
Continuous
 62
     7
100
AcDbCircle
 10
-878.209495833368
 20
1420.905666809032
 30
0.0
 40
0.2999999999999545
100
AcDbArc
 50
270.0
 51
0.0
  0
ARC
  5
1F7
330
1F
100
AcDbEntity
  8
0
  6
Continuous
 62
     7
100
AcDbCircle
 10
-1790.500001999867
 20
1159.499651917232
 30
0.0
 40
12.50000000000028
100
AcDbArc
 50
270.0458366263913
 51
90.00000000001354
  0
ARC
  5
1F8
330
1F
100
AcDbEntity
  8
0
  6
Continuous
 62
     7
100
AcDbCircle
 10
-2255.500001999872
 20
1159.499651917232
 30
0.0
 40
12.5
100
AcDbArc
 50
89.99999999999167
 51
269.9541633736046
  0
ARC
  5
1F9
330
1F
100
AcDbEntity
  8
0
  6
Continuous
 62
     7
100
AcDbCircle
 10
-1790.50000199987
 20
534.4996519172319
 30
0.0
 40
12.5
100
AcDbArc
 50
270.0
 51
90.0
  0
ARC
  5
1FA
330
1F
100
AcDbEntity
  8
0
  6
Continuous
 62
     7
100
AcDbCircle
 10
-2255.50000199987
 20
534.4996519172319
 30
0.0
 40
12.5
100
AcDbArc
 50
90.0
 51
270.0
  0
ARC
  5
1FB
330
1F
100
AcDbEntity
  8
0
  6
Continuous
 62
     7
100
AcDbCircle
 10
-2261.00000199987
 20
1145.013724416229
 30
0.0
 40
2.999999999999724
100
AcDbArc
 50
41.450837669012
 51
66.21016333847535
  0
ARC
  5
1FC
330
1F
100
AcDbEntity
  8
0
  6
Continuous
 62
     7
100
AcDbCircle
 10
-1785.00000199987
 20
1145.013724416231
 30
0.0
 40
2.999999999999494
100
AcDbArc
 50
113.7898366619991
 51
138.5491623310432
  0
ARC
  5
1FD
330
1F
100
AcDbEntity
  8
0
  6
Continuous
 62
     7
100
AcDbCircle
 10
-2261.00000199987
 20
548.9855794182338
 30
0.0
 40
3.000000000000167
100
AcDbArc
 50
293.7898366619744
 51
317.0693118747782
  0
ARC
  5
1FE
330
1F
100
AcDbEntity
  8
0
  6
Continuous
 62
     7
100
AcDbCircle
 10
-1785.00000199987
 20
548.9855794182349
 30
0.0
 40
2.999999999999939
100
AcDbArc
 50
221.4507357452378
 51
246.210163338362
  0
SPLINE
  5
1FF
330
1F
100
AcDbEntity
  8
0
  6
Continuous
 62
     7
100
AcDbSpline
210
0.0
220
0.0
230
1.0
 70
     8
 71
     3
 72
     9
 73
     5
 74
     3
 42
0.0000000001
 43
0.0000000001
 44
0.00000001
 40
0.0
 40
0.0
 40
0.0
 40
0.0
 40
0.0921841508568814
 40
0.1843613724490112
 40
0.1843613724490112
 40
0.1843613724490112
 40
0.1843613724490112
 10
-1272.839035215484
 20
1034.066149748864
 30
0.0
 10
-1272.862719375631
 20
1034.046571078423
 30
0.0
 10
-1272.910085915642
 20
1034.007415209222
 30
0.0
 10
-1272.956673450284
 20
1033.967335628346
 30
0.0
 10
-1272.979966342103
 20
1033.947296591108
 30
0.0
 11
-1272.839035215484
 21
1034.066149748864
 31
0.0
 11
-1272.909892929942
 21
1034.007182792261
 31
0.0
 11
-1272.979966342103
 21
1033.947296591108
 31
0.0
  0
SPLINE
  5
200
330
1F
100
AcDbEntity
  8
0
  6
Continuous
 62
     7
100
AcDbSpline
210
0.0
220
0.0
230
1.0
 70
     8
 71
     3
 72
     9
 73
     5
 74
     3
 42
0.0000000001
 43
0.0000000001
 44
0.00000001
 40
0.0
 40
0.0
 40
0.0
 40
0.0
 40
0.5657183970729126
 40
1.133030171079303
 40
1.133030171079303
 40
1.133030171079303
 40
1.133030171079303
 10
-1074.113603154139
 20
818.0283121302283
 30
0.0
 10
-1073.973442036134
 20
818.1547473756029
 30
0.0
 10
-1073.692725028638
 20
818.4079739781644
 30
0.0
 10
-1073.44440115683
 20
818.693038834454
 30
0.0
 10
-1073.320064612367
 20
818.8357717055251
 30
0.0
 11
-1074.113603154139
 21
818.0283121302283
 31
0.0
 11
-1073.701195322877
 21
818.4155550585052
 31
0.0
 11
-1073.320064612367
 21
818.8357717055251
 31
0.0
  0
SPLINE
  5
201
330
1F
100
AcDbEntity
  8
0
  6
Continuous
 62
     7
100
AcDbSpline
210
0.0
220
0.0
230
1.0
 70
     8
 71
     3
 72
     9
 73
     5
 74
     3
 42
0.0000000001
 43
0.0000000001
 44
0.00000001
 40
0.0
 40
0.0
 40
0.0
 40
0.0
 40
0.2193540831902046
 40
0.4395150058778741
 40
0.4395150058778741
 40
0.4395150058778741
 40
0.4395150058778741
 10
-1302.296790234041
 20
691.0784144278432
 30
0.0
 10
-1302.295498277351
 20
691.0052521751321
 30
0.0
 10
-1302.292909611829
 20
690.8586585605403
 30
0.0
 10
-1302.275003827844
 20
690.7131390903708
 30
0.0
 10
-1302.266034500584
 20
690.6402457866311
 30
0.0
 11
-1302.296790234041
 21
691.0784144278432
 31
0.0
 11
-1302.289099130647
 21
690.8591952207905
 31
0.0
 11
-1302.266034500584
 21
690.6402457866311
 31
0.0
  0
SPLINE
  5
202
330
1F
100
AcDbEntity
  8
0
  6
Continuous
 62
     7
100
AcDbSpline
210
0.0
220
0.0
230
1.0
 70
     8
 71
     3
 72
     9
 73
     5
 74
     3
 42
0.0000000001
 43
0.0000000001
 44
0.00000001
 40
0.0
 40
0.0
 40
0.0
 40
0.0
 40
0.565710813113351
 40
1.133014946128264
 40
1.133014946128264
 40
1.133014946128264
 40
1.133014946128264
 10
-1256.613601304275
 20
659.9786775416079
 30
0.0
 10
-1256.473442078345
 20
660.1051110990031
 30
0.0
 10
-1256.192728869168
 20
660.3583343128794
 30
0.0
 10
-1255.944407905085
 20
660.6433949514019
 30
0.0
 10
-1255.820072820433
 20
660.7861257061427
 30
0.0
 11
-1256.613601304275
 21
659.9786775416079
 31
0.0
 11
-1256.201198927726
 21
660.3659151997588
 31
0.0
 11
-1255.820072820433
 21
660.7861257061427
 31
0.0
  0
SPLINE
  5
203
330
1F
100
AcDbEntity
  8
0
  6
Continuous
 62
     7
100
AcDbSpline
210
0.0
220
0.0
230
1.0
 70
     8
 71
     3
 72
    10
 73
     6
 74
     4
 42
0.0000000001
 43
0.0000000001
 44
0.00000001
 40
0.0
 40
0.0
 40
0.0
 40
0.0
 40
0.0008091648045078
 40
0.0009710038145301
 40
0.0016183280111999
 40
0.0016183280111999
 40
0.0016183280111999
 40
0.0016183280111999
 10
-528.5309182107771
 20
736.1771346262478
 30
0.0
 10
-528.530917642779
 20
736.1776309926747
 30
0.0
 10
-528.5309169611769
 20
736.1782266360977
 30
0.0
 10
-528.5309106913472
 20
736.17758749477
 30
0.0
 10
-528.5309114783684
 20
736.1773359006379
 30
0.0
 10
-528.530912107979
 20
736.1771346273125
 30
0.0
 11
-528.5309182107771
 21
736.1771346262478
 31
0.0
 11
-528.5309143676961
 21
736.177943781926
 31
0.0
 11
-528.5309127291346
 21
736.1777819512112
 31
0.0
 11
-528.530912107979
 21
736.1771346273125
 31
0.0
  0
SPLINE
  5
204
330
1F
100
AcDbEntity
  8
0
  6
Continuous
 62
     7
100
AcDbSpline
210
0.0
220
0.0
230
1.0
 70
     8
 71
     3
 72
     9
 73
     5
 74
     3
 42
0.0000000001
 43
0.0000000001
 44
0.00000001
 40
0.0
 40
0.0
 40
0.0
 40
0.0
 40
0.0010923606113869
 40
0.0021847211239607
 40
0.0021847211239607
 40
0.0021847211239607
 40
0.0021847211239607
 10
-736.030913624096
 20
534.8262360980191
 30
0.0
 10
-736.0309134027524
 20
534.8266002181624
 30
0.0
 10
-736.0309129600655
 20
534.8273284584166
 30
0.0
 10
-736.0309128992185
 20
534.8280566988026
 30
0.0
 10
-736.030912868795
 20
534.8284208189791
 30
0.0
 11
-736.030913624096
 21
534.8262360980191
 31
0.0
 11
-736.0309130555254
 21
534.8273284584825
 31
0.0
 11
-736.030912868795
 21
534.8284208189791
 31
0.0
  0
SPLINE
  5
205
330
1F
100
AcDbEntity
  8
0
  6
Continuous
 62
     7
100
AcDbSpline
210
0.0
220
0.0
230
1.0
 70
     8
 71
     3
 72
    23
 73
    19
 74
    17
 42
0.0000000001
 43
0.0000000001
 44
0.00000001
 40
0.0
 40
0.0
 40
0.0
 40
0.0
 40
0.0825168828633029
 40
0.1634708186292353
 40
0.2047840077125447
 40
0.2451153187252064
 40
0.2905319329082979
 40
0.3269959756005527
 40
0.3609562937746975
 40
0.4001380578760899
 40
0.4339401920065115
 40
0.4734471560431769
 40
0.5194408895871155
 40
0.5639797599302808
 40
0.5851519219875742
 40
0.6092791173763633
 40
0.6303754432624714
 40
0.6546587009442919
 40
0.6546587009442919
 40
0.6546587009442919
 40
0.6546587009442919
 10
-1510.681933017607
 20
1426.156266942914
 30
0.0
 10
-1510.65558286674
 20
1426.148244661348
 30
0.0
 10
-1510.603381661558
 20
1426.132352047748
 30
0.0
 10
-1510.535313080121
 20
1426.123755904792
 30
0.0
 10
-1510.481107642673
 20
1426.122353624883
 30
0.0
 10
-1510.438764969886
 20
1426.124611201353
 30
0.0
 10
-1510.39836435768
 20
1426.130329356954
 30
0.0
 10
-1510.360751531968
 20
1426.139275703996
 30
0.0
 10
-1510.326042883411
 20
1426.15082700919
 30
0.0
 10
-1510.293445168944
 20
1426.165457770878
 30
0.0
 10
-1510.261131314816
 20
1426.184623113644
 30
0.0
 10
-1510.229668235229
 20
1426.209171022308
 30
0.0
 10
-1510.200260127398
 20
1426.241384271809
 30
0.0
 10
-1510.18106447404
 20
1426.273631298727
 30
0.0
 10
-1510.169949627347
 20
1426.301488386272
 30
0.0
 10
-1510.164072793489
 20
1426.322872058398
 30
0.0
 10
-1510.160221671828
 20
1426.345777510998
 30
0.0
 10
-1510.159748848061
 20
1426.360913179111
 30
0.0
 10
-1510.159495833368
 20
1426.369012489419
 30
0.0
 11
-1510.681933017607
 21
1426.156266942914
 31
0.0
 11
-1510.602338508977
 21
1426.134501140531
 31
0.0
 11
-1510.522084394162
 21
1426.123879616568
 31
0.0
 11
-1510.480782895176
 21
1426.12289687868
 31
0.0
 11
-1510.440510246534
 21
1426.125071371572
 31
0.0
 11
-1510.395553072056
 21
1426.131515074454
 31
0.0
 11
-1510.360090131856
 21
1426.14000072598
 31
0.0
 11
-1510.32788329807
 21
1426.150772126443
 31
0.0
 11
-1510.292174624497
 21
1426.166899781877
 31
0.0
 11
-1510.263136853642
 21
1426.18420273352
 31
0.0
 11
-1510.232064918949
 21
1426.208602222896
 31
0.0
 11
-1510.201200019308
 21
1426.242701804938
 31
0.0
 11
-1510.178501802888
 21
1426.2810228428
 31
0.0
 11
-1510.170663631239
 21
1426.300690672151
 31
0.0
 11
-1510.164230666268
 21
1426.323944457198
 31
0.0
 11
-1510.160839454152
 21
1426.344766432279
 31
0.0
 11
-1510.159495833368
 21
1426.369012489419
 31
0.0
  0
SPLINE
  5
206
330
1F
100
AcDbEntity
  8
0
  6
Continuous
 62
     7
100
AcDbSpline
210
0.0
220
0.0
230
1.0
 70
     8
 71
     3
 72
    23
 73
    19
 74
    17
 42
0.0000000001
 43
0.0000000001
 44
0.00000001
 40
0.0
 40
0.0
 40
0.0
 40
0.0
 40
0.0409935011368242
 40
0.0817906433509638
 40
0.1263533084727245
 40
0.1635647682747908
 40
0.2013019381508863
 40
0.2452086795571029
 40
0.2868474991735897
 40
0.3270898254852499
 40
0.4030711378894904
 40
0.4733020479781218
 40
0.5192957815505461
 40
0.5638346518651822
 40
0.5879875507408053
 40
0.6091340105225337
 40
0.630230336400641
 40
0.6545135940904703
 40
0.6545135940904703
 40
0.6545135940904703
 40
0.6545135940904703
 10
-1504.137058649129
 20
1426.156266942914
 30
0.0
 10
-1504.150057939693
 20
1426.152039256711
 30
0.0
 10
-1504.175994254202
 20
1426.143604134928
 30
0.0
 10
-1504.217037108108
 20
1426.133949127637
 30
0.0
 10
-1504.257367632935
 20
1426.127211561262
 30
0.0
 10
-1504.297056682845
 20
1426.123453615271
 30
0.0
 10
-1504.336689861794
 20
1426.12235051377
 30
0.0
 10
-1504.377785238663
 20
1426.124378594749
 30
0.0
 10
-1504.419381825468
 20
1426.130106575441
 30
0.0
 10
-1504.470686354804
 20
1426.142055567826
 30
0.0
 10
-1504.529010696896
 20
1426.164871068186
 30
0.0
 10
-1504.58238807429
 20
1426.20156587981
 30
0.0
 10
-1504.618729115998
 20
1426.241384061277
 30
0.0
 10
-1504.638438709137
 20
1426.274488610841
 30
0.0
 10
-1504.649360029139
 20
1426.302442084845
 30
0.0
 10
-1504.655082037338
 20
1426.323853302455
 30
0.0
 10
-1504.658770579747
 20
1426.345777815698
 30
0.0
 10
-1504.65924302254
 20
1426.360913285322
 30
0.0
 10
-1504.659495833368
 20
1426.369012489419
 30
0.0
 11
-1504.137058649129
 21
1426.156266942914
 31
0.0
 11
-1504.176215135212
 21
1426.144132828481
 31
0.0
 11
-1504.215896081673
 21
1426.134654996408
 31
0.0
 11
-1504.259860696217
 21
1426.127378748012
 31
0.0
 11
-1504.296907272574
 21
1426.123879616568
 31
0.0
 11
-1504.334630573568
 21
1426.122856605136
 31
0.0
 11
-1504.378481420202
 21
1426.125071371572
 31
0.0
 11
-1504.419723078739
 21
1426.130808696751
 31
0.0
 11
-1504.45890153488
 21
1426.14000072598
 31
0.0
 11
-1504.529423626831
 21
1426.168281362139
 31
0.0
 11
-1504.586926747787
 21
1426.208602222896
 31
0.0
 11
-1504.617791647445
 21
1426.242701804962
 31
0.0
 11
-1504.640489863848
 21
1426.2810228428
 31
0.0
 11
-1504.649269811462
 21
1426.303523399326
 31
0.0
 11
-1504.654761000468
 21
1426.323944457198
 31
0.0
 11
-1504.658152212583
 21
1426.344766432271
 31
0.0
 11
-1504.659495833368
 21
1426.369012489419
 31
0.0
  0
SPLINE
  5
207
330
1F
100
AcDbEntity
  8
0
  6
Continuous
 62
     7
100
AcDbSpline
210
0.0
220
0.0
230
1.0
 70
     8
 71
     3
 72
    11
 73
     7
 74
     5
 42
0.0000000001
 43
0.0000000001
 44
0.00000001
 40
0.0
 40
0.0
 40
0.0
 40
0.0
 40
0.4943287845001979
 40
0.9434647631359314
 40
1.357679044394295
 40
1.752605182538903
 40
1.752605182538903
 40
1.752605182538903
 40
1.752605182538903
 10
-1201.596906901272
 20
703.878080450983
 30
0.0
 10
-1201.476379217788
 20
703.9911637819343
 30
0.0
 10
-1201.246342800901
 20
704.206992075564
 30
0.0
 10
-1200.991112658796
 20
704.5841342959939
 30
0.0
 10
-1200.824359498829
 20
704.9755776224142
 30
0.0
 10
-1200.803325581381
 20
705.2460547219903
 30
0.0
 10
-1200.793059324019
 20
705.3780694796646
 30
0.0
 11
-1201.596906901272
 21
703.878080450983
 31
0.0
 11
-1201.249784251259
 21
704.2300276246231
 31
0.0
 11
-1200.99750720584
 21
704.6016180169369
 31
0.0
 11
-1200.844392328587
 21
704.9864937178613
 31
0.0
 11
-1200.793059324019
 21
705.3780694796646
 31
0.0
  0
SPLINE
  5
208
330
1F
100
AcDbEntity
  8
0
  6
Continuous
 62
     7
100
AcDbSpline
210
0.0
220
0.0
230
1.0
 70
     8
 71
     3
 72
     9
 73
     5
 74
     3
 42
0.0000000001
 43
0.0000000001
 44
0.00000001
 40
0.0
 40
0.0
 40
0.0
 40
0.0
 40
0.0188330507548404
 40
0.0377676713316013
 40
0.0377676713316013
 40
0.0377676713316013
 40
0.0377676713316013
 10
-1205.234351681553
 20
700.658854983464
 30
0.0
 10
-1205.229715310839
 20
700.6631051860925
 30
0.0
 10
-1205.220417564681
 20
700.6716285134094
 30
0.0
 10
-1205.2126574092
 20
700.6815723108351
 30
0.0
 10
-1205.208766896641
 20
700.6865575806362
 30
0.0
 11
-1205.234351681553
 21
700.658854983464
 31
0.0
 11
-1205.220824902314
 21
700.6719588013865
 31
0.0
 11
-1205.208766896641
 21
700.6865575806362
 31
0.0
  0
SPLINE
  5
209
330
1F
100
AcDbEntity
  8
0
  6
Continuous
 62
     7
100
AcDbSpline
210
0.0
220
0.0
230
1.0
 70
     8
 71
     3
 72
    13
 73
     9
 74
     7
 42
0.0000000001
 43
0.0000000001
 44
0.00000001
 40
0.0
 40
0.0
 40
0.0
 40
0.0
 40
0.9797765603680749
 40
1.950144244711071
 40
2.883593193892257
 40
3.755260381374877
 40
4.545210405373037
 40
5.241379811918682
 40
5.241379811918682
 40
5.241379811918682
 40
5.241379811918682
 10
-1251.079657172775
 20
664.1113373217212
 30
0.0
 10
-1250.753019528737
 20
664.0991977200814
 30
0.0
 10
-1250.1028809692
 20
664.0750350944087
 30
0.0
 10
-1249.143116946775
 20
664.1587184534106
 30
0.0
 10
-1248.231146095777
 20
664.3253822312302
 30
0.0
 10
-1247.403947013835
 20
664.5816225659032
 30
0.0
 10
-1246.67984360662
 20
664.9014504548595
 30
0.0
 10
-1246.282868857049
 20
665.2000647617047
 30
0.0
 10
-1246.096906901272
 20
665.3399499825755
 30
0.0
 11
-1251.079657172775
 21
664.1113373217212
 31
0.0
 11
-1250.100011824231
 21
664.0953030046827
 31
0.0
 11
-1249.132933687944
 21
664.1751360876299
 31
0.0
 11
-1248.215587087381
 21
664.3477690947943
 31
0.0
 11
-1247.383224719034
 21
664.6065674207046
 31
0.0
 11
-1246.667834206693
 21
664.9415860101394
 31
0.0
 11
-1246.096906901272
 21
665.3399499825755
 31
0.0
  0
SPLINE
  5
20A
330
1F
100
AcDbEntity
  8
0
  6
Continuous
 62
     7
100
AcDbSpline
210
0.0
220
0.0
230
1.0
 70
     8
 71
     3
 72
    10
 73
     6
 74
     4
 42
0.0000000001
 43
0.0000000001
 44
0.00000001
 40
0.0
 40
0.0
 40
0.0
 40
0.0
 40
0.0102838975994336
 40
0.0137431256202053
 40
0.0444206834638196
 40
0.0444206834638196
 40
0.0444206834638196
 40
0.0444206834638196
 10
-1245.184347535207
 20
666.0611436935102
 30
0.0
 10
-1245.179752881476
 20
666.0649643984048
 30
0.0
 10
-1245.173612709154
 20
666.070070286208
 30
0.0
 10
-1245.189903436614
 20
666.0608798311254
 30
0.0
 10
-1245.197020601252
 20
666.0534898103257
 30
0.0
 10
-1245.203416552844
 20
666.0468486522669
 30
0.0
 11
-1245.184347535207
 21
666.0611436935102
 31
0.0
 11
-1245.176823908818
 21
666.0681546560545
 31
0.0
 11
-1245.179865984219
 21
666.0665078300901
 31
0.0
 11
-1245.203416552844
 21
666.0468486522669
 31
0.0
  0
SPLINE
  5
20B
330
1F
100
AcDbEntity
  8
0
  6
Continuous
 62
     7
100
AcDbSpline
210
0.0
220
0.0
230
1.0
 70
    27
 71
     3
 72
     9
 73
     5
 74
     3
 42
0.0000000001
 43
0.0000000001
 44
0.00000001
 40
0.0
 40
0.0
 40
0.0
 40
0.0
 40
0.0028951554448982
 40
0.0057903108897963
 40
0.0057903108897963
 40
0.0057903108897963
 40
0.0057903108897963
 10
-1245.203416552844
 20
666.0468486522669
 30
0.0
 10
-1245.202206179862
 20
666.0476426790342
 30
0.0
 10
-1245.199785433898
 20
666.0492307325691
 30
0.0
 10
-1245.202206179862
 20
666.0476426790342
 30
0.0
 10
-1245.203416552844
 20
666.0468486522669
 30
0.0
 11
-1245.203416552844
 21
666.0468486522669
 31
0.0
 11
-1245.20099580688
 21
666.0484367058017
 31
0.0
 11
-1245.203416552844
 21
666.0468486522669
 31
0.0
  0
SPLINE
  5
20C
330
1F
100
AcDbEntity
  8
0
  6
Continuous
 62
     7
100
AcDbSpline
210
0.0
220
0.0
230
1.0
 70
     8
 71
     3
 72
    34
 73
    30
 74
    28
 42
0.0000000001
 43
0.0000000001
 44
0.00000001
 40
0.0
 40
0.0
 40
0.0
 40
0.0
 40
0.0270091334248699
 40
0.0686644745539434
 40
0.121350989951403
 40
0.1837123775500049
 40
0.26695362004531
 40
0.3478002498630678
 40
0.4378861276905549
 40
0.5595831699184888
 40
0.6828588464536255
 40
0.8156037027071382
 40
0.9746201801803244
 40
1.110561568916095
 40
1.288804736374166
 40
1.44176728022818
 40
1.620109156063547
 40
1.806941566136791
 40
2.016340319823411
 40
2.201348380030305
 40
2.421789419669375
 40
2.620065849701782
 40
2.953717825409583
 40
3.255249258086764
 40
3.524046555495358
 40
4.031654416092529
 40
4.495609420972142
 40
5.004563695823967
 40
5.501165876103122
 40
5.501165876103122
 40
5.501165876103122
 40
5.501165876103122
 10
-2183.50000199987
 20
1425.655792437965
 30
0.0
 10
-2183.498612949918
 20
1425.664755560098
 30
0.0
 10
-2183.495081611698
 20
1425.687542224964
 30
0.0
 10
-2183.473287721516
 20
1425.722648476431
 30
0.0
 10
-2183.441442996354
 20
1425.763787923601
 30
0.0
 10
-2183.395834450958
 20
1425.811878526297
 30
0.0
 10
-2183.340674057897
 20
1425.863392326388
 30
0.0
 10
-2183.276220802698
 20
1425.918430810587
 30
0.0
 10
-2183.20003623544
 20
1425.979360490796
 30
0.0
 10
-2183.110746277574
 20
1426.046482332114
 30
0.0
 10
-2183.008159623006
 20
1426.119495362387
 30
0.0
 10
-2182.893679018908
 20
1426.197190933481
 30
0.0
 10
-2182.774002071656
 20
1426.27469168984
 30
0.0
 10
-2182.639985596641
 20
1426.35788777492
 30
0.0
 10
-2182.506158449461
 20
1426.437520637611
 30
0.0
 10
-2182.358611012701
 20
1426.521668976322
 30
0.0
 10
-2182.207074565075
 20
1426.604554009893
 30
0.0
 10
-2182.037305926137
 20
1426.693236775506
 30
0.0
 10
-2181.863757181683
 20
1426.779403639111
 30
0.0
 10
-2181.678347639192
 20
1426.866766651742
 30
0.0
 10
-2181.494496295016
 20
1426.948650822109
 30
0.0
 10
-2181.263149024734
 20
1427.045512076093
 30
0.0
 10
-2181.003787334689
 20
1427.14528238465
 30
0.0
 10
-2180.718713576929
 20
1427.243116955972
 30
0.0
 10
-2180.374991572795
 20
1427.347964389006
 30
0.0
 10
-2179.973785616696
 20
1427.449362840688
 30
0.0
 10
-2179.488062537671
 20
1427.537943874698
 30
0.0
 10
-2179.000832618595
 20
1427.594853428328
 30
0.0
 10
-2178.665572780043
 20
1427.602091987899
 30
0.0
 10
-2178.50000199987
 20
1427.605666809031
 30
0.0
 11
-2183.50000199987
 21
1425.655792437965
 31
0.0
 11
-2183.494473222103
 21
1425.682229644791
 31
0.0
 11
-2183.474834371724
 21
1425.718964954785
 31
0.0
 11
-2183.44276261958
 21
1425.760765333003
 31
0.0
 11
-2183.400274373489
 21
1425.806412803988
 31
0.0
 11
-2183.339668849804
 21
1425.863474831213
 31
0.0
 11
-2183.278304995048
 21
1425.916111841789
 31
0.0
 11
-2183.208030529831
 21
1425.972476413307
 31
0.0
 11
-2183.110858301522
 21
1426.04574119429
 31
0.0
 11
-2183.010479970044
 21
1426.117302936826
 31
0.0
 11
-2182.900685137301
 21
1426.191910520655
 31
0.0
 11
-2182.767253947738
 21
1426.278411143541
 31
0.0
 11
-2182.651773948785
 21
1426.350135832549
 31
0.0
 11
-2182.498619901352
 21
1426.441319518043
 31
0.0
 11
-2182.365755288364
 21
1426.517112225067
 31
0.0
 11
-2182.209296008771
 21
1426.602706141356
 31
0.0
 11
-2182.043699183135
 21
1426.689216492141
 31
0.0
 11
-2181.856144377378
 21
1426.782334873158
 31
0.0
 11
-2181.688781472806
 21
1426.861186889712
 31
0.0
 11
-2181.487402614903
 21
1426.950857439765
 31
0.0
 11
-2181.304502761492
 21
1427.027415824862
 31
0.0
 11
-2180.99306152502
 21
1427.147115436884
 31
0.0
 11
-2180.707830141321
 21
1427.24491248513
 31
0.0
 11
-2180.450714135906
 21
1427.323291990446
 31
0.0
 11
-2179.958441129987
 21
1427.447118594147
 31
0.0
 11
-2179.50205525453
 21
1427.53058223435
 31
0.0
 11
-2178.996261077049
 21
1427.587210000649
 31
0.0
 11
-2178.50000199987
 21
1427.605666809031
 31
0.0
  0
SPLINE
  5
20D
330
1F
100
AcDbEntity
  8
0
  6
Continuous
 62
     7
100
AcDbSpline
210
0.0
220
0.0
230
1.0
 70
     8
 71
     3
 72
    23
 73
    19
 74
    17
 42
0.0000000001
 43
0.0000000001
 44
0.00000001
 40
0.0
 40
0.0
 40
0.0
 40
0.0
 40
0.0176248899104207
 40
0.0352497798289518
 40
0.0876162174007195
 40
0.1400304081537916
 40
0.3445086521167877
 40
0.5458352364929484
 40
1.295280374239955
 40
2.003592708103
 40
2.543947265719515
 40
3.063681328512988
 40
3.564791133482356
 40
4.049368344570839
 40
4.657851024083471
 40
5.24970258672343
 40
5.829847468953097
 40
6.403373344986318
 40
6.403373344986318
 40
6.403373344986318
 40
6.403373344986318
 10
-2083.50000199987
 20
1425.605666809031
 30
0.0
 10
-2083.505040361038
 20
1425.608688416934
 30
0.0
 10
-2083.515117083376
 20
1425.61473163274
 30
0.0
 10
-2083.540177109839
 20
1425.629729996415
 30
0.0
 10
-2083.575216320735
 20
1425.650635672263
 30
0.0
 10
-2083.663857946794
 20
1425.7032611955
 30
0.0
 10
-2083.795612459325
 20
1425.780533234843
 30
0.0
 10
-2084.129497280826
 20
1425.972395174361
 30
0.0
 10
-2084.61498084247
 20
1426.237537604063
 30
0.0
 10
-2085.211867660096
 20
1426.533505811022
 30
0.0
 10
-2085.750136989188
 20
1426.774113351705
 30
0.0
 10
-2086.233164818887
 20
1426.968129469351
 30
0.0
 10
-2086.706316828819
 20
1427.135756935789
 30
0.0
 10
-2087.214762145793
 20
1427.290775409167
 30
0.0
 10
-2087.760425135771
 20
1427.425582681595
 30
0.0
 10
-2088.345167258109
 20
1427.529050261761
 30
0.0
 10
-2088.924149115394
 20
1427.593699938124
 30
0.0
 10
-2089.30878663766
 20
1427.601693138643
 30
0.0
 10
-2089.50000199987
 20
1427.605666809031
 30
0.0
 11
-2083.50000199987
 21
1425.605666809031
 31
0.0
 11
-2083.515118441913
 21
1425.6147293652
 31
0.0
 11
-2083.530241359978
 21
1425.623781110548
 31
0.0
 11
-2083.575212355935
 21
1425.650611192668
 31
0.0
 11
-2083.620282172226
 21
1425.677368603825
 31
0.0
 11
-2083.796671072872
 21
1425.780801229156
 31
0.0
 11
-2083.97123641419
 21
1425.88109746631
 31
0.0
 11
-2084.629369014974
 21
1426.239607569763
 31
0.0
 11
-2085.264313678877
 21
1426.553536918636
 31
0.0
 11
-2085.757794402356
 21
1426.773672839128
 31
0.0
 11
-2086.240224518208
 21
1426.967024020525
 31
0.0
 11
-2086.712695521018
 21
1427.134003624488
 31
0.0
 11
-2087.176298905375
 21
1427.275024812681
 31
0.0
 11
-2087.767219514817
 21
1427.420159248995
 31
0.0
 11
-2088.349991402632
 21
1427.523431699198
 31
0.0
 11
-2088.926842815444
 21
1427.585161205229
 31
0.0
 11
-2089.50000199987
 21
1427.605666809031
 31
0.0
  0
SPLINE
  5
20E
330
1F
100
AcDbEntity
  8
0
  6
Continuous
 62
     7
100
AcDbSpline
210
0.0
220
0.0
230
1.0
 70
     8
 71
     3
 72
    17
 73
    13
 74
    11
 42
0.0000000001
 43
0.0000000001
 44
0.00000001
 40
0.0
 40
0.0
 40
0.0
 40
0.0
 40
0.0176248899104207
 40
0.0352497798301224
 40
0.087616217401109
 40
0.1400304081549631
 40
0.3445086587909796
 40
0.5458352364929386
 40
1.295280374121685
 40
2.003592708103182
 40
2.050035792228939
 40
2.096319606687798
 40
2.096319606687798
 40
2.096319606687798
 40
2.096319606687798
 10
-1863.50000199987
 20
1425.605666809031
 30
0.0
 10
-1863.505040361035
 20
1425.608688416936
 30
0.0
 10
-1863.515117083368
 20
1425.614731632748
 30
0.0
 10
-1863.540177109903
 20
1425.629729996361
 30
0.0
 10
-1863.575216319951
 20
1425.650635672931
 30
0.0
 10
-1863.663857955043
 20
1425.703261191254
 30
0.0
 10
-1863.795612356676
 20
1425.780533324768
 30
0.0
 10
-1864.129498079629
 20
1425.972394498669
 30
0.0
 10
-1864.614968566475
 20
1426.237548029206
 30
0.0
 10
-1865.06434881942
 20
1426.460324418448
 30
0.0
 10
-1865.306348298001
 20
1426.573161572133
 30
0.0
 10
-1865.334410815665
 20
1426.586117713029
 30
0.0
 10
-1865.348417974112
 20
1426.592584656607
 30
0.0
 11
-1863.50000199987
 21
1425.605666809031
 31
0.0
 11
-1863.515118441913
 21
1425.6147293652
 31
0.0
 11
-1863.530241359979
 21
1425.623781110548
 31
0.0
 11
-1863.575212355935
 21
1425.650611192668
 31
0.0
 11
-1863.620282172227
 21
1425.677368603825
 31
0.0
 11
-1863.796671078645
 21
1425.780801232506
 31
0.0
 11
-1863.97123641419
 21
1425.88109746631
 31
0.0
 11
-1864.629369014869
 21
1426.239607569708
 31
0.0
 11
-1865.264313678877
 21
1426.553536918636
 31
0.0
 11
-1865.306408727123
 21
1426.573157493966
 31
0.0
 11
-1865.348417974112
 21
1426.592584656607
 31
0.0
  0
SPLINE
  5
20F
330
1F
100
AcDbEntity
  8
0
  6
Continuous
 62
     7
100
AcDbSpline
210
0.0
220
0.0
230
1.0
 70
     8
 71
     3
 72
    32
 73
    28
 74
    26
 42
0.0000000001
 43
0.0000000001
 44
0.00000001
 40
0.0
 40
0.0
 40
0.0
 40
0.0
 40
0.0270091334396925
 40
0.0686644745537612
 40
0.1152088716594434
 40
0.1837146001654678
 40
0.2519268699081476
 40
0.3478035560253802
 40
0.4486914561712231
 40
0.5595864877074657
 40
0.8167819186004508
 40
1.110534929322674
 40
1.28877809674787
 40
1.441740640634966
 40
1.637133942514169
 40
1.806914835371068
 40
2.016313589057688
 40
2.201321649263953
 40
2.421762688978307
 40
2.620039118936467
 40
2.953691094644562
 40
3.25522252732189
 40
3.524019824729632
 40
4.031627685323496
 40
4.495582690206912
 40
5.004536965066972
 40
5.501139145337913
 40
5.501139145337913
 40
5.501139145337913
 40
5.501139145337913
 10
-1963.50000199987
 20
1425.655792437965
 30
0.0
 10
-1963.498613550481
 20
1425.664755457061
 30
0.0
 10
-1963.495083739058
 20
1425.687541859967
 30
0.0
 10
-1963.474375959314
 20
1425.720874139153
 30
0.0
 10
-1963.442861238699
 20
1425.76227187921
 30
0.0
 10
-1963.400767263875
 20
1425.80682675756
 30
0.0
 10
-1963.34445896236
 20
1425.860086959288
 30
0.0
 10
-1963.277393144027
 20
1425.917643620265
 30
0.0
 10
-1963.197176607287
 20
1425.981552378699
 30
0.0
 10
-1963.072090418834
 20
1426.075349011565
 30
0.0
 10
-1962.890542333204
 20
1426.20083629929
 30
0.0
 10
-1962.685190694877
 20
1426.330984130272
 30
0.0
 10
-1962.506159189811
 20
1426.437521048894
 30
0.0
 10
-1962.353673363636
 20
1426.52448459901
 30
0.0
 10
-1962.202059331673
 20
1426.607232797398
 30
0.0
 10
-1962.032214907515
 20
1426.695764563214
 30
0.0
 10
-1961.863757107996
 20
1426.779403650571
 30
0.0
 10
-1961.678347661965
 20
1426.866766648208
 30
0.0
 10
-1961.494496289272
 20
1426.948650823008
 30
0.0
 10
-1961.263149027331
 20
1427.045512075695
 30
0.0
 10
-1961.003787333928
 20
1427.145282384768
 30
0.0
 10
-1960.718713577096
 20
1427.243116955947
 30
0.0
 10
-1960.374991572709
 20
1427.347964389019
 30
0.0
 10
-1959.973785616723
 20
1427.449362840684
 30
0.0
 10
-1959.488062537662
 20
1427.5379438747
 30
0.0
 10
-1959.000832618595
 20
1427.594853428329
 30
0.0
 10
-1958.665572780042
 20
1427.602091987899
 30
0.0
 10
-1958.50000199987
 20
1427.605666809031
 30
0.0
 11
-1963.50000199987
 21
1425.655792437965
 31
0.0
 11
-1963.494473222098
 21
1425.682229644805
 31
0.0
 11
-1963.474834371724
 21
1425.718964954785
 31
0.0
 11
-1963.446739596953
 21
1425.75607377493
 31
0.0
 11
-1963.400274373489
 21
1425.806412803988
 31
0.0
 11
-1963.350843890614
 21
1425.853418560084
 31
0.0
 11
-1963.278304995048
 21
1425.916111841789
 31
0.0
 11
-1963.199497940233
 21
1425.979102448288
 31
0.0
 11
-1963.110858301522
 21
1426.04574119429
 31
0.0
 11
-1962.899692793331
 21
1426.192569726336
 31
0.0
 11
-1962.651773948785
 21
1426.350135832549
 31
0.0
 11
-1962.49861990138
 21
1426.441319518027
 31
0.0
 11
-1962.365755288364
 21
1426.517112225067
 31
0.0
 11
-1962.194252474322
 21
1426.610735551194
 31
0.0
 11
-1962.043699183135
 21
1426.689216492141
 31
0.0
 11
-1961.856144377378
 21
1426.782334873157
 31
0.0
 11
-1961.688781472807
 21
1426.861186889712
 31
0.0
 11
-1961.487402614835
 21
1426.950857439795
 31
0.0
 11
-1961.304502761492
 21
1427.027415824862
 31
0.0
 11
-1960.993061525019
 21
1427.147115436884
 31
0.0
 11
-1960.70783014132
 21
1427.24491248513
 31
0.0
 11
-1960.450714135906
 21
1427.323291990446
 31
0.0
 11
-1959.958441129991
 21
1427.447118594147
 31
0.0
 11
-1959.50205525453
 21
1427.53058223435
 31
0.0
 11
-1958.996261077041
 21
1427.58721000065
 31
0.0
 11
-1958.50000199987
 21
1427.605666809031
 31
0.0
  0
SPLINE
  5
210
330
1F
100
AcDbEntity
  8
0
  6
Continuous
 62
     7
100
AcDbSpline
210
0.0
220
0.0
230
1.0
 70
     8
 71
     3
 72
    11
 73
     7
 74
     5
 42
0.0000000001
 43
0.0000000001
 44
0.00000001
 40
0.0
 40
0.0
 40
0.0
 40
0.0
 40
1.010173334752918
 40
1.952676434655653
 40
3.152368086449071
 40
4.305315174155173
 40
4.305315174155173
 40
4.305315174155173
 40
4.305315174155173
 10
-1865.348417974112
 20
1426.592584656607
 30
0.0
 10
-1865.657031229806
 20
1426.727834951256
 30
0.0
 10
-1866.253584129278
 20
1426.989275294269
 30
0.0
 10
-1867.254076710606
 20
1427.313568330116
 30
0.0
 10
-1868.33046174496
 20
1427.556510934103
 30
0.0
 10
-1869.11535358522
 20
1427.589500003928
 30
0.0
 10
-1869.50000199987
 20
1427.605666809031
 30
0.0
 11
-1865.348417974112
 21
1426.592584656607
 31
0.0
 11
-1866.280462378588
 21
1426.982127201563
 31
0.0
 11
-1867.176298905376
 21
1427.275024812681
 31
0.0
 11
-1868.349991402632
 21
1427.523431699197
 31
0.0
 11
-1869.50000199987
 21
1427.605666809031
 31
0.0
  0
SPLINE
  5
211
330
1F
100
AcDbEntity
  8
0
  6
Continuous
 62
     7
100
AcDbSpline
210
0.0
220
0.0
230
1.0
 70
     8
 71
     3
 72
    11
 73
     7
 74
     5
 42
0.0000000001
 43
0.0000000001
 44
0.00000001
 40
0.0
 40
0.0
 40
0.0
 40
0.0
 40
0.4943327074563566
 40
0.9434719208564277
 40
1.357689075516793
 40
1.752618217438621
 40
1.752618217438621
 40
1.752618217438621
 40
1.752618217438621
 10
-1091.596906901272
 20
799.1408748672712
 30
0.0
 10
-1091.476378290145
 20
799.2539591394803
 30
0.0
 10
-1091.246340183131
 20
799.4697891541857
 30
0.0
 10
-1090.991109026242
 20
799.8469348234242
 30
0.0
 10
-1090.824356462779
 20
800.2383818951383
 30
0.0
 10
-1090.803324587912
 20
800.5088611633746
 30
0.0
 10
-1090.79305932398
 20
800.640877024738
 30
0.0
 11
-1091.596906901272
 21
799.1408748672712
 31
0.0
 11
-1091.249781739173
 21
799.492825073265
 31
0.0
 11
-1090.997503807851
 21
799.8644187739401
 31
0.0
 11
-1090.844389758091
 21
800.2492978964981
 31
0.0
 11
-1090.79305932398
 21
800.640877024738
 31
0.0
  0
SPLINE
  5
212
330
1F
100
AcDbEntity
  8
0
  6
Continuous
 62
     7
100
AcDbSpline
210
0.0
220
0.0
230
1.0
 70
     8
 71
     3
 72
     9
 73
     5
 74
     3
 42
0.0000000001
 43
0.0000000001
 44
0.00000001
 40
0.0
 40
0.0
 40
0.0
 40
0.0
 40
0.01883309540214
 40
0.037767706197752
 40
0.037767706197752
 40
0.037767706197752
 40
0.037767706197752
 10
-1095.234359590777
 20
795.921642550067
 30
0.0
 10
-1095.229722945334
 20
795.9258924754317
 30
0.0
 10
-1095.220424661696
 20
795.934415234389
 30
0.0
 10
-1095.212663898337
 20
795.9443585727151
 30
0.0
 10
-1095.208773086623
 20
795.9493436051719
 30
0.0
 11
-1095.234359590777
 21
795.921642550067
 31
0.0
 11
-1095.220831970953
 21
795.9347455643893
 31
0.0
 11
-1095.208773086623
 21
795.9493436051719
 31
0.0
  0
SPLINE
  5
213
330
1F
100
AcDbEntity
  8
0
  6
Continuous
 62
     7
100
AcDbSpline
210
0.0
220
0.0
230
1.0
 70
     8
 71
     3
 72
    13
 73
     9
 74
     7
 42
0.0000000001
 43
0.0000000001
 44
0.00000001
 40
0.0
 40
0.0
 40
0.0
 40
0.0
 40
0.9797775373414754
 40
1.950146324076576
 40
2.883596409190413
 40
3.755264676591739
 40
4.54521564754533
 40
5.241385816675154
 40
5.241385816675154
 40
5.241385816675154
 40
5.241385816675154
 10
-1141.079663174532
 20
759.3741321330795
 30
0.0
 10
-1140.75302521122
 20
759.3619923316237
 30
0.0
 10
-1140.102885971261
 20
759.3378293065675
 30
0.0
 10
-1139.143120836879
 20
759.4215123264696
 30
0.0
 10
-1138.231148828092
 20
759.5881759471342
 30
0.0
 10
-1137.403948656086
 20
759.844416331133
 30
0.0
 10
-1136.679844301693
 20
760.164244415159
 30
0.0
 10
-1136.282869071826
 20
760.4628590377615
 30
0.0
 10
-1136.096906901272
 20
760.6027443988637
 30
0.0
 11
-1141.079663174532
 21
759.3741321330795
 31
0.0
 11
-1140.10001685805
 21
759.3580972560028
 31
0.0
 11
-1139.132937586127
 21
759.4379299816592
 31
0.0
 11
-1138.215589802011
 21
759.6105628417288
 31
0.0
 11
-1137.383226319901
 21
759.8693612227984
 31
0.0
 11
-1136.667834871924
 21
760.2043800471533
 31
0.0
 11
-1136.096906901272
 21
760.6027443988637
 31
0.0
  0
SPLINE
  5
214
330
1F
100
AcDbEntity
  8
0
  6
Continuous
 62
     7
100
AcDbSpline
210
0.0
220
0.0
230
1.0
 70
     8
 71
     3
 72
     9
 73
     5
 74
     3
 42
0.0000000001
 43
0.0000000001
 44
0.00000001
 40
0.0
 40
0.0
 40
0.0
 40
0.0
 40
0.0188330720010833
 40
0.0377676879308136
 40
0.0377676879308136
 40
0.0377676879308136
 40
0.0377676879308136
 10
-1135.184355444208
 20
761.3239312598561
 30
0.0
 10
-1135.179718942792
 20
761.3281813305836
 30
0.0
 10
-1135.170420940928
 20
761.3367043875185
 30
0.0
 10
-1135.162660496253
 20
761.3466479665431
 30
0.0
 10
-1135.158769841373
 20
761.3516331234354
 30
0.0
 11
-1135.184355444208
 21
761.3239312598561
 31
0.0
 11
-1135.170828265062
 21
761.3370346954881
 31
0.0
 11
-1135.158769841373
 21
761.3516331234354
 31
0.0
  0
SPLINE
  5
215
330
1F
100
AcDbEntity
  8
0
  6
Continuous
 62
     7
100
AcDbSpline
210
0.0
220
0.0
230
1.0
 70
     8
 71
     3
 72
     9
 73
     5
 74
     3
 42
0.0000000001
 43
0.0000000001
 44
0.00000001
 40
0.0
 40
0.0
 40
0.0
 40
0.0
 40
0.0038592630952553
 40
0.0077140275212975
 40
0.0077140275212975
 40
0.0077140275212975
 40
0.0077140275212975
 10
-1135.203425333165
 20
761.3096374030397
 30
0.0
 10
-1135.202348244317
 20
761.3103409825405
 30
0.0
 10
-1135.200195322163
 20
761.3117473213927
 30
0.0
 10
-1135.19809140603
 20
761.3132259688128
 30
0.0
 10
-1135.197040061445
 20
761.3139648613637
 30
0.0
 11
-1135.203425333165
 21
761.3096374030397
 31
0.0
 11
-1135.20020633242
 21
761.3117662397744
 31
0.0
 11
-1135.197040061445
 21
761.3139648613637
 31
0.0
  0
SPLINE
  5
216
330
1F
100
AcDbEntity
  8
0
  6
Continuous
 62
     7
100
AcDbSpline
210
0.0
220
0.0
230
1.0
 70
     8
 71
     3
 72
    11
 73
     7
 74
     5
 42
0.0000000001
 43
0.0000000001
 44
0.00000001
 40
0.0
 40
0.0
 40
0.0
 40
0.0
 40
0.4943308709169216
 40
0.943468569956831
 40
1.357684379429072
 40
1.75261211512555
 40
1.75261211512555
 40
1.75261211512555
 40
1.75261211512555
 10
-550.331029535997
 20
642.8908748672709
 30
0.0
 10
-550.2105013591477
 20
643.0039586988285
 30
0.0
 10
-549.9804640433704
 20
643.2197879078093
 30
0.0
 10
-549.7252333615522
 20
643.5969319624809
 30
0.0
 10
-549.55848051883
 20
643.9883772808273
 30
0.0
 10
-549.5374476877199
 20
644.2588555338026
 30
0.0
 10
-549.527181958709
 20
644.3908708784722
 30
0.0
 11
-550.331029535997
 21
642.8908748672709
 31
0.0
 11
-549.9839055499358
 21
643.2428236536624
 31
0.0
 11
-549.7316280333486
 21
643.6144158055217
 31
0.0
 11
-549.5785135961913
 21
643.9992933262355
 31
0.0
 11
-549.527181958709
 21
644.3908708784722
 31
0.0
  0
SPLINE
  5
217
330
1F
100
AcDbEntity
  8
0
  6
Continuous
 62
     7
100
AcDbSpline
210
0.0
220
0.0
230
1.0
 70
     8
 71
     3
 72
    13
 73
     9
 74
     7
 42
0.0000000001
 43
0.0000000001
 44
0.00000001
 40
0.0
 40
0.0
 40
0.0
 40
0.0
 40
0.9797774700094655
 40
1.950146180769829
 40
2.883596187597375
 40
3.755264380572146
 40
4.545215286262762
 40
5.241385402837157
 40
5.241385402837157
 40
5.241385402837157
 40
5.241385402837157
 10
-599.8137853956259
 20
603.124132105851
 30
0.0
 10
-599.4871474543181
 20
603.1119923181661
 30
0.0
 10
-598.8370082612523
 20
603.0878293206348
 30
0.0
 10
-597.8772432035046
 20
603.1715123639071
 30
0.0
 10
-596.9652712745107
 20
603.338175995403
 30
0.0
 10
-596.1380711776305
 20
603.5944163760021
 30
0.0
 10
-595.4139668885159
 20
603.9142444465849
 30
0.0
 10
-595.0169916917496
 20
604.2128590474255
 30
0.0
 10
-594.831029535997
 20
604.352744398863
 30
0.0
 11
-599.8137853956259
 21
603.124132105851
 31
0.0
 11
-598.8341391458536
 21
603.1080972673711
 31
0.0
 11
-597.867059952196
 21
603.1879300176515
 31
0.0
 11
-596.9497122496479
 21
603.3605628878589
 31
0.0
 11
-596.117348844297
 21
603.619361265127
 31
0.0
 11
-595.4019574608031
 21
603.9543800732919
 31
0.0
 11
-594.831029535997
 21
604.352744398863
 31
0.0
  0
SPLINE
  5
218
330
1F
100
AcDbEntity
  8
0
  6
Continuous
 62
     7
100
AcDbSpline
210
0.0
220
0.0
230
1.0
 70
     8
 71
     3
 72
     9
 73
     5
 74
     3
 42
0.0000000001
 43
0.0000000001
 44
0.00000001
 40
0.0
 40
0.0
 40
0.0
 40
0.0
 40
0.0188365009406335
 40
0.0377745796392038
 40
0.0377745796392038
 40
0.0377745796392038
 40
0.0377745796392038
 10
-593.918481125831
 20
605.073928621184
 30
0.0
 10
-593.9138436976646
 20
605.0781793821008
 30
0.0
 10
-593.9045438335258
 20
605.0867038265974
 30
0.0
 10
-593.8967820827536
 20
605.096649317162
 30
0.0
 10
-593.8928907714969
 20
605.101635434408
 30
0.0
 11
-593.918481125831
 21
605.073928621184
 31
0.0
 11
-593.9049513044213
 21
605.0870342573878
 31
0.0
 11
-593.8928907714969
 21
605.101635434408
 31
0.0
  0
SPLINE
  5
219
330
1F
100
AcDbEntity
  8
0
  6
Continuous
 62
     7
100
AcDbSpline
210
0.0
220
0.0
230
1.0
 70
     8
 71
     3
 72
     9
 73
     5
 74
     3
 42
0.0000000001
 43
0.0000000001
 44
0.00000001
 40
0.0
 40
0.0
 40
0.0
 40
0.0
 40
0.0028924865063803
 40
0.005785392534848
 40
0.005785392534848
 40
0.005785392534848
 40
0.005785392534848
 10
-593.937545589474
 20
605.059638937641
 30
0.0
 10
-593.9363362337672
 20
605.0604320171883
 30
0.0
 10
-593.9339173469502
 20
605.0620182913096
 30
0.0
 10
-593.9363391497278
 20
605.0604362169247
 30
0.0
 10
-593.937550138924
 20
605.059645122371
 30
0.0
 11
-593.937545589474
 21
605.059638937641
 31
0.0
 11
-593.9351275192495
 21
605.0612262040266
 31
0.0
 11
-593.937550138924
 21
605.059645122371
 31
0.0
  0
SPLINE
  5
21A
330
1F
100
AcDbEntity
  8
0
  6
Continuous
 62
     7
100
AcDbSpline
210
0.0
220
0.0
230
1.0
 70
     8
 71
     3
 72
    11
 73
     7
 74
     5
 42
0.0000000001
 43
0.0000000001
 44
0.00000001
 40
0.0
 40
0.0
 40
0.0
 40
0.0
 40
0.4943317983242064
 40
0.9434702620793494
 40
1.357686750838954
 40
1.752615196644455
 40
1.752615196644455
 40
1.752615196644455
 40
1.752615196644455
 10
-660.331029535997
 20
547.6280804509829
 30
0.0
 10
-660.210501139848
 20
547.7411645050586
 30
0.0
 10
-659.9804634245155
 20
547.9569941209106
 30
0.0
 10
-659.7252325027973
 20
548.3341389908987
 30
0.0
 10
-659.5584798010933
 20
548.7255851946529
 30
0.0
 10
-659.537447452862
 20
548.9960639603106
 30
0.0
 10
-659.527181958704
 20
549.1280795658979
 30
0.0
 11
-660.331029535997
 21
547.6280804509829
 31
0.0
 11
-659.9839049560655
 21
547.9800299542385
 31
0.0
 11
-659.7316272300466
 21
548.351622888212
 31
0.0
 11
-659.5785129885144
 21
548.736501217818
 31
0.0
 11
-659.527181958704
 21
549.1280795658979
 31
0.0
  0
SPLINE
  5
21B
330
1F
100
AcDbEntity
  8
0
  6
Continuous
 62
     7
100
AcDbSpline
210
0.0
220
0.0
230
1.0
 70
     8
 71
     3
 72
    13
 73
     9
 74
     7
 42
0.0000000001
 43
0.0000000001
 44
0.00000001
 40
0.0
 40
0.0
 40
0.0
 40
0.0
 40
0.9797779178049758
 40
1.950147133846008
 40
2.883597661327837
 40
3.755266349283263
 40
4.545217689010635
 40
5.241388155115198
 40
5.241388155115198
 40
5.241388155115198
 40
5.241388155115198
 10
-709.8137881465291
 20
507.8613378706441
 30
0.0
 10
-709.4871500588821
 20
507.8491979913736
 30
0.0
 10
-708.8370105539454
 20
507.8250348107847
 30
0.0
 10
-707.8772449865324
 20
507.9087176986309
 30
0.0
 10
-706.9652725268662
 20
508.0753812580947
 30
0.0
 10
-706.1380719303556
 20
508.3316216613011
 30
0.0
 10
-705.4139672071021
 20
508.6514498212945
 30
0.0
 10
-705.0169917901927
 20
508.9500645668627
 30
0.0
 10
-704.831029535997
 20
509.089949982575
 30
0.0
 11
-709.8137881465291
 21
507.8613378706441
 31
0.0
 11
-708.8341414531028
 21
507.8453027754707
 31
0.0
 11
-707.8670617389271
 21
507.925135361987
 31
0.0
 11
-706.9497134938978
 21
508.0977681647731
 31
0.0
 11
-706.1173495780536
 21
508.3565665673231
 31
0.0
 11
-705.4019577657114
 21
508.6915854831634
 31
0.0
 11
-704.831029535997
 21
509.089949982575
 31
0.0
  0
SPLINE
  5
21C
330
1F
100
AcDbEntity
  8
0
  6
Continuous
 62
     7
100
AcDbSpline
210
0.0
220
0.0
230
1.0
 70
     8
 71
     3
 72
     9
 73
     5
 74
     3
 42
0.0000000001
 43
0.0000000001
 44
0.00000001
 40
0.0
 40
0.0
 40
0.0
 40
0.0
 40
0.0188364887691972
 40
0.037774570040171
 40
0.037774570040171
 40
0.037774570040171
 40
0.037774570040171
 10
-703.9184789837241
 20
509.811136059988
 30
0.0
 10
-703.913841629995
 20
509.8153868959935
 30
0.0
 10
-703.9045419114863
 20
509.8239114944142
 30
0.0
 10
-703.8967803254037
 20
509.8338571092897
 30
0.0
 10
-703.8928890951961
 20
509.838843290803
 30
0.0
 11
-703.9184789837241
 21
509.811136059988
 31
0.0
 11
-703.9049493900657
 21
509.8242419138171
 31
0.0
 11
-703.8928890951961
 21
509.838843290803
 31
0.0
  0
SPLINE
  5
21D
330
1F
100
AcDbEntity
  8
0
  6
Continuous
 62
     7
100
AcDbSpline
210
0.0
220
0.0
230
1.0
 70
     8
 71
     3
 72
     9
 73
     5
 74
     3
 42
0.0000000001
 43
0.0000000001
 44
0.00000001
 40
0.0
 40
0.0
 40
0.0
 40
0.0
 40
0.0028924842804446
 40
0.0057854101951246
 40
0.0057854101951246
 40
0.0057854101951246
 40
0.0057854101951246
 10
-703.937543211463
 20
509.796846055749
 30
0.0
 10
-703.9363338669025
 20
509.797639146767
 30
0.0
 10
-703.9339149931349
 20
509.799225449895
 30
0.0
 10
-703.9363369340088
 20
509.7976435643119
 30
0.0
 10
-703.937547996886
 20
509.7968525611429
 30
0.0
 11
-703.937543211463
 21
509.796846055749
 31
0.0
 11
-703.9351251966854
 21
509.798433402544
 31
0.0
 11
-703.937547996886
 21
509.7968525611429
 31
0.0
  0
SPLINE
  5
21E
330
1F
100
AcDbEntity
  8
0
  6
Continuous
 62
     7
100
AcDbSpline
210
0.0
220
0.0
230
1.0
 70
     8
 71
     3
 72
    23
 73
    19
 74
    17
 42
0.0000000001
 43
0.0000000001
 44
0.00000001
 40
0.0
 40
0.0
 40
0.0
 40
0.0
 40
0.0825168828628643
 40
0.1634708186285712
 40
0.2047840077116696
 40
0.245115318724773
 40
0.2905319329077041
 40
0.3269959756002858
 40
0.3609562937746463
 40
0.4001380578760387
 40
0.4339401920064229
 40
0.4734471560426537
 40
0.519440889586163
 40
0.5639797599293065
 40
0.5851519219871064
 40
0.6092791173762125
 40
0.6303754432623572
 40
0.6546587009441903
 40
0.6546587009441903
 40
0.6546587009441903
 40
0.6546587009441903
 10
-885.6819330176068
 20
1426.156266942914
 30
0.0
 10
-885.6555828667395
 20
1426.148244661348
 30
0.0
 10
-885.6033816615582
 20
1426.132352047748
 30
0.0
 10
-885.5353130801218
 20
1426.123755904792
 30
0.0
 10
-885.4811076426734
 20
1426.122353624883
 30
0.0
 10
-885.4387649698858
 20
1426.124611201352
 30
0.0
 10
-885.3983643576805
 20
1426.130329356953
 30
0.0
 10
-885.3607515319684
 20
1426.139275703995
 30
0.0
 10
-885.3260428834116
 20
1426.150827009191
 30
0.0
 10
-885.2934451689443
 20
1426.165457770878
 30
0.0
 10
-885.2611313148159
 20
1426.184623113643
 30
0.0
 10
-885.2296682352297
 20
1426.209171022309
 30
0.0
 10
-885.2002601273982
 20
1426.241384271809
 30
0.0
 10
-885.1810644740407
 20
1426.273631298726
 30
0.0
 10
-885.1699496273466
 20
1426.301488386272
 30
0.0
 10
-885.16407279349
 20
1426.322872058398
 30
0.0
 10
-885.1602216718283
 20
1426.345777510998
 30
0.0
 10
-885.1597488480606
 20
1426.360913179111
 30
0.0
 10
-885.159495833368
 20
1426.369012489419
 30
0.0
 11
-885.6819330176068
 21
1426.156266942914
 31
0.0
 11
-885.602338508977
 21
1426.134501140531
 31
0.0
 11
-885.5220843941624
 21
1426.123879616568
 31
0.0
 11
-885.4807828951768
 21
1426.122896878679
 31
0.0
 11
-885.4405102465341
 21
1426.125071371571
 31
0.0
 11
-885.3955530720566
 21
1426.131515074454
 31
0.0
 11
-885.3600901318562
 21
1426.14000072598
 31
0.0
 11
-885.3278832980695
 21
1426.150772126443
 31
0.0
 11
-885.292174624497
 21
1426.166899781877
 31
0.0
 11
-885.263136853642
 21
1426.184202733519
 31
0.0
 11
-885.2320649189496
 21
1426.208602222896
 31
0.0
 11
-885.2012000193087
 21
1426.242701804938
 31
0.0
 11
-885.1785018028881
 21
1426.281022842799
 31
0.0
 11
-885.1706636312388
 21
1426.30069067215
 31
0.0
 11
-885.1642306662684
 21
1426.323944457198
 31
0.0
 11
-885.1608394541527
 21
1426.344766432279
 31
0.0
 11
-885.159495833368
 21
1426.369012489419
 31
0.0
  0
SPLINE
  5
21F
330
1F
100
AcDbEntity
  8
0
  6
Continuous
 62
     7
100
AcDbSpline
210
0.0
220
0.0
230
1.0
 70
     8
 71
     3
 72
    23
 73
    19
 74
    17
 42
0.0000000001
 43
0.0000000001
 44
0.00000001
 40
0.0
 40
0.0
 40
0.0
 40
0.0
 40
0.0409935011364571
 40
0.081790643350765
 40
0.1263533084723015
 40
0.1635647682743677
 40
0.2013019381505831
 40
0.2452086795568788
 40
0.2868474991732344
 40
0.3270898254849465
 40
0.4030711378891233
 40
0.4733020479775504
 40
0.5192957815502639
 40
0.5638346518641972
 40
0.5879875507401975
 40
0.6091340105224075
 40
0.6302303364005513
 40
0.6545135940903806
 40
0.6545135940903806
 40
0.6545135940903806
 40
0.6545135940903806
 10
-879.1370586491294
 20
1426.156266942914
 30
0.0
 10
-879.150057939693
 20
1426.152039256711
 30
0.0
 10
-879.1759942542024
 20
1426.143604134928
 30
0.0
 10
-879.2170371081079
 20
1426.133949127638
 30
0.0
 10
-879.257367632935
 20
1426.127211561262
 30
0.0
 10
-879.297056682845
 20
1426.123453615271
 30
0.0
 10
-879.3366898617941
 20
1426.122350513769
 30
0.0
 10
-879.3777852386629
 20
1426.124378594748
 30
0.0
 10
-879.4193818254676
 20
1426.130106575441
 30
0.0
 10
-879.4706863548041
 20
1426.142055567826
 30
0.0
 10
-879.5290106968963
 20
1426.164871068185
 30
0.0
 10
-879.5823880742894
 20
1426.201565879811
 30
0.0
 10
-879.6187291159983
 20
1426.241384061277
 30
0.0
 10
-879.6384387091368
 20
1426.27448861084
 30
0.0
 10
-879.6493600291396
 20
1426.302442084844
 30
0.0
 10
-879.655082037337
 20
1426.323853302455
 30
0.0
 10
-879.6587705797469
 20
1426.345777815698
 30
0.0
 10
-879.6592430225403
 20
1426.360913285322
 30
0.0
 10
-879.659495833368
 20
1426.369012489419
 30
0.0
 11
-879.1370586491294
 21
1426.156266942914
 31
0.0
 11
-879.176215135212
 21
1426.144132828481
 31
0.0
 11
-879.2158960816732
 21
1426.134654996408
 31
0.0
 11
-879.2598606962174
 21
1426.127378748012
 31
0.0
 11
-879.2969072725739
 21
1426.123879616568
 31
0.0
 11
-879.3346305735678
 21
1426.122856605136
 31
0.0
 11
-879.3784814202022
 21
1426.125071371571
 31
0.0
 11
-879.4197230787386
 21
1426.13080869675
 31
0.0
 11
-879.4589015348799
 21
1426.14000072598
 31
0.0
 11
-879.5294236268306
 21
1426.168281362139
 31
0.0
 11
-879.5869267477865
 21
1426.208602222896
 31
0.0
 11
-879.6177916474448
 21
1426.242701804961
 31
0.0
 11
-879.640489863848
 21
1426.281022842799
 31
0.0
 11
-879.6492698114625
 21
1426.303523399326
 31
0.0
 11
-879.6547610004677
 21
1426.323944457198
 31
0.0
 11
-879.6581522125825
 21
1426.344766432271
 31
0.0
 11
-879.659495833368
 21
1426.369012489419
 31
0.0
  0
ARC
  5
220
330
1F
100
AcDbEntity
  8
1
  6
Continuous
 62
     1
100
AcDbCircle
 10
-1775.500001999869
 20
1858.092584656611
 30
0.0
 40
2.5
100
AcDbArc
 50
0.0
 51
90.0
  0
ARC
  5
221
330
1F
100
AcDbEntity
  8
1
  6
Continuous
 62
     1
100
AcDbCircle
 10
-2270.500001999871
 20
1858.092584656611
 30
0.0
 40
2.5
100
AcDbArc
 50
90.0
 51
180.0
  0
ARC
  5
222
330
1F
100
AcDbEntity
  8
1
  6
Continuous
 62
     1
100
AcDbCircle
 10
-763.5542425869019
 20
851.0474851503582
 30
0.0
 40
4.999999999999977
100
AcDbArc
 50
130.8933946491304
 51
180.0
  0
ARC
  5
223
330
1F
100
AcDbEntity
  8
1
  6
Continuous
 62
     7
100
AcDbCircle
 10
-771.8275109404418
 20
738.5823493540277
 30
0.0
 40
4.999999999999847
100
AcDbArc
 50
253.8978862480139
 51
310.893394649133
  0
ARC
  5
224
330
1F
100
AcDbEntity
  8
1
  6
Continuous
 62
     7
100
AcDbCircle
 10
-1285.221476150843
 20
886.7864213613052
 30
0.0
 40
5.0
100
AcDbArc
 50
180.0
 51
253.897886248016
  0
ARC
  5
225
330
1F
100
AcDbEntity
  8
1
  6
Continuous
 62
     7
100
AcDbCircle
 10
-1279.986317437818
 20
1006.518717745023
 30
0.0
 40
4.999999999999954
100
AcDbArc
 50
130.893394649134
 51
253.8978862480042
  0
ARC
  5
226
330
1F
100
AcDbEntity
  8
1
  6
Continuous
 62
     7
100
AcDbCircle
 10
-771.8275109404419
 20
859.8259058838534
 30
0.0
 40
4.999999999999956
100
AcDbArc
 50
253.8978862480143
 51
310.8933946491303
  0
ARC
  5
227
330
1F
100
AcDbEntity
  8
1
  6
Continuous
 62
     7
100
AcDbCircle
 10
-525.8413871291019
 20
1072.856138082938
 30
0.0
 40
4.999999999999805
100
AcDbArc
 50
310.8933946491321
 51
73.89788624801542
  0
ARC
  5
228
330
1F
100
AcDbEntity
  8
1
  6
Continuous
 62
     7
100
AcDbCircle
 10
-1034.000193626478
 20
1219.548949944108
 30
0.0
 40
4.999999999999379
100
AcDbArc
 50
73.89788624801379
 51
130.893394649134
  0
ARC
  5
229
330
1F
100
AcDbEntity
  8
1
  6
Continuous
 62
     7
100
AcDbCircle
 10
-899.9138039172317
 20
1860.592584656611
 30
0.0
 40
5.0
100
AcDbArc
 50
0.0
 51
90.0
  0
ARC
  5
22A
330
1F
100
AcDbEntity
  8
1
  6
Continuous
 62
     7
100
AcDbCircle
 10
-1489.913807917233
 20
1860.592584656611
 30
0.0
 40
5.0
100
AcDbArc
 50
90.0
 51
180.0
  0
ARC
  5
22B
330
1F
100
AcDbEntity
  8
1
  6
Continuous
 62
     7
100
AcDbCircle
 10
-1772.999997999871
 20
1860.592584656611
 30
0.0
 40
5.0
100
AcDbArc
 50
0.0
 51
90.0
  0
ARC
  5
22C
330
1F
100
AcDbEntity
  8
1
  6
Continuous
 62
     7
100
AcDbCircle
 10
-2273.000001999871
 20
1860.592584656611
 30
0.0
 40
5.0
100
AcDbArc
 50
90.0
 51
180.0
  0
ARC
  5
22D
330
1F
100
AcDbEntity
  8
1
  6
Continuous
 62
     7
100
AcDbCircle
 10
-2273.000001999871
 20
551.9996519172319
 30
0.0
 40
5.0
100
AcDbArc
 50
180.0000000000013
 51
270.0
  0
ARC
  5
22E
330
1F
100
AcDbEntity
  8
1
  6
Continuous
 62
     7
100
AcDbCircle
 10
-1772.999997999871
 20
551.9996519172319
 30
0.0
 40
5.0
100
AcDbArc
 50
270.0
 51
0.0
  0
ARC
  5
22F
330
1F
100
AcDbEntity
  8
1
  6
Continuous
 62
     7
100
AcDbCircle
 10
-1772.999997999871
 20
1141.999655917232
 30
0.0
 40
5.0
100
AcDbArc
 50
0.0
 51
90.0
  0
ARC
  5
230
330
1F
100
AcDbEntity
  8
1
  6
Continuous
 62
     7
100
AcDbCircle
 10
-2273.000001999871
 20
1141.999655917232
 30
0.0
 40
5.0
100
AcDbArc
 50
90.0
 51
180.0
  0
ENDSEC
  0
SECTION
  2
OBJECTS
  0
DICTIONARY
  5
C
330
0
100
AcDbDictionary
281
     1
  3
ACAD_GROUP
350
D
  3
ACAD_LAYOUT
350
1A
  3
ACAD_MATERIAL
350
3B
  3
ACAD_MLEADERSTYLE
350
233
  3
ACAD_MLINESTYLE
350
17
  3
ACAD_PLOTSETTINGS
350
19
  3
ACAD_PLOTSTYLENAME
350
E
  3
ACAD_VISUALSTYLE
350
2A
  3
AcDbVariableDictionary
350
231
  0
DICTIONARY
  5
D
102
{ACAD_REACTORS
330
C
102
}
330
C
100
AcDbDictionary
281
     1
  0
DICTIONARY
  5
1A
102
{ACAD_REACTORS
330
C
102
}
330
C
100
AcDbDictionary
281
     1
  3
Layout1
350
1E
  3
Layout2
350
26
  3
Model
350
22
  0
DICTIONARY
  5
3B
102
{ACAD_REACTORS
330
C
102
}
330
C
100
AcDbDictionary
281
     1
  3
ByBlock
350
3D
  3
ByLayer
350
3C
  3
Global
350
3E
  0
DICTIONARY
  5
233
102
{ACAD_REACTORS
330
C
102
}
330
C
100
AcDbDictionary
281
     1
  0
DICTIONARY
  5
17
102
{ACAD_REACTORS
330
C
102
}
330
C
100
AcDbDictionary
281
     1
  3
Standard
350
18
  0
DICTIONARY
  5
19
102
{ACAD_REACTORS
330
C
102
}
330
C
100
AcDbDictionary
281
     1
  0
ACDBDICTIONARYWDFLT
  5
E
102
{ACAD_REACTORS
330
C
102
}
330
C
100
AcDbDictionary
281
     1
  3
Normal
350
F
100
AcDbDictionaryWithDefault
340
F
  0
DICTIONARY
  5
2A
102
{ACAD_REACTORS
330
C
102
}
330
C
100
AcDbDictionary
281
     1
  3
2dWireframe
350
2F
  3
3D Hidden
350
31
  3
3dWireframe
350
30
  3
Basic
350
32
  3
Brighten
350
36
  3
ColorChange
350
3A
  3
Conceptual
350
34
  3
Dim
350
35
  3
Facepattern
350
39
  3
Flat
350
2B
  3
FlatWithEdges
350
2C
  3
Gouraud
350
2D
  3
GouraudWithEdges
350
2E
  3
Linepattern
350
38
  3
Realistic
350
33
  3
Thicken
350
37
  0
DICTIONARY
  5
231
102
{ACAD_REACTORS
330
C
102
}
330
C
100
AcDbDictionary
281
     1
  3
DIMASSOC
350
234
  3
HIDETEXT
350
235
  0
LAYOUT
  5
1E
102
{ACAD_REACTORS
330
1A
102
}
330
1A
100
AcDbPlotSettings
  1

  2
none_device
  4

  6

 40
0.0
 41
0.0
 42
0.0
 43
0.0
 44
0.0
 45
0.0
 46
0.0
 47
0.0
 48
0.0
 49
0.0
140
0.0
141
0.0
142
1.0
143
1.0
 70
   688
 72
     0
 73
     0
 74
     5
  7

 75
    16
147
1.0
148
0.0
149
0.0
100
AcDbLayout
  1
Layout1
 70
     1
 71
     1
 10
0.0
 20
0.0
 11
12.0
 21
9.0
 12
0.0
 22
0.0
 32
0.0
 14
1.00000000000000E+20
 24
1.00000000000000E+20
 34
1.00000000000000E+20
 15
-1.00000000000000E+20
 25
-1.00000000000000E+20
 35
-1.00000000000000E+20
146
0.0
 13
0.0
 23
0.0
 33
0.0
 16
1.0
 26
0.0
 36
0.0
 17
0.0
 27
1.0
 37
0.0
 76
     0
330
1B
  0
LAYOUT
  5
26
102
{ACAD_REACTORS
330
1A
102
}
330
1A
100
AcDbPlotSettings
  1

  2
none_device
  4

  6

 40
0.0
 41
0.0
 42
0.0
 43
0.0
 44
0.0
 45
0.0
 46
0.0
 47
0.0
 48
0.0
 49
0.0
140
0.0
141
0.0
142
1.0
143
1.0
 70
   688
 72
     0
 73
     0
 74
     5
  7

 75
    16
147
1.0
148
0.0
149
0.0
100
AcDbLayout
  1
Layout2
 70
     1
 71
     2
 10
0.0
 20
0.0
 11
0.0
 21
0.0
 12
0.0
 22
0.0
 32
0.0
 14
0.0
 24
0.0
 34
0.0
 15
0.0
 25
0.0
 35
0.0
146
0.0
 13
0.0
 23
0.0
 33
0.0
 16
1.0
 26
0.0
 36
0.0
 17
0.0
 27
1.0
 37
0.0
 76
     0
330
23
  0
LAYOUT
  5
22
102
{ACAD_REACTORS
330
1A
102
}
330
1A
100
AcDbPlotSettings
  1

  2
none_device
  4

  6

 40
0.0
 41
0.0
 42
0.0
 43
0.0
 44
0.0
 45
0.0
 46
0.0
 47
0.0
 48
0.0
 49
0.0
140
0.0
141
0.0
142
1.0
143
1.0
 70
  1712
 72
     0
 73
     0
 74
     0
  7

 75
     0
147
1.0
148
0.0
149
0.0
100
AcDbLayout
  1
Model
 70
     1
 71
     0
 10
0.0
 20
0.0
 11
12.0
 21
9.0
 12
0.0
 22
0.0
 32
0.0
 14
-2278.000001999871
 24
495.942229685638
 34
0.0
 15
-503.5309003625141
 25
1865.592584656611
 35
0.0
146
0.0
 13
0.0
 23
0.0
 33
0.0
 16
1.0
 26
0.0
 36
0.0
 17
0.0
 27
1.0
 37
0.0
 76
     0
330
1F
331
29
  0
MATERIAL
  5
3D
102
{ACAD_REACTORS
330
3B
102
}
102
{ACAD_XDICTIONARY
360
258
102
}
330
3B
100
AcDbMaterial
  1
ByBlock
  0
MATERIAL
  5
3C
102
{ACAD_REACTORS
330
3B
102
}
102
{ACAD_XDICTIONARY
360
256
102
}
330
3B
100
AcDbMaterial
  1
ByLayer
  0
MATERIAL
  5
3E
102
{ACAD_REACTORS
330
3B
102
}
102
{ACAD_XDICTIONARY
360
25A
102
}
330
3B
100
AcDbMaterial
  1
Global
  0
MLINESTYLE
  5
18
102
{ACAD_REACTORS
330
17
102
}
330
17
100
AcDbMlineStyle
  2
Standard
 70
     0
  3

 62
   256
 51
90.0
 52
90.0
 71
     2
 49
0.5
 62
   256
  6
BYLAYER
 49
-0.5
 62
   256
  6
BYLAYER
  0
ACDBPLACEHOLDER
  5
F
102
{ACAD_REACTORS
330
E
102
}
330
E
  0
VISUALSTYLE
  5
2F
102
{ACAD_REACTORS
330
2A
102
}
102
{ACAD_XDICTIONARY
360
23E
102
}
330
2A
100
AcDbVisualStyle
  2
2dWireframe
 70
     4
 71
     0
 72
     2
 73
     0
 90
        0
 40
-0.6
 41
-30.0
 62
     5
 63
     7
 74
     1
 91
        4
 64
     7
 65
   257
 75
     1
175
     1
 42
1.0
 92
        0
 66
   257
 43
1.0
 76
     1
 77
     6
 78
     2
 67
     7
 79
     5
170
     0
171
     0
290
     0
174
     0
 93
        1
 44
0.0
173
     0
291
     0
 45
0.0
1001
ACAD
1000
AcDbSavedByObjectVersion
1070
     0
  0
VISUALSTYLE
  5
31
102
{ACAD_REACTORS
330
2A
102
}
102
{ACAD_XDICTIONARY
360
242
102
}
330
2A
100
AcDbVisualStyle
  2
3D Hidden
 70
     6
 71
     1
 72
     2
 73
     2
 90
        0
 40
-0.6
 41
-30.0
 62
     5
 63
     7
 74
     2
 91
        2
 64
     7
 65
   257
 75
     2
175
     1
 42
40.0
 92
        0
 66
   257
 43
1.0
 76
     1
 77
     6
 78
     2
 67
     7
 79
     3
170
     0
171
     0
290
     0
174
     0
 93
        1
 44
0.0
173
     0
291
     0
 45
0.0
1001
ACAD
1000
AcDbSavedByObjectVersion
1070
     0
  0
VISUALSTYLE
  5
30
102
{ACAD_REACTORS
330
2A
102
}
102
{ACAD_XDICTIONARY
360
240
102
}
330
2A
100
AcDbVisualStyle
  2
3dWireframe
 70
     5
 71
     0
 72
     2
 73
     0
 90
        0
 40
-0.6
 41
-30.0
 62
     5
 63
     7
 74
     1
 91
        4
 64
     7
 65
   257
 75
     1
175
     1
 42
1.0
 92
        0
 66
   257
 43
1.0
 76
     1
 77
     6
 78
     2
 67
     7
 79
     5
170
     0
171
     0
290
     0
174
     0
 93
        1
 44
0.0
173
     0
291
     0
 45
0.0
1001
ACAD
1000
AcDbSavedByObjectVersion
1070
     0
  0
VISUALSTYLE
  5
32
102
{ACAD_REACTORS
330
2A
102
}
102
{ACAD_XDICTIONARY
360
244
102
}
330
2A
100
AcDbVisualStyle
  2
Basic
 70
     7
 71
     1
 72
     0
 73
     1
 90
        0
 40
-0.6
 41
-30.0
 62
     5
 63
     7
 74
     0
 91
        4
 64
     7
 65
   257
 75
     1
175
     1
 42
1.0
 92
        8
 66
     7
 43
1.0
 76
     1
 77
     6
 78
     2
 67
     7
 79
     5
170
     0
171
     0
290
     0
174
     0
 93
        1
 44
0.0
173
     0
291
     1
 45
0.0
1001
ACAD
1000
AcDbSavedByObjectVersion
1070
     0
  0
VISUALSTYLE
  5
36
102
{ACAD_REACTORS
330
2A
102
}
102
{ACAD_XDICTIONARY
360
24C
102
}
330
2A
100
AcDbVisualStyle
  2
Brighten
 70
    12
 71
     2
 72
     2
 73
     0
 90
        0
 40
-0.6
 41
-30.0
 62
     5
 63
     7
 74
     1
 91
        4
 64
     7
 65
   257
 75
     1
175
     1
 42
1.0
 92
        8
 66
     7
 43
1.0
 76
     1
 77
     6
 78
     2
 67
     7
 79
     5
170
     0
171
     0
290
     0
174
     0
 93
        1
 44
50.0
173
     0
291
     1
 45
0.0
1001
ACAD
1000
AcDbSavedByObjectVersion
1070
     0
  0
VISUALSTYLE
  5
3A
102
{ACAD_REACTORS
330
2A
102
}
102
{ACAD_XDICTIONARY
360
254
102
}
330
2A
100
AcDbVisualStyle
  2
ColorChange
 70
    16
 71
     2
 72
     2
 73
     3
 90
        0
 40
-0.6
 41
-30.0
 62
     5
 63
     8
 74
     1
 91
        4
 64
     7
 65
   257
 75
     1
175
     1
 42
1.0
 92
        8
 66
     8
 43
1.0
 76
     1
 77
     6
 78
     2
 67
     7
 79
     5
170
     0
171
     0
290
     0
174
     0
 93
        1
 44
0.0
173
     0
291
     1
 45
0.0
1001
ACAD
1000
AcDbSavedByObjectVersion
1070
     0
  0
VISUALSTYLE
  5
34
102
{ACAD_REACTORS
330
2A
102
}
102
{ACAD_XDICTIONARY
360
248
102
}
330
2A
100
AcDbVisualStyle
  2
Conceptual
 70
     9
 71
     3
 72
     2
 73
     0
 90
        0
 40
-0.6
 41
-30.0
 62
     5
 63
     7
 74
     2
 91
        2
 64
     7
 65
   257
 75
     1
175
     1
 42
40.0
 92
        8
 66
     7
 43
1.0
 76
     1
 77
     6
 78
     2
 67
     7
 79
     3
170
     0
171
     0
290
     0
174
     0
 93
        1
 44
0.0
173
     0
291
     0
 45
0.0
1001
ACAD
1000
AcDbSavedByObjectVersion
1070
     0
  0
VISUALSTYLE
  5
35
102
{ACAD_REACTORS
330
2A
102
}
102
{ACAD_XDICTIONARY
360
24A
102
}
330
2A
100
AcDbVisualStyle
  2
Dim
 70
    11
 71
     2
 72
     2
 73
     0
 90
        0
 40
-0.6
 41
-30.0
 62
     5
 63
     7
 74
     1
 91
        4
 64
     7
 65
   257
 75
     1
175
     1
 42
1.0
 92
        8
 66
     7
 43
1.0
 76
     1
 77
     6
 78
     2
 67
     7
 79
     5
170
     0
171
     0
290
     0
174
     0
 93
        1
 44
-50.0
173
     0
291
     1
 45
0.0
1001
ACAD
1000
AcDbSavedByObjectVersion
1070
     0
  0
VISUALSTYLE
  5
39
102
{ACAD_REACTORS
330
2A
102
}
102
{ACAD_XDICTIONARY
360
252
102
}
330
2A
100
AcDbVisualStyle
  2
Facepattern
 70
    15
 71
     2
 72
     2
 73
     0
 90
        0
 40
-0.6
 41
-30.0
 62
     5
 63
     7
 74
     1
 91
        4
 64
     7
 65
   257
 75
     1
175
     1
 42
1.0
 92
        8
 66
     7
 43
1.0
 76
     1
 77
     6
 78
     2
 67
     7
 79
     5
170
     0
171
     0
290
     0
174
     0
 93
        1
 44
0.0
173
     0
291
     1
 45
0.0
1001
ACAD
1000
AcDbSavedByObjectVersion
1070
     0
  0
VISUALSTYLE
  5
2B
102
{ACAD_REACTORS
330
2A
102
}
102
{ACAD_XDICTIONARY
360
236
102
}
330
2A
100
AcDbVisualStyle
  2
Flat
 70
     0
 71
     2
 72
     1
 73
     1
 90
        2
 40
-0.6
 41
30.0
 62
     5
 63
     7
 74
     0
 91
        4
 64
     7
 65
   257
 75
     1
175
     1
 42
1.0
 92
        8
 66
     7
 43
1.0
 76
     1
 77
     6
 78
     2
 67
     7
 79
     5
170
     0
171
     0
290
     0
174
     0
 93
       13
 44
0.0
173
     0
291
     1
 45
0.0
1001
ACAD
1000
AcDbSavedByObjectVersion
1070
     0
  0
VISUALSTYLE
  5
2C
102
{ACAD_REACTORS
330
2A
102
}
102
{ACAD_XDICTIONARY
360
238
102
}
330
2A
100
AcDbVisualStyle
  2
FlatWithEdges
 70
     1
 71
     2
 72
     1
 73
     1
 90
        2
 40
-0.6
 41
30.0
 62
     5
 63
     7
 74
     1
 91
        4
 64
     7
 65
   257
 75
     1
175
     1
 42
1.0
 92
        0
 66
   257
 43
1.0
 76
     1
 77
     6
 78
     2
 67
     7
 79
     5
170
     0
171
     0
290
     0
174
     0
 93
       13
 44
0.0
173
     0
291
     1
 45
0.0
1001
ACAD
1000
AcDbSavedByObjectVersion
1070
     0
  0
VISUALSTYLE
  5
2D
102
{ACAD_REACTORS
330
2A
102
}
102
{ACAD_XDICTIONARY
360
23A
102
}
330
2A
100
AcDbVisualStyle
  2
Gouraud
 70
     2
 71
     2
 72
     2
 73
     1
 90
        2
 40
-0.6
 41
30.0
 62
     5
 63
     7
 74
     0
 91
        4
 64
     7
 65
   257
 75
     1
175
     1
 42
1.0
 92
        0
 66
     7
 43
1.0
 76
     1
 77
     6
 78
     2
 67
     7
 79
     5
170
     0
171
     0
290
     0
174
     0
 93
       13
 44
0.0
173
     0
291
     1
 45
0.0
1001
ACAD
1000
AcDbSavedByObjectVersion
1070
     0
  0
VISUALSTYLE
  5
2E
102
{ACAD_REACTORS
330
2A
102
}
102
{ACAD_XDICTIONARY
360
23C
102
}
330
2A
100
AcDbVisualStyle
  2
GouraudWithEdges
 70
     3
 71
     2
 72
     2
 73
     1
 90
        2
 40
-0.6
 41
30.0
 62
     5
 63
     7
 74
     1
 91
        4
 64
     7
 65
   257
 75
     1
175
     1
 42
1.0
 92
        0
 66
   257
 43
1.0
 76
     1
 77
     6
 78
     2
 67
     7
 79
     5
170
     0
171
     0
290
     0
174
     0
 93
       13
 44
0.0
173
     0
291
     1
 45
0.0
1001
ACAD
1000
AcDbSavedByObjectVersion
1070
     0
  0
VISUALSTYLE
  5
38
102
{ACAD_REACTORS
330
2A
102
}
102
{ACAD_XDICTIONARY
360
250
102
}
330
2A
100
AcDbVisualStyle
  2
Linepattern
 70
    14
 71
     2
 72
     2
 73
     0
 90
        0
 40
-0.6
 41
-30.0
 62
     5
 63
     7
 74
     1
 91
        4
 64
     7
 65
   257
 75
     7
175
     7
 42
1.0
 92
        8
 66
     7
 43
1.0
 76
     1
 77
     6
 78
     2
 67
     7
 79
     5
170
     0
171
     0
290
     0
174
     0
 93
        1
 44
0.0
173
     0
291
     1
 45
0.0
1001
ACAD
1000
AcDbSavedByObjectVersion
1070
     0
  0
VISUALSTYLE
  5
33
102
{ACAD_REACTORS
330
2A
102
}
102
{ACAD_XDICTIONARY
360
246
102
}
330
2A
100
AcDbVisualStyle
  2
Realistic
 70
     8
 71
     2
 72
     2
 73
     0
 90
        0
 40
-0.6
 41
-30.0
 62
     5
 63
     7
 74
     1
 91
        0
 64
     7
 65
   257
 75
     1
175
     1
 42
1.0
 92
        8
 66
     8
 43
1.0
 76
     1
 77
     6
 78
     2
 67
     7
 79
     5
170
     0
171
     0
290
     0
174
     0
 93
       13
 44
0.0
173
     0
291
     0
 45
0.0
1001
ACAD
1000
AcDbSavedByObjectVersion
1070
     0
  0
VISUALSTYLE
  5
37
102
{ACAD_REACTORS
330
2A
102
}
102
{ACAD_XDICTIONARY
360
24E
102
}
330
2A
100
AcDbVisualStyle
  2
Thicken
 70
    13
 71
     2
 72
     2
 73
     0
 90
        0
 40
-0.6
 41
-30.0
 62
     5
 63
     7
 74
     1
 91
        4
 64
     7
 65
   257
 75
     1
175
     1
 42
1.0
 92
       12
 66
     7
 43
1.0
 76
     1
 77
     6
 78
     2
 67
     7
 79
     5
170
     0
171
     0
290
     0
174
     0
 93
        1
 44
0.0
173
     0
291
     1
 45
0.0
1001
ACAD
1000
AcDbSavedByObjectVersion
1070
     0
  0
DICTIONARYVAR
  5
234
102
{ACAD_REACTORS
330
231
102
}
330
231
100
DictionaryVariables
280
     0
  1
2
  0
DICTIONARYVAR
  5
235
102
{ACAD_REACTORS
330
231
102
}
330
231
100
DictionaryVariables
280
     0
  1
1
  0
DICTIONARY
  5
258
330
3D
100
AcDbDictionary
280
     1
281
     1
  3
ACAD_XREC_ROUNDTRIP
360
259
  0
DICTIONARY
  5
256
330
3C
100
AcDbDictionary
280
     1
281
     1
  3
ACAD_XREC_ROUNDTRIP
360
257
  0
DICTIONARY
  5
25A
330
3E
100
AcDbDictionary
280
     1
281
     1
  3
ACAD_XREC_ROUNDTRIP
360
25B
  0
DICTIONARY
  5
23E
330
2F
100
AcDbDictionary
280
     1
281
     1
  3
ACAD_XREC_ROUNDTRIP
360
23F
  0
DICTIONARY
  5
242
330
31
100
AcDbDictionary
280
     1
281
     1
  3
ACAD_XREC_ROUNDTRIP
360
243
  0
DICTIONARY
  5
240
330
30
100
AcDbDictionary
280
     1
281
     1
  3
ACAD_XREC_ROUNDTRIP
360
241
  0
DICTIONARY
  5
244
330
32
100
AcDbDictionary
280
     1
281
     1
  3
ACAD_XREC_ROUNDTRIP
360
245
  0
DICTIONARY
  5
24C
330
36
100
AcDbDictionary
280
     1
281
     1
  3
ACAD_XREC_ROUNDTRIP
360
24D
  0
DICTIONARY
  5
254
330
3A
100
AcDbDictionary
280
     1
281
     1
  3
ACAD_XREC_ROUNDTRIP
360
255
  0
DICTIONARY
  5
248
330
34
100
AcDbDictionary
280
     1
281
     1
  3
ACAD_XREC_ROUNDTRIP
360
249
  0
DICTIONARY
  5
24A
330
35
100
AcDbDictionary
280
     1
281
     1
  3
ACAD_XREC_ROUNDTRIP
360
24B
  0
DICTIONARY
  5
252
330
39
100
AcDbDictionary
280
     1
281
     1
  3
ACAD_XREC_ROUNDTRIP
360
253
  0
DICTIONARY
  5
236
330
2B
100
AcDbDictionary
280
     1
281
     1
  3
ACAD_XREC_ROUNDTRIP
360
237
  0
DICTIONARY
  5
238
330
2C
100
AcDbDictionary
280
     1
281
     1
  3
ACAD_XREC_ROUNDTRIP
360
239
  0
DICTIONARY
  5
23A
330
2D
100
AcDbDictionary
280
     1
281
     1
  3
ACAD_XREC_ROUNDTRIP
360
23B
  0
DICTIONARY
  5
23C
330
2E
100
AcDbDictionary
280
     1
281
     1
  3
ACAD_XREC_ROUNDTRIP
360
23D
  0
DICTIONARY
  5
250
330
38
100
AcDbDictionary
280
     1
281
     1
  3
ACAD_XREC_ROUNDTRIP
360
251
  0
DICTIONARY
  5
246
330
33
100
AcDbDictionary
280
     1
281
     1
  3
ACAD_XREC_ROUNDTRIP
360
247
  0
DICTIONARY
  5
24E
330
37
100
AcDbDictionary
280
     1
281
     1
  3
ACAD_XREC_ROUNDTRIP
360
24F
  0
XRECORD
  5
259
102
{ACAD_REACTORS
330
258
102
}
330
258
100
AcDbXrecord
280
     1
102
MATERIAL
148
0.0
149
0.0
149
0.0
 93
        0
 94
      127
282
     0
 72
     1
 77
     1
171
     1
175
     1
179
     1
273
     0
  0
XRECORD
  5
257
102
{ACAD_REACTORS
330
256
102
}
330
256
100
AcDbXrecord
280
     1
102
MATERIAL
148
0.0
149
0.0
149
0.0
 93
        0
 94
      127
282
     0
 72
     1
 77
     1
171
     1
175
     1
179
     1
273
     0
  0
XRECORD
  5
25B
102
{ACAD_REACTORS
330
25A
102
}
330
25A
100
AcDbXrecord
280
     1
102
MATERIAL
148
0.0
149
0.0
149
0.0
 93
        0
 94
      127
282
     0
 72
     1
 77
     1
171
     1
175
     1
179
     1
273
     0
  0
XRECORD
  5
23F
102
{ACAD_REACTORS
330
23E
102
}
330
23E
100
AcDbXrecord
280
     1
102
RTVSPropertyOp0
 70
     1
102
RTVSPropertyOp1
 70
     1
102
RTVSPropertyOp2
 70
     1
102
RTVSPropertyOp3
 70
     1
102
RTVSPropertyOp4
 70
     1
102
RTVSPropertyOp5
 70
     1
102
RTVSPropertyOp6
 70
     1
102
RTVSPropertyOp7
 70
     1
102
RTVSPropertyOp8
 70
     1
102
RTVSPropertyOp9
 70
     1
102
RTVSPropertyOp10
 70
     1
102
RTVSPropertyOp11
 70
     1
102
RTVSPropertyOp12
 70
     1
102
RTVSPropertyOp13
 70
     1
102
RTVSPropertyOp14
 70
     1
102
RTVSPropertyOp15
 70
     1
102
RTVSPropertyOp16
 70
     1
102
RTVSPropertyOp17
 70
     1
102
RTVSPropertyOp18
 70
     1
102
RTVSPropertyOp19
 70
     1
102
RTVSPropertyOp20
 70
     1
102
RTVSPropertyOp21
 70
     1
102
RTVSPropertyOp22
 70
     1
102
RTVSPropertyOp23
 70
     1
102
RTVSPropertyOp24
 70
     1
102
RTVSPropertyOp25
 70
     1
102
RTVSPropertyOp26
 70
     1
102
RTVSPropertyOp27
 70
     1
  0
XRECORD
  5
243
102
{ACAD_REACTORS
330
242
102
}
330
242
100
AcDbXrecord
280
     1
102
RTVSPropertyOp0
 70
     1
102
RTVSPropertyOp1
 70
     1
102
RTVSPropertyOp2
 70
     1
102
RTVSPropertyOp3
 70
     1
102
RTVSPropertyOp4
 70
     1
102
RTVSPropertyOp5
 70
     1
102
RTVSPropertyOp6
 70
     1
102
RTVSPropertyOp7
 70
     1
102
RTVSPropertyOp8
 70
     1
102
RTVSPropertyOp9
 70
     1
102
RTVSPropertyOp10
 70
     1
102
RTVSPropertyOp11
 70
     1
102
RTVSPropertyOp12
 70
     1
102
RTVSPropertyOp13
 70
     1
102
RTVSPropertyOp14
 70
     1
102
RTVSPropertyOp15
 70
     1
102
RTVSPropertyOp16
 70
     1
102
RTVSPropertyOp17
 70
     1
102
RTVSPropertyOp18
 70
     1
102
RTVSPropertyOp19
 70
     1
102
RTVSPropertyOp20
 70
     1
102
RTVSPropertyOp21
 70
     1
102
RTVSPropertyOp22
 70
     1
102
RTVSPropertyOp23
 70
     1
102
RTVSPropertyOp24
 70
     1
102
RTVSPropertyOp25
 70
     1
102
RTVSPropertyOp26
 70
     1
102
RTVSPropertyOp27
 70
     1
  0
XRECORD
  5
241
102
{ACAD_REACTORS
330
240
102
}
330
240
100
AcDbXrecord
280
     1
102
RTVSPropertyOp0
 70
     1
102
RTVSPropertyOp1
 70
     1
102
RTVSPropertyOp2
 70
     1
102
RTVSPropertyOp3
 70
     1
102
RTVSPropertyOp4
 70
     1
102
RTVSPropertyOp5
 70
     1
102
RTVSPropertyOp6
 70
     1
102
RTVSPropertyOp7
 70
     1
102
RTVSPropertyOp8
 70
     1
102
RTVSPropertyOp9
 70
     1
102
RTVSPropertyOp10
 70
     1
102
RTVSPropertyOp11
 70
     1
102
RTVSPropertyOp12
 70
     1
102
RTVSPropertyOp13
 70
     1
102
RTVSPropertyOp14
 70
     1
102
RTVSPropertyOp15
 70
     1
102
RTVSPropertyOp16
 70
     1
102
RTVSPropertyOp17
 70
     1
102
RTVSPropertyOp18
 70
     1
102
RTVSPropertyOp19
 70
     1
102
RTVSPropertyOp20
 70
     1
102
RTVSPropertyOp21
 70
     1
102
RTVSPropertyOp22
 70
     1
102
RTVSPropertyOp23
 70
     1
102
RTVSPropertyOp24
 70
     1
102
RTVSPropertyOp25
 70
     1
102
RTVSPropertyOp26
 70
     1
102
RTVSPropertyOp27
 70
     1
  0
XRECORD
  5
245
102
{ACAD_REACTORS
330
244
102
}
330
244
100
AcDbXrecord
280
     1
102
RTVSPropertyOp0
 70
     1
102
RTVSPropertyOp1
 70
     1
102
RTVSPropertyOp2
 70
     1
102
RTVSPropertyOp3
 70
     1
102
RTVSPropertyOp4
 70
     1
102
RTVSPropertyOp5
 70
     1
102
RTVSPropertyOp6
 70
     1
102
RTVSPropertyOp7
 70
     1
102
RTVSPropertyOp8
 70
     1
102
RTVSPropertyOp9
 70
     1
102
RTVSPropertyOp10
 70
     1
102
RTVSPropertyOp11
 70
     1
102
RTVSPropertyOp12
 70
     1
102
RTVSPropertyOp13
 70
     1
102
RTVSPropertyOp14
 70
     1
102
RTVSPropertyOp15
 70
     1
102
RTVSPropertyOp16
 70
     1
102
RTVSPropertyOp17
 70
     1
102
RTVSPropertyOp18
 70
     1
102
RTVSPropertyOp19
 70
     1
102
RTVSPropertyOp20
 70
     1
102
RTVSPropertyOp21
 70
     1
102
RTVSPropertyOp22
 70
     1
102
RTVSPropertyOp23
 70
     1
102
RTVSPropertyOp24
 70
     1
102
RTVSPropertyOp25
 70
     1
102
RTVSPropertyOp26
 70
     1
102
RTVSPropertyOp27
 70
     1
  0
XRECORD
  5
24D
102
{ACAD_REACTORS
330
24C
102
}
330
24C
100
AcDbXrecord
280
     1
102
RTVSPropertyOp0
 70
     1
102
RTVSPropertyOp1
 70
     1
102
RTVSPropertyOp2
 70
     1
102
RTVSPropertyOp3
 70
     1
102
RTVSPropertyOp4
 70
     1
102
RTVSPropertyOp5
 70
     1
102
RTVSPropertyOp6
 70
     1
102
RTVSPropertyOp7
 70
     1
102
RTVSPropertyOp8
 70
     1
102
RTVSPropertyOp9
 70
     1
102
RTVSPropertyOp10
 70
     1
102
RTVSPropertyOp11
 70
     1
102
RTVSPropertyOp12
 70
     1
102
RTVSPropertyOp13
 70
     1
102
RTVSPropertyOp14
 70
     1
102
RTVSPropertyOp15
 70
     1
102
RTVSPropertyOp16
 70
     1
102
RTVSPropertyOp17
 70
     1
102
RTVSPropertyOp18
 70
     1
102
RTVSPropertyOp19
 70
     1
102
RTVSPropertyOp20
 70
     1
102
RTVSPropertyOp21
 70
     1
102
RTVSPropertyOp22
 70
     1
102
RTVSPropertyOp23
 70
     1
102
RTVSPropertyOp24
 70
     1
102
RTVSPropertyOp25
 70
     1
102
RTVSPropertyOp26
 70
     1
102
RTVSPropertyOp27
 70
     1
  0
XRECORD
  5
255
102
{ACAD_REACTORS
330
254
102
}
330
254
100
AcDbXrecord
280
     1
102
RTVSPropertyOp0
 70
     1
102
RTVSPropertyOp1
 70
     1
102
RTVSPropertyOp2
 70
     1
102
RTVSPropertyOp3
 70
     1
102
RTVSPropertyOp4
 70
     1
102
RTVSPropertyOp5
 70
     1
102
RTVSPropertyOp6
 70
     1
102
RTVSPropertyOp7
 70
     1
102
RTVSPropertyOp8
 70
     1
102
RTVSPropertyOp9
 70
     1
102
RTVSPropertyOp10
 70
     1
102
RTVSPropertyOp11
 70
     1
102
RTVSPropertyOp12
 70
     1
102
RTVSPropertyOp13
 70
     1
102
RTVSPropertyOp14
 70
     1
102
RTVSPropertyOp15
 70
     1
102
RTVSPropertyOp16
 70
     1
102
RTVSPropertyOp17
 70
     1
102
RTVSPropertyOp18
 70
     1
102
RTVSPropertyOp19
 70
     1
102
RTVSPropertyOp20
 70
     1
102
RTVSPropertyOp21
 70
     1
102
RTVSPropertyOp22
 70
     1
102
RTVSPropertyOp23
 70
     1
102
RTVSPropertyOp24
 70
     1
102
RTVSPropertyOp25
 70
     1
102
RTVSPropertyOp26
 70
     1
102
RTVSPropertyOp27
 70
     1
  0
XRECORD
  5
249
102
{ACAD_REACTORS
330
248
102
}
330
248
100
AcDbXrecord
280
     1
102
RTVSPropertyOp0
 70
     1
102
RTVSPropertyOp1
 70
     1
102
RTVSPropertyOp2
 70
     1
102
RTVSPropertyOp3
 70
     1
102
RTVSPropertyOp4
 70
     1
102
RTVSPropertyOp5
 70
     1
102
RTVSPropertyOp6
 70
     1
102
RTVSPropertyOp7
 70
     1
102
RTVSPropertyOp8
 70
     1
102
RTVSPropertyOp9
 70
     1
102
RTVSPropertyOp10
 70
     1
102
RTVSPropertyOp11
 70
     1
102
RTVSPropertyOp12
 70
     1
102
RTVSPropertyOp13
 70
     1
102
RTVSPropertyOp14
 70
     1
102
RTVSPropertyOp15
 70
     1
102
RTVSPropertyOp16
 70
     1
102
RTVSPropertyOp17
 70
     1
102
RTVSPropertyOp18
 70
     1
102
RTVSPropertyOp19
 70
     1
102
RTVSPropertyOp20
 70
     1
102
RTVSPropertyOp21
 70
     1
102
RTVSPropertyOp22
 70
     1
102
RTVSPropertyOp23
 70
     1
102
RTVSPropertyOp24
 70
     1
102
RTVSPropertyOp25
 70
     1
102
RTVSPropertyOp26
 70
     1
102
RTVSPropertyOp27
 70
     1
  0
XRECORD
  5
24B
102
{ACAD_REACTORS
330
24A
102
}
330
24A
100
AcDbXrecord
280
     1
102
RTVSPropertyOp0
 70
     1
102
RTVSPropertyOp1
 70
     1
102
RTVSPropertyOp2
 70
     1
102
RTVSPropertyOp3
 70
     1
102
RTVSPropertyOp4
 70
     1
102
RTVSPropertyOp5
 70
     1
102
RTVSPropertyOp6
 70
     1
102
RTVSPropertyOp7
 70
     1
102
RTVSPropertyOp8
 70
     1
102
RTVSPropertyOp9
 70
     1
102
RTVSPropertyOp10
 70
     1
102
RTVSPropertyOp11
 70
     1
102
RTVSPropertyOp12
 70
     1
102
RTVSPropertyOp13
 70
     1
102
RTVSPropertyOp14
 70
     1
102
RTVSPropertyOp15
 70
     1
102
RTVSPropertyOp16
 70
     1
102
RTVSPropertyOp17
 70
     1
102
RTVSPropertyOp18
 70
     1
102
RTVSPropertyOp19
 70
     1
102
RTVSPropertyOp20
 70
     1
102
RTVSPropertyOp21
 70
     1
102
RTVSPropertyOp22
 70
     1
102
RTVSPropertyOp23
 70
     1
102
RTVSPropertyOp24
 70
     1
102
RTVSPropertyOp25
 70
     1
102
RTVSPropertyOp26
 70
     1
102
RTVSPropertyOp27
 70
     1
  0
XRECORD
  5
253
102
{ACAD_REACTORS
330
252
102
}
330
252
100
AcDbXrecord
280
     1
102
RTVSPropertyOp0
 70
     1
102
RTVSPropertyOp1
 70
     1
102
RTVSPropertyOp2
 70
     1
102
RTVSPropertyOp3
 70
     1
102
RTVSPropertyOp4
 70
     1
102
RTVSPropertyOp5
 70
     1
102
RTVSPropertyOp6
 70
     1
102
RTVSPropertyOp7
 70
     1
102
RTVSPropertyOp8
 70
     1
102
RTVSPropertyOp9
 70
     1
102
RTVSPropertyOp10
 70
     1
102
RTVSPropertyOp11
 70
     1
102
RTVSPropertyOp12
 70
     1
102
RTVSPropertyOp13
 70
     1
102
RTVSPropertyOp14
 70
     1
102
RTVSPropertyOp15
 70
     1
102
RTVSPropertyOp16
 70
     1
102
RTVSPropertyOp17
 70
     1
102
RTVSPropertyOp18
 70
     1
102
RTVSPropertyOp19
 70
     1
102
RTVSPropertyOp20
 70
     1
102
RTVSPropertyOp21
 70
     1
102
RTVSPropertyOp22
 70
     1
102
RTVSPropertyOp23
 70
     1
102
RTVSPropertyOp24
 70
     1
102
RTVSPropertyOp25
 70
     1
102
RTVSPropertyOp26
 70
     1
102
RTVSPropertyOp27
 70
     1
  0
XRECORD
  5
237
102
{ACAD_REACTORS
330
236
102
}
330
236
100
AcDbXrecord
280
     1
102
RTVSPropertyOp0
 70
     1
102
RTVSPropertyOp1
 70
     1
102
RTVSPropertyOp2
 70
     1
102
RTVSPropertyOp3
 70
     1
102
RTVSPropertyOp4
 70
     1
102
RTVSPropertyOp5
 70
     1
102
RTVSPropertyOp6
 70
     1
102
RTVSPropertyOp7
 70
     1
102
RTVSPropertyOp8
 70
     1
102
RTVSPropertyOp9
 70
     1
102
RTVSPropertyOp10
 70
     1
102
RTVSPropertyOp11
 70
     1
102
RTVSPropertyOp12
 70
     1
102
RTVSPropertyOp13
 70
     1
102
RTVSPropertyOp14
 70
     1
102
RTVSPropertyOp15
 70
     1
102
RTVSPropertyOp16
 70
     1
102
RTVSPropertyOp17
 70
     1
102
RTVSPropertyOp18
 70
     1
102
RTVSPropertyOp19
 70
     1
102
RTVSPropertyOp20
 70
     1
102
RTVSPropertyOp21
 70
     1
102
RTVSPropertyOp22
 70
     1
102
RTVSPropertyOp23
 70
     1
102
RTVSPropertyOp24
 70
     1
102
RTVSPropertyOp25
 70
     1
102
RTVSPropertyOp26
 70
     1
102
RTVSPropertyOp27
 70
     1
  0
XRECORD
  5
239
102
{ACAD_REACTORS
330
238
102
}
330
238
100
AcDbXrecord
280
     1
102
RTVSPropertyOp0
 70
     1
102
RTVSPropertyOp1
 70
     1
102
RTVSPropertyOp2
 70
     1
102
RTVSPropertyOp3
 70
     1
102
RTVSPropertyOp4
 70
     1
102
RTVSPropertyOp5
 70
     1
102
RTVSPropertyOp6
 70
     1
102
RTVSPropertyOp7
 70
     1
102
RTVSPropertyOp8
 70
     1
102
RTVSPropertyOp9
 70
     1
102
RTVSPropertyOp10
 70
     1
102
RTVSPropertyOp11
 70
     1
102
RTVSPropertyOp12
 70
     1
102
RTVSPropertyOp13
 70
     1
102
RTVSPropertyOp14
 70
     1
102
RTVSPropertyOp15
 70
     1
102
RTVSPropertyOp16
 70
     1
102
RTVSPropertyOp17
 70
     1
102
RTVSPropertyOp18
 70
     1
102
RTVSPropertyOp19
 70
     1
102
RTVSPropertyOp20
 70
     1
102
RTVSPropertyOp21
 70
     1
102
RTVSPropertyOp22
 70
     1
102
RTVSPropertyOp23
 70
     1
102
RTVSPropertyOp24
 70
     1
102
RTVSPropertyOp25
 70
     1
102
RTVSPropertyOp26
 70
     1
102
RTVSPropertyOp27
 70
     1
  0
XRECORD
  5
23B
102
{ACAD_REACTORS
330
23A
102
}
330
23A
100
AcDbXrecord
280
     1
102
RTVSPropertyOp0
 70
     1
102
RTVSPropertyOp1
 70
     1
102
RTVSPropertyOp2
 70
     1
102
RTVSPropertyOp3
 70
     1
102
RTVSPropertyOp4
 70
     1
102
RTVSPropertyOp5
 70
     1
102
RTVSPropertyOp6
 70
     1
102
RTVSPropertyOp7
 70
     1
102
RTVSPropertyOp8
 70
     1
102
RTVSPropertyOp9
 70
     1
102
RTVSPropertyOp10
 70
     1
102
RTVSPropertyOp11
 70
     1
102
RTVSPropertyOp12
 70
     1
102
RTVSPropertyOp13
 70
     1
102
RTVSPropertyOp14
 70
     1
102
RTVSPropertyOp15
 70
     1
102
RTVSPropertyOp16
 70
     1
102
RTVSPropertyOp17
 70
     1
102
RTVSPropertyOp18
 70
     1
102
RTVSPropertyOp19
 70
     1
102
RTVSPropertyOp20
 70
     1
102
RTVSPropertyOp21
 70
     1
102
RTVSPropertyOp22
 70
     1
102
RTVSPropertyOp23
 70
     1
102
RTVSPropertyOp24
 70
     1
102
RTVSPropertyOp25
 70
     1
102
RTVSPropertyOp26
 70
     1
102
RTVSPropertyOp27
 70
     1
  0
XRECORD
  5
23D
102
{ACAD_REACTORS
330
23C
102
}
330
23C
100
AcDbXrecord
280
     1
102
RTVSPropertyOp0
 70
     1
102
RTVSPropertyOp1
 70
     1
102
RTVSPropertyOp2
 70
     1
102
RTVSPropertyOp3
 70
     1
102
RTVSPropertyOp4
 70
     1
102
RTVSPropertyOp5
 70
     1
102
RTVSPropertyOp6
 70
     1
102
RTVSPropertyOp7
 70
     1
102
RTVSPropertyOp8
 70
     1
102
RTVSPropertyOp9
 70
     1
102
RTVSPropertyOp10
 70
     1
102
RTVSPropertyOp11
 70
     1
102
RTVSPropertyOp12
 70
     1
102
RTVSPropertyOp13
 70
     1
102
RTVSPropertyOp14
 70
     1
102
RTVSPropertyOp15
 70
     1
102
RTVSPropertyOp16
 70
     1
102
RTVSPropertyOp17
 70
     1
102
RTVSPropertyOp18
 70
     1
102
RTVSPropertyOp19
 70
     1
102
RTVSPropertyOp20
 70
     1
102
RTVSPropertyOp21
 70
     1
102
RTVSPropertyOp22
 70
     1
102
RTVSPropertyOp23
 70
     1
102
RTVSPropertyOp24
 70
     1
102
RTVSPropertyOp25
 70
     1
102
RTVSPropertyOp26
 70
     1
102
RTVSPropertyOp27
 70
     1
  0
XRECORD
  5
251
102
{ACAD_REACTORS
330
250
102
}
330
250
100
AcDbXrecord
280
     1
102
RTVSPropertyOp0
 70
     1
102
RTVSPropertyOp1
 70
     1
102
RTVSPropertyOp2
 70
     1
102
RTVSPropertyOp3
 70
     1
102
RTVSPropertyOp4
 70
     1
102
RTVSPropertyOp5
 70
     1
102
RTVSPropertyOp6
 70
     1
102
RTVSPropertyOp7
 70
     1
102
RTVSPropertyOp8
 70
     1
102
RTVSPropertyOp9
 70
     1
102
RTVSPropertyOp10
 70
     1
102
RTVSPropertyOp11
 70
     1
102
RTVSPropertyOp12
 70
     1
102
RTVSPropertyOp13
 70
     1
102
RTVSPropertyOp14
 70
     1
102
RTVSPropertyOp15
 70
     1
102
RTVSPropertyOp16
 70
     1
102
RTVSPropertyOp17
 70
     1
102
RTVSPropertyOp18
 70
     1
102
RTVSPropertyOp19
 70
     1
102
RTVSPropertyOp20
 70
     1
102
RTVSPropertyOp21
 70
     1
102
RTVSPropertyOp22
 70
     1
102
RTVSPropertyOp23
 70
     1
102
RTVSPropertyOp24
 70
     1
102
RTVSPropertyOp25
 70
     1
102
RTVSPropertyOp26
 70
     1
102
RTVSPropertyOp27
 70
     1
  0
XRECORD
  5
247
102
{ACAD_REACTORS
330
246
102
}
330
246
100
AcDbXrecord
280
     1
102
RTVSPropertyOp0
 70
     1
102
RTVSPropertyOp1
 70
     1
102
RTVSPropertyOp2
 70
     1
102
RTVSPropertyOp3
 70
     1
102
RTVSPropertyOp4
 70
     1
102
RTVSPropertyOp5
 70
     1
102
RTVSPropertyOp6
 70
     1
102
RTVSPropertyOp7
 70
     1
102
RTVSPropertyOp8
 70
     1
102
RTVSPropertyOp9
 70
     1
102
RTVSPropertyOp10
 70
     1
102
RTVSPropertyOp11
 70
     1
102
RTVSPropertyOp12
 70
     1
102
RTVSPropertyOp13
 70
     1
102
RTVSPropertyOp14
 70
     1
102
RTVSPropertyOp15
 70
     1
102
RTVSPropertyOp16
 70
     1
102
RTVSPropertyOp17
 70
     1
102
RTVSPropertyOp18
 70
     1
102
RTVSPropertyOp19
 70
     1
102
RTVSPropertyOp20
 70
     1
102
RTVSPropertyOp21
 70
     1
102
RTVSPropertyOp22
 70
     1
102
RTVSPropertyOp23
 70
     1
102
RTVSPropertyOp24
 70
     1
102
RTVSPropertyOp25
 70
     1
102
RTVSPropertyOp26
 70
     1
102
RTVSPropertyOp27
 70
     1
  0
XRECORD
  5
24F
102
{ACAD_REACTORS
330
24E
102
}
330
24E
100
AcDbXrecord
280
     1
102
RTVSPropertyOp0
 70
     1
102
RTVSPropertyOp1
 70
     1
102
RTVSPropertyOp2
 70
     1
102
RTVSPropertyOp3
 70
     1
102
RTVSPropertyOp4
 70
     1
102
RTVSPropertyOp5
 70
     1
102
RTVSPropertyOp6
 70
     1
102
RTVSPropertyOp7
 70
     1
102
RTVSPropertyOp8
 70
     1
102
RTVSPropertyOp9
 70
     1
102
RTVSPropertyOp10
 70
     1
102
RTVSPropertyOp11
 70
     1
102
RTVSPropertyOp12
 70
     1
102
RTVSPropertyOp13
 70
     1
102
RTVSPropertyOp14
 70
     1
102
RTVSPropertyOp15
 70
     1
102
RTVSPropertyOp16
 70
     1
102
RTVSPropertyOp17
 70
     1
102
RTVSPropertyOp18
 70
     1
102
RTVSPropertyOp19
 70
     1
102
RTVSPropertyOp20
 70
     1
102
RTVSPropertyOp21
 70
     1
102
RTVSPropertyOp22
 70
     1
102
RTVSPropertyOp23
 70
     1
102
RTVSPropertyOp24
 70
     1
102
RTVSPropertyOp25
 70
     1
102
RTVSPropertyOp26
 70
     1
102
RTVSPropertyOp27
 70
     1
  0
ENDSEC
  0
EOF
