  0
SECTION
  2
HEADER
  9
$ACADVER
  1
AC1015
  9
$ACADMAINTVER
 70
     6
  9
$DWGCODEPAGE
  3
ANSI_1252
  9
$INSBASE
 10
0.0
 20
0.0
 30
0.0
  9
$EXTMIN
 10
-2938.01060500359
 20
-10021.9628551148
 30
0.0
  9
$EXTMAX
 10
11399.14902233814
 20
-6873.776261647086
 30
0.0
  9
$LIMMIN
 10
0.0
 20
0.0
  9
$LIMMAX
 10
12.0
 20
9.0
  9
$ORTHOMODE
 70
     0
  9
$REGENMODE
 70
     1
  9
$FILLMODE
 70
     1
  9
$QTEXTMODE
 70
     0
  9
$MIRRTEXT
 70
     1
  9
$LTSCALE
 40
1.0
  9
$ATTMODE
 70
     1
  9
$TEXTSIZE
 40
0.2
  9
$TRACEWID
 40
0.05
  9
$TEXTSTYLE
  7
Standard
  9
$CLAYER
  8
0
  9
$CELTYPE
  6
ByLayer
  9
$CECOLOR
 62
   256
  9
$CELTSCALE
 40
1.0
  9
$DISPSILH
 70
     0
  9
$DIMSCALE
 40
1.0
  9
$DIMASZ
 40
0.18
  9
$DIMEXO
 40
0.0625
  9
$DIMDLI
 40
0.38
  9
$DIMRND
 40
0.0
  9
$DIMDLE
 40
0.0
  9
$DIMEXE
 40
0.18
  9
$DIMTP
 40
0.0
  9
$DIMTM
 40
0.0
  9
$DIMTXT
 40
0.18
  9
$DIMCEN
 40
0.09
  9
$DIMTSZ
 40
0.0
  9
$DIMTOL
 70
     0
  9
$DIMLIM
 70
     0
  9
$DIMTIH
 70
     1
  9
$DIMTOH
 70
     1
  9
$DIMSE1
 70
     0
  9
$DIMSE2
 70
     0
  9
$DIMTAD
 70
     0
  9
$DIMZIN
 70
     0
  9
$DIMBLK
  1

  9
$DIMASO
 70
     1
  9
$DIMSHO
 70
     1
  9
$DIMPOST
  1

  9
$DIMAPOST
  1

  9
$DIMALT
 70
     0
  9
$DIMALTD
 70
     2
  9
$DIMALTF
 40
25.4
  9
$DIMLFAC
 40
1.0
  9
$DIMTOFL
 70
     0
  9
$DIMTVP
 40
0.0
  9
$DIMTIX
 70
     0
  9
$DIMSOXD
 70
     0
  9
$DIMSAH
 70
     0
  9
$DIMBLK1
  1

  9
$DIMBLK2
  1

  9
$DIMSTYLE
  2
Standard
  9
$DIMCLRD
 70
     0
  9
$DIMCLRE
 70
     0
  9
$DIMCLRT
 70
     0
  9
$DIMTFAC
 40
1.0
  9
$DIMGAP
 40
0.09
  9
$DIMJUST
 70
     0
  9
$DIMSD1
 70
     0
  9
$DIMSD2
 70
     0
  9
$DIMTOLJ
 70
     1
  9
$DIMTZIN
 70
     0
  9
$DIMALTZ
 70
     0
  9
$DIMALTTZ
 70
     0
  9
$DIMUPT
 70
     0
  9
$DIMDEC
 70
     4
  9
$DIMTDEC
 70
     4
  9
$DIMALTU
 70
     2
  9
$DIMALTTD
 70
     2
  9
$DIMTXSTY
  7
Standard
  9
$DIMAUNIT
 70
     0
  9
$DIMADEC
 70
     0
  9
$DIMALTRND
 40
0.0
  9
$DIMAZIN
 70
     0
  9
$DIMDSEP
 70
    46
  9
$DIMATFIT
 70
     3
  9
$DIMFRAC
 70
     0
  9
$DIMLDRBLK
  1

  9
$DIMLUNIT
 70
     2
  9
$DIMLWD
 70
    -2
  9
$DIMLWE
 70
    -2
  9
$DIMTMOVE
 70
     0
  9
$LUNITS
 70
     2
  9
$LUPREC
 70
     4
  9
$SKETCHINC
 40
0.1
  9
$FILLETRAD
 40
0.5
  9
$AUNITS
 70
     0
  9
$AUPREC
 70
     0
  9
$MENU
  1
.
  9
$ELEVATION
 40
0.0
  9
$PELEVATION
 40
0.0
  9
$THICKNESS
 40
0.0
  9
$LIMCHECK
 70
     0
  9
$CHAMFERA
 40
0.5
  9
$CHAMFERB
 40
0.5
  9
$CHAMFERC
 40
1.0
  9
$CHAMFERD
 40
0.0
  9
$SKPOLY
 70
     0
  9
$TDCREATE
 40
2457064.398217118
  9
$TDUCREATE
 40
2457064.356550451
  9
$TDUPDATE
 40
2457064.39821713
  9
$TDUUPDATE
 40
2457064.356550463
  9
$TDINDWG
 40
0.0000000116
  9
$TDUSRTIMER
 40
0.0000000116
  9
$USRTIMER
 70
     1
  9
$ANGBASE
 50
0.0
  9
$ANGDIR
 70
     0
  9
$PDMODE
 70
     0
  9
$PDSIZE
 40
0.0
  9
$PLINEWID
 40
0.0
  9
$SPLFRAME
 70
     0
  9
$SPLINETYPE
 70
     6
  9
$SPLINESEGS
 70
     8
  9
$HANDSEED
  5
412
  9
$SURFTAB1
 70
     6
  9
$SURFTAB2
 70
     6
  9
$SURFTYPE
 70
     6
  9
$SURFU
 70
     6
  9
$SURFV
 70
     6
  9
$UCSBASE
  2

  9
$UCSNAME
  2

  9
$UCSORG
 10
0.0
 20
0.0
 30
0.0
  9
$UCSXDIR
 10
1.0
 20
0.0
 30
0.0
  9
$UCSYDIR
 10
0.0
 20
1.0
 30
0.0
  9
$UCSORTHOREF
  2

  9
$UCSORTHOVIEW
 70
     0
  9
$UCSORGTOP
 10
0.0
 20
0.0
 30
0.0
  9
$UCSORGBOTTOM
 10
0.0
 20
0.0
 30
0.0
  9
$UCSORGLEFT
 10
0.0
 20
0.0
 30
0.0
  9
$UCSORGRIGHT
 10
0.0
 20
0.0
 30
0.0
  9
$UCSORGFRONT
 10
0.0
 20
0.0
 30
0.0
  9
$UCSORGBACK
 10
0.0
 20
0.0
 30
0.0
  9
$PUCSBASE
  2

  9
$PUCSNAME
  2

  9
$PUCSORG
 10
0.0
 20
0.0
 30
0.0
  9
$PUCSXDIR
 10
1.0
 20
0.0
 30
0.0
  9
$PUCSYDIR
 10
0.0
 20
1.0
 30
0.0
  9
$PUCSORTHOREF
  2

  9
$PUCSORTHOVIEW
 70
     0
  9
$PUCSORGTOP
 10
0.0
 20
0.0
 30
0.0
  9
$PUCSORGBOTTOM
 10
0.0
 20
0.0
 30
0.0
  9
$PUCSORGLEFT
 10
0.0
 20
0.0
 30
0.0
  9
$PUCSORGRIGHT
 10
0.0
 20
0.0
 30
0.0
  9
$PUCSORGFRONT
 10
0.0
 20
0.0
 30
0.0
  9
$PUCSORGBACK
 10
0.0
 20
0.0
 30
0.0
  9
$USERI1
 70
     0
  9
$USERI2
 70
     0
  9
$USERI3
 70
     0
  9
$USERI4
 70
     0
  9
$USERI5
 70
     0
  9
$USERR1
 40
17.0
  9
$USERR2
 40
0.0
  9
$USERR3
 40
0.0
  9
$USERR4
 40
0.0
  9
$USERR5
 40
0.0
  9
$WORLDVIEW
 70
     1
  9
$SHADEDGE
 70
     3
  9
$SHADEDIF
 70
    70
  9
$TILEMODE
 70
     1
  9
$MAXACTVP
 70
    64
  9
$PINSBASE
 10
0.0
 20
0.0
 30
0.0
  9
$PLIMCHECK
 70
     0
  9
$PEXTMIN
 10
1.00000000000000E+20
 20
1.00000000000000E+20
 30
1.00000000000000E+20
  9
$PEXTMAX
 10
-1.00000000000000E+20
 20
-1.00000000000000E+20
 30
-1.00000000000000E+20
  9
$PLIMMIN
 10
0.0
 20
0.0
  9
$PLIMMAX
 10
12.0
 20
9.0
  9
$UNITMODE
 70
     0
  9
$VISRETAIN
 70
     1
  9
$PLINEGEN
 70
     0
  9
$PSLTSCALE
 70
     1
  9
$TREEDEPTH
 70
  3020
  9
$CMLSTYLE
  2
Standard
  9
$CMLJUST
 70
     0
  9
$CMLSCALE
 40
1.0
  9
$PROXYGRAPHICS
 70
     1
  9
$MEASUREMENT
 70
     1
  9
$CELWEIGHT
370
    -1
  9
$ENDCAPS
280
     0
  9
$JOINSTYLE
280
     0
  9
$LWDISPLAY
290
     0
  9
$INSUNITS
 70
     1
  9
$HYPERLINKBASE
  1

  9
$STYLESHEET
  1

  9
$XEDIT
290
     1
  9
$CEPSNTYPE
380
     0
  9
$PSTYLEMODE
290
     1
  9
$FINGERPRINTGUID
  2
{78AA63FF-E1CF-4517-8D74-F3B1E90A1797}
  9
$VERSIONGUID
  2
{FAEB1C32-E019-11D5-929B-00C0DF256EC4}
  9
$EXTNAMES
290
     1
  9
$PSVPSCALE
 40
0.0
  9
$OLESTARTUP
290
     0
  0
ENDSEC
  0
SECTION
  2
CLASSES
  0
CLASS
  1
ACDBDICTIONARYWDFLT
  2
AcDbDictionaryWithDefault
  3
ObjectDBX Classes
 90
        0
280
     0
281
     0
  0
CLASS
  1
VISUALSTYLE
  2
AcDbVisualStyle
  3
ObjectDBX Classes
 90
     4095
280
     0
281
     0
  0
CLASS
  1
MATERIAL
  2
AcDbMaterial
  3
ObjectDBX Classes
 90
     1153
280
     0
281
     0
  0
CLASS
  1

  2
exOdDbSpline
  3

 90
        0
280
     0
281
     1
  0
CLASS
  1
DICTIONARYVAR
  2
AcDbDictionaryVar
  3
ObjectDBX Classes
 90
        0
280
     0
281
     0
  0
CLASS
  1
ACDBPLACEHOLDER
  2
AcDbPlaceHolder
  3
ObjectDBX Classes
 90
        0
280
     0
281
     0
  0
CLASS
  1
LAYOUT
  2
AcDbLayout
  3
ObjectDBX Classes
 90
        0
280
     0
281
     0
  0
ENDSEC
  0
SECTION
  2
TABLES
  0
TABLE
  2
VPORT
  5
8
330
0
100
AcDbSymbolTable
 70
     1
  0
VPORT
  5
29
330
8
100
AcDbSymbolTableRecord
100
AcDbViewportTableRecord
  2
*Active
 70
     0
 10
0.0
 20
0.0
 11
1.0
 21
1.0
 12
4230.569208667275
 22
-8447.869558380942
 13
0.0
 23
0.0
 14
0.5
 24
0.5
 15
0.5
 25
0.5
 16
0.0
 26
0.0
 36
1.0
 17
0.0
 27
0.0
 37
0.0
 40
9840.323487958229
 41
1.60267857142857
 42
50.0
 43
0.0
 44
0.0
 50
0.0
 51
0.0
 71
     0
 72
   100
 73
     1
 74
     3
 75
     0
 76
     0
 77
     0
 78
     0
281
     0
 65
     1
110
0.0
120
0.0
130
0.0
111
1.0
121
0.0
131
0.0
112
0.0
122
1.0
132
0.0
 79
     0
146
0.0
  0
ENDTAB
  0
TABLE
  2
LTYPE
  5
5
330
0
100
AcDbSymbolTable
 70
     8
  0
LTYPE
  5
14
330
5
100
AcDbSymbolTableRecord
100
AcDbLinetypeTableRecord
  2
ByBlock
 70
     0
  3

 72
    65
 73
     0
 40
0.0
  0
LTYPE
  5
15
330
5
100
AcDbSymbolTableRecord
100
AcDbLinetypeTableRecord
  2
ByLayer
 70
     0
  3

 72
    65
 73
     0
 40
0.0
  0
LTYPE
  5
16
330
5
100
AcDbSymbolTableRecord
100
AcDbLinetypeTableRecord
  2
Continuous
 70
     0
  3
Solid line
 72
    65
 73
     0
 40
0.0
  0
LTYPE
  5
3F
330
5
100
AcDbSymbolTableRecord
100
AcDbLinetypeTableRecord
  2
DASHED
 70
     0
  3
Dashed
 72
    65
 73
     2
 40
15.0
 49
7.0
 74
     0
 49
-8.0
 74
     0
  0
LTYPE
  5
40
330
5
100
AcDbSymbolTableRecord
100
AcDbLinetypeTableRecord
  2
DOTTED
 70
     0
  3
Dotted
 72
    65
 73
     2
 40
1.0
 49
0.0
 74
     0
 49
-1.0
 74
     0
  0
LTYPE
  5
41
330
5
100
AcDbSymbolTableRecord
100
AcDbLinetypeTableRecord
  2
DOT_CENTER
 70
     0
  3
Dot_Center
 72
    65
 73
     4
 40
14.0
 49
12.0
 74
     0
 49
-1.0
 74
     0
 49
0.0
 74
     0
 49
-1.0
 74
     0
  0
LTYPE
  5
42
330
5
100
AcDbSymbolTableRecord
100
AcDbLinetypeTableRecord
  2
LONG_DASHED
 70
     0
  3
Long_Dashed
 72
    65
 73
     2
 40
15.0
 49
10.0
 74
     0
 49
-5.0
 74
     0
  0
LTYPE
  5
43
330
5
100
AcDbSymbolTableRecord
100
AcDbLinetypeTableRecord
  2
DASH_CENTER
 70
     0
  3
Dash_Center
 72
    65
 73
     4
 40
14.0
 49
11.0
 74
     0
 49
-1.0
 74
     0
 49
1.0
 74
     0
 49
-1.0
 74
     0
  0
LTYPE
  5
44
330
5
100
AcDbSymbolTableRecord
100
AcDbLinetypeTableRecord
  2
PHANTOM
 70
     0
  3
Phantom
 72
    65
 73
     6
 40
13.0
 49
10.0
 74
     0
 49
-1.0
 74
     0
 49
0.0
 74
     0
 49
-1.0
 74
     0
 49
0.0
 74
     0
 49
-1.0
 74
     0
  0
LTYPE
  5
45
330
5
100
AcDbSymbolTableRecord
100
AcDbLinetypeTableRecord
  2
CENTER_DASH_DASH
 70
     0
  3
Center_Dash_Dash
 72
    65
 73
     6
 40
14.0
 49
9.0
 74
     0
 49
-1.0
 74
     0
 49
1.0
 74
     0
 49
-1.0
 74
     0
 49
1.0
 74
     0
 49
-1.0
 74
     0
  0
ENDTAB
  0
TABLE
  2
LAYER
  5
2
330
0
100
AcDbSymbolTable
 70
     2
  0
LAYER
  5
10
330
2
100
AcDbSymbolTableRecord
100
AcDbLayerTableRecord
  2
0
 70
     0
 62
     7
  6
Continuous
370
    -3
390
F
  0
LAYER
  5
46
330
2
100
AcDbSymbolTableRecord
100
AcDbLayerTableRecord
  2
1
 70
     0
 62
     7
  6
Continuous
370
    -3
390
F
  0
ENDTAB
  0
TABLE
  2
STYLE
  5
3
330
0
100
AcDbSymbolTable
 70
     1
  0
STYLE
  5
11
330
3
100
AcDbSymbolTableRecord
100
AcDbTextStyleTableRecord
  2
Standard
 70
     0
 40
0.0
 41
1.0
 50
0.0
 71
     0
 42
0.2
  3
txt
  4

  0
ENDTAB
  0
TABLE
  2
VIEW
  5
6
330
0
100
AcDbSymbolTable
 70
     0
  0
ENDTAB
  0
TABLE
  2
UCS
  5
7
330
0
100
AcDbSymbolTable
 70
     0
  0
ENDTAB
  0
TABLE
  2
APPID
  5
9
330
0
100
AcDbSymbolTable
 70
     1
  0
APPID
  5
12
330
9
100
AcDbSymbolTableRecord
100
AcDbRegAppTableRecord
  2
ACAD
 70
     0
  0
ENDTAB
  0
TABLE
  2
DIMSTYLE
  5
A
330
0
100
AcDbSymbolTable
 70
     1
100
AcDbDimStyleTable
  0
DIMSTYLE
105
27
330
A
100
AcDbSymbolTableRecord
100
AcDbDimStyleTableRecord
  2
Standard
 70
     0
340
11
  0
ENDTAB
  0
TABLE
  2
BLOCK_RECORD
  5
1
330
0
100
AcDbSymbolTable
 70
     1
  0
BLOCK_RECORD
  5
1F
330
1
100
AcDbSymbolTableRecord
100
AcDbBlockTableRecord
  2
*Model_Space
340
22
  0
BLOCK_RECORD
  5
1B
330
1
100
AcDbSymbolTableRecord
100
AcDbBlockTableRecord
  2
*Paper_Space
340
1E
  0
BLOCK_RECORD
  5
23
330
1
100
AcDbSymbolTableRecord
100
AcDbBlockTableRecord
  2
*Paper_Space0
340
26
  0
ENDTAB
  0
ENDSEC
  0
SECTION
  2
BLOCKS
  0
BLOCK
  5
20
330
1F
100
AcDbEntity
  8
0
100
AcDbBlockBegin
  2
*Model_Space
 70
     0
 10
0.0
 20
0.0
 30
0.0
  3
*Model_Space
  1

  0
ENDBLK
  5
21
330
1F
100
AcDbEntity
  8
0
100
AcDbBlockEnd
  0
BLOCK
  5
1C
330
1B
100
AcDbEntity
 67
     1
  8
0
100
AcDbBlockBegin
  2
*Paper_Space
 70
     0
 10
0.0
 20
0.0
 30
0.0
  3
*Paper_Space
  1

  0
ENDBLK
  5
1D
330
1B
100
AcDbEntity
 67
     1
  8
0
100
AcDbBlockEnd
  0
BLOCK
  5
24
330
23
100
AcDbEntity
  8
0
100
AcDbBlockBegin
  2
*Paper_Space0
 70
     0
 10
0.0
 20
0.0
 30
0.0
  3
*Paper_Space0
  1

  0
ENDBLK
  5
25
330
23
100
AcDbEntity
  8
0
100
AcDbBlockEnd
  0
ENDSEC
  0
SECTION
  2
ENTITIES
  0
LINE
  5
47
330
1F
100
AcDbEntity
  8
1
  6
Continuous
 62
     7
100
AcDbLine
 10
-444.748587607716
 20
-7314.8250855876
 30
0.0
 11
-444.748587607717
 21
-7069.21751228945
 31
0.0
  0
LINE
  5
48
330
1F
100
AcDbEntity
  8
1
  6
Continuous
 62
     7
100
AcDbLine
 10
876.518130652245
 20
-7069.21751228945
 30
0.0
 11
876.518130652245
 21
-7314.8250855876
 31
0.0
  0
LINE
  5
49
330
1F
100
AcDbEntity
  8
0
  6
Continuous
 62
     7
100
AcDbLine
 10
1014.02700340063
 20
-7348.71573208039
 30
0.0
 11
979.069989277171
 21
-7383.61961714604
 31
0.0
  0
LINE
  5
4A
330
1F
100
AcDbEntity
  8
1
  6
DASHED
 62
     3
100
AcDbLine
 10
852.685151361555
 20
-7213.81250775514
 30
0.0
 11
823.763703964741
 21
-7252.99366508333
 31
0.0
  0
LINE
  5
4B
330
1F
100
AcDbEntity
  8
0
  6
DASHED
 62
     3
100
AcDbLine
 10
867.240666441137
 20
-7120.38849152451
 30
0.0
 11
867.203098524077
 21
-7169.78760708092
 31
0.0
  0
LINE
  5
4C
330
1F
100
AcDbEntity
  8
1
  6
Continuous
 62
     7
100
AcDbLine
 10
665.018474516241
 20
-7411.73889453181
 30
0.0
 11
665.018502901964
 21
-7405.66414384927
 31
0.0
  0
LINE
  5
4D
330
1F
100
AcDbEntity
  8
1
  6
Continuous
 62
     7
100
AcDbLine
 10
937.673944581841
 20
-7404.48418406632
 30
0.0
 11
889.518130964321
 21
-7411.73889453181
 31
0.0
  0
LINE
  5
4E
330
1F
100
AcDbEntity
  8
1
  6
Continuous
 62
     1
100
AcDbLine
 10
889.518130964321
 20
-7411.73889453181
 30
0.0
 11
809.509483413737
 21
-7536.57582197826
 31
0.0
  0
LINE
  5
4F
330
1F
100
AcDbEntity
  8
1
  6
DASHED
 62
     3
100
AcDbLine
 10
876.518130652245
 20
-6923.84550109108
 30
0.0
 11
876.518130652245
 21
-7071.14707102261
 31
0.0
  0
LINE
  5
50
330
1F
100
AcDbEntity
  8
1
  6
DASHED
 62
     3
100
AcDbLine
 10
876.518130652245
 20
-7071.75182105476
 30
0.0
 11
876.518130652245
 21
-7096.05821056981
 31
0.0
  0
LINE
  5
51
330
1F
100
AcDbEntity
  8
1
  6
DASHED
 62
     3
100
AcDbLine
 10
876.518130652245
 20
-7031.92636379921
 30
0.0
 11
876.518130652245
 21
-7051.73000445296
 31
0.0
  0
LINE
  5
52
330
1F
100
AcDbEntity
  8
1
  6
Continuous
 62
     7
100
AcDbLine
 10
3430.51813065373
 20
-7069.21751228945
 30
0.0
 11
3430.51813065373
 21
-7314.82508558761
 31
0.0
  0
LINE
  5
53
330
1F
100
AcDbEntity
  8
1
  6
Continuous
 62
     7
100
AcDbLine
 10
1876.51813065225
 20
-7314.82508558761
 30
0.0
 11
1876.51813065225
 21
-7069.21751228945
 31
0.0
  0
LINE
  5
54
330
1F
100
AcDbEntity
  8
1
  6
Continuous
 62
     7
100
AcDbLine
 10
4370.98294444543
 20
-7314.82508558761
 30
0.0
 11
4370.98294444543
 21
-7069.21751228945
 31
0.0
  0
LINE
  5
55
330
1F
100
AcDbEntity
  8
1
  6
DASHED
 62
     3
100
AcDbLine
 10
10391.2708076529
 20
-7252.99366508333
 30
0.0
 11
10362.3493602561
 21
-7213.81250775514
 31
0.0
  0
LINE
  5
56
330
1F
100
AcDbEntity
  8
0
  6
DASHED
 62
     3
100
AcDbLine
 10
10347.8314130935
 20
-7169.78760708092
 30
0.0
 11
10347.7938451765
 21
-7120.38849152451
 31
0.0
  0
LINE
  5
57
330
1F
100
AcDbEntity
  8
1
  6
Continuous
 62
     7
100
AcDbLine
 10
10550.0160087157
 20
-7405.66414384927
 30
0.0
 11
10550.0160371014
 21
-7411.73889453181
 31
0.0
  0
LINE
  5
58
330
1F
100
AcDbEntity
  8
0
  6
Continuous
 62
     7
100
AcDbLine
 10
10235.9645223405
 20
-7383.61961714604
 30
0.0
 11
10201.007508217
 21
-7348.71573208039
 31
0.0
  0
LINE
  5
59
330
1F
100
AcDbEntity
  8
1
  6
Continuous
 62
     7
100
AcDbLine
 10
10325.5163806533
 20
-7411.73889453181
 30
0.0
 11
10277.3605670358
 21
-7404.48418406632
 31
0.0
  0
LINE
  5
5A
330
1F
100
AcDbEntity
  8
1
  6
Continuous
 62
     7
100
AcDbLine
 10
11320.9329395897
 20
-7404.48418406632
 30
0.0
 11
11272.7771259722
 21
-7411.73889453181
 31
0.0
  0
LINE
  5
5B
330
1F
100
AcDbEntity
  8
0
  6
Continuous
 62
     7
100
AcDbLine
 10
11397.2859984085
 20
-7348.71573208039
 30
0.0
 11
11362.3289842851
 21
-7383.61961714604
 31
0.0
  0
LINE
  5
5C
330
1F
100
AcDbEntity
  8
1
  6
Continuous
 62
     7
100
AcDbLine
 10
11048.2774695241
 20
-7411.73889453181
 30
0.0
 11
11048.2774979098
 21
-7405.66414384927
 31
0.0
  0
LINE
  5
5D
330
1F
100
AcDbEntity
  8
0
  6
DASHED
 62
     3
100
AcDbLine
 10
11250.499661449
 20
-7120.38849152451
 30
0.0
 11
11250.462093532
 21
-7169.78760708092
 31
0.0
  0
LINE
  5
5E
330
1F
100
AcDbEntity
  8
1
  6
DASHED
 62
     3
100
AcDbLine
 10
11235.9441463694
 20
-7213.81250775514
 30
0.0
 11
11207.0226989726
 21
-7252.99366508333
 31
0.0
  0
LINE
  5
5F
330
1F
100
AcDbEntity
  8
1
  6
DASHED
 62
     3
100
AcDbLine
 10
7245.00408939289
 20
-7252.99366508333
 30
0.0
 11
7216.08264199608
 21
-7213.81250775514
 31
0.0
  0
LINE
  5
60
330
1F
100
AcDbEntity
  8
0
  6
DASHED
 62
     3
100
AcDbLine
 10
7201.56469483355
 20
-7169.78760708092
 30
0.0
 11
7201.52712691649
 21
-7120.38849152451
 31
0.0
  0
LINE
  5
61
330
1F
100
AcDbEntity
  8
1
  6
Continuous
 62
     7
100
AcDbLine
 10
7403.74929045567
 20
-7405.66414384927
 30
0.0
 11
7403.74931884139
 21
-7411.73889453181
 31
0.0
  0
LINE
  5
62
330
1F
100
AcDbEntity
  8
0
  6
Continuous
 62
     7
100
AcDbLine
 10
7089.69780408046
 20
-7383.61961714604
 30
0.0
 11
7054.740789957
 21
-7348.71573208039
 31
0.0
  0
LINE
  5
63
330
1F
100
AcDbEntity
  8
1
  6
Continuous
 62
     7
100
AcDbLine
 10
7179.24966239331
 20
-7411.73889453181
 30
0.0
 11
7131.09384877579
 21
-7404.48418406632
 31
0.0
  0
LINE
  5
64
330
1F
100
AcDbEntity
  8
1
  6
Continuous
 62
     7
100
AcDbLine
 10
9399.67219489495
 20
-7404.48418406632
 30
0.0
 11
9351.51638127743
 21
-7411.73889453181
 31
0.0
  0
LINE
  5
65
330
1F
100
AcDbEntity
  8
0
  6
Continuous
 62
     7
100
AcDbLine
 10
9476.02525371374
 20
-7348.71573208039
 30
0.0
 11
9441.06823959028
 21
-7383.61961714604
 31
0.0
  0
LINE
  5
66
330
1F
100
AcDbEntity
  8
1
  6
Continuous
 62
     7
100
AcDbLine
 10
9127.01672482935
 20
-7411.73889453181
 30
0.0
 11
9127.01675321507
 21
-7405.66414384927
 31
0.0
  0
LINE
  5
67
330
1F
100
AcDbEntity
  8
0
  6
DASHED
 62
     3
100
AcDbLine
 10
9329.23891675425
 20
-7120.38849152451
 30
0.0
 11
9329.20134883718
 21
-7169.78760708092
 31
0.0
  0
LINE
  5
68
330
1F
100
AcDbEntity
  8
1
  6
DASHED
 62
     3
100
AcDbLine
 10
9314.68340167466
 20
-7213.81250775514
 30
0.0
 11
9285.76195427785
 21
-7252.99366508333
 31
0.0
  0
LINE
  5
69
330
1F
100
AcDbEntity
  8
1
  6
Continuous
 62
     7
100
AcDbLine
 10
6253.40547663499
 20
-7404.48418406632
 30
0.0
 11
6205.24966301747
 21
-7411.73889453181
 31
0.0
  0
LINE
  5
6A
330
1F
100
AcDbEntity
  8
0
  6
Continuous
 62
     7
100
AcDbLine
 10
6329.75853545378
 20
-7348.71573208039
 30
0.0
 11
6294.80152133032
 21
-7383.61961714604
 31
0.0
  0
LINE
  5
6B
330
1F
100
AcDbEntity
  8
1
  6
Continuous
 62
     7
100
AcDbLine
 10
5980.75000656939
 20
-7411.73889453181
 30
0.0
 11
5980.75003495511
 21
-7405.66414384927
 31
0.0
  0
LINE
  5
6C
330
1F
100
AcDbEntity
  8
0
  6
DASHED
 62
     3
100
AcDbLine
 10
6182.97219849429
 20
-7120.38849152451
 30
0.0
 11
6182.93463057723
 21
-7169.78760708092
 31
0.0
  0
LINE
  5
6D
330
1F
100
AcDbEntity
  8
1
  6
DASHED
 62
     3
100
AcDbLine
 10
6168.4166834147
 20
-7213.81250775514
 30
0.0
 11
6139.49523601789
 21
-7252.99366508333
 31
0.0
  0
LINE
  5
6E
330
1F
100
AcDbEntity
  8
1
  6
DASHED
 62
     3
100
AcDbLine
 10
4423.73737113293
 20
-7252.99366508333
 30
0.0
 11
4394.81592373612
 21
-7213.81250775514
 31
0.0
  0
LINE
  5
6F
330
1F
100
AcDbEntity
  8
0
  6
DASHED
 62
     3
100
AcDbLine
 10
4380.2979765736
 20
-7169.78760708092
 30
0.0
 11
4380.26040865653
 21
-7120.38849152451
 31
0.0
  0
LINE
  5
70
330
1F
100
AcDbEntity
  8
1
  6
Continuous
 62
     7
100
AcDbLine
 10
4582.48257219571
 20
-7405.66414384927
 30
0.0
 11
4582.48260058143
 21
-7411.73889453181
 31
0.0
  0
LINE
  5
71
330
1F
100
AcDbEntity
  8
0
  6
Continuous
 62
     7
100
AcDbLine
 10
4268.4310858205
 20
-7383.61961714604
 30
0.0
 11
4233.47407169704
 21
-7348.71573208039
 31
0.0
  0
LINE
  5
72
330
1F
100
AcDbEntity
  8
1
  6
Continuous
 62
     7
100
AcDbLine
 10
4357.98294413335
 20
-7411.73889453181
 30
0.0
 11
4309.82713051583
 21
-7404.48418406632
 31
0.0
  0
LINE
  5
73
330
1F
100
AcDbEntity
  8
1
  6
Continuous
 62
     7
100
AcDbLine
 10
3491.67394458333
 20
-7404.48418406632
 30
0.0
 11
3443.51813096581
 21
-7411.73889453181
 31
0.0
  0
LINE
  5
74
330
1F
100
AcDbEntity
  8
0
  6
Continuous
 62
     7
100
AcDbLine
 10
3568.02700340212
 20
-7348.71573208039
 30
0.0
 11
3533.06998927866
 21
-7383.61961714604
 31
0.0
  0
LINE
  5
75
330
1F
100
AcDbEntity
  8
1
  6
Continuous
 62
     7
100
AcDbLine
 10
3219.01847451773
 20
-7411.73889453181
 30
0.0
 11
3219.01850290345
 21
-7405.66414384927
 31
0.0
  0
LINE
  5
76
330
1F
100
AcDbEntity
  8
0
  6
DASHED
 62
     3
100
AcDbLine
 10
3421.24066644263
 20
-7120.38849152451
 30
0.0
 11
3421.20309852557
 21
-7169.78760708092
 31
0.0
  0
LINE
  5
77
330
1F
100
AcDbEntity
  8
1
  6
DASHED
 62
     3
100
AcDbLine
 10
3406.68515136304
 20
-7213.81250775514
 30
0.0
 11
3377.76370396623
 21
-7252.99366508333
 31
0.0
  0
LINE
  5
78
330
1F
100
AcDbEntity
  8
1
  6
DASHED
 62
     3
100
AcDbLine
 10
1929.27255733975
 20
-7252.99366508333
 30
0.0
 11
1900.35110994294
 21
-7213.81250775514
 31
0.0
  0
LINE
  5
79
330
1F
100
AcDbEntity
  8
0
  6
DASHED
 62
     3
100
AcDbLine
 10
1885.83316278041
 20
-7169.78760708092
 30
0.0
 11
1885.79559486335
 21
-7120.38849152451
 31
0.0
  0
LINE
  5
7A
330
1F
100
AcDbEntity
  8
1
  6
Continuous
 62
     7
100
AcDbLine
 10
2088.01775840253
 20
-7405.66414384927
 30
0.0
 11
2088.01778678825
 21
-7411.73889453181
 31
0.0
  0
LINE
  5
7B
330
1F
100
AcDbEntity
  8
0
  6
Continuous
 62
     7
100
AcDbLine
 10
1773.96627202732
 20
-7383.61961714604
 30
0.0
 11
1739.00925790386
 21
-7348.71573208039
 31
0.0
  0
LINE
  5
7C
330
1F
100
AcDbEntity
  8
1
  6
Continuous
 62
     7
100
AcDbLine
 10
1863.51813034017
 20
-7411.73889453181
 30
0.0
 11
1815.36231672265
 21
-7404.48418406632
 31
0.0
  0
LINE
  5
7D
330
1F
100
AcDbEntity
  8
1
  6
Continuous
 62
     7
100
AcDbLine
 10
-444.748587607724
 20
-7096.05821056981
 30
0.0
 11
-444.748587607724
 21
-7071.75182105476
 31
0.0
  0
LINE
  5
7E
330
1F
100
AcDbEntity
  8
1
  6
Continuous
 62
     7
100
AcDbLine
 10
-444.748587607716
 20
-7314.8250855876
 30
0.0
 11
-444.748587607724
 21
-7136.89618349175
 31
0.0
  0
LINE
  5
7F
330
1F
100
AcDbEntity
  8
1
  6
DASHED
 62
     3
100
AcDbLine
 10
-391.994160920214
 20
-7252.99366508333
 30
0.0
 11
-420.915608317027
 21
-7213.81250775514
 31
0.0
  0
LINE
  5
80
330
1F
100
AcDbEntity
  8
0
  6
DASHED
 62
     3
100
AcDbLine
 10
-435.43355547955
 20
-7169.78760708092
 30
0.0
 11
-435.47112339661
 21
-7120.38849152451
 31
0.0
  0
LINE
  5
81
330
1F
100
AcDbEntity
  8
1
  6
Continuous
 62
     7
100
AcDbLine
 10
-233.248959857437
 20
-7405.66414384927
 30
0.0
 11
-233.248931471714
 21
-7411.73889453181
 31
0.0
  0
LINE
  5
82
330
1F
100
AcDbEntity
  8
0
  6
Continuous
 62
     7
100
AcDbLine
 10
-547.300446232644
 20
-7383.61961714604
 30
0.0
 11
-582.257460356104
 21
-7348.71573208039
 31
0.0
  0
LINE
  5
83
330
1F
100
AcDbEntity
  8
1
  6
Continuous
 62
     7
100
AcDbLine
 10
-457.748587919794
 20
-7411.73889453181
 30
0.0
 11
-505.904401537314
 21
-7404.48418406632
 31
0.0
  0
LINE
  5
84
330
1F
100
AcDbEntity
  8
1
  6
Continuous
 62
     7
100
AcDbLine
 10
10325.5163806533
 20
-7411.73889453181
 30
0.0
 11
11272.7771259722
 21
-7411.73889453181
 31
0.0
  0
LINE
  5
85
330
1F
100
AcDbEntity
  8
1
  6
Continuous
 62
     1
100
AcDbLine
 10
11272.7771259722
 20
-7411.73889453181
 30
0.0
 11
11192.7684784216
 21
-7536.57582197826
 31
0.0
  0
LINE
  5
86
330
1F
100
AcDbEntity
  8
1
  6
Continuous
 62
     1
100
AcDbLine
 10
10325.5163806533
 20
-7411.73889453181
 30
0.0
 11
10405.5250282039
 21
-7536.57582197826
 31
0.0
  0
LINE
  5
87
330
1F
100
AcDbEntity
  8
1
  6
Continuous
 62
     1
100
AcDbLine
 10
9271.50773372684
 20
-7536.57582197826
 30
0.0
 11
9351.51638127743
 21
-7411.73889453181
 31
0.0
  0
LINE
  5
88
330
1F
100
AcDbEntity
  8
1
  6
Continuous
 62
     1
100
AcDbLine
 10
7179.24966239331
 20
-7411.73889453181
 30
0.0
 11
7259.2583099439
 21
-7536.57582197826
 31
0.0
  0
LINE
  5
89
330
1F
100
AcDbEntity
  8
1
  6
Continuous
 62
     1
100
AcDbLine
 10
6205.24966301747
 20
-7411.73889453181
 30
0.0
 11
6125.24101546688
 21
-7536.57582197826
 31
0.0
  0
LINE
  5
8A
330
1F
100
AcDbEntity
  8
1
  6
Continuous
 62
     1
100
AcDbLine
 10
4357.98294413335
 20
-7411.73889453181
 30
0.0
 11
4437.99159168394
 21
-7536.57582197826
 31
0.0
  0
LINE
  5
8B
330
1F
100
AcDbEntity
  8
1
  6
Continuous
 62
     1
100
AcDbLine
 10
3443.51813096581
 20
-7411.73889453181
 30
0.0
 11
3363.50948341522
 21
-7536.57582197826
 31
0.0
  0
LINE
  5
8C
330
1F
100
AcDbEntity
  8
1
  6
Continuous
 62
     1
100
AcDbLine
 10
1863.51813034017
 20
-7411.73889453181
 30
0.0
 11
1943.52677789075
 21
-7536.57582197826
 31
0.0
  0
LINE
  5
8D
330
1F
100
AcDbEntity
  8
1
  6
Continuous
 62
     1
100
AcDbLine
 10
-457.748587919794
 20
-7411.73889453181
 30
0.0
 11
-377.73994036921
 21
-7536.57582197826
 31
0.0
  0
LINE
  5
8E
330
1F
100
AcDbEntity
  8
1
  6
Continuous
 62
     1
100
AcDbLine
 10
-2580.41870920603
 20
-7097.44623437078
 30
0.0
 11
-2542.91569809567
 21
-7063.0748962512
 31
0.0
  0
LINE
  5
8F
330
1F
100
AcDbEntity
  8
1
  6
Continuous
 62
     7
100
AcDbLine
 10
-2587.69299776009
 20
-7115.49320630813
 30
0.0
 11
-2584.72948259379
 21
-7153.48589485145
 31
0.0
  0
LINE
  5
90
330
1F
100
AcDbEntity
  8
1
  6
Continuous
 62
     7
100
AcDbLine
 10
-2680.04244880211
 20
-7093.21014257844
 30
0.0
 11
-2608.81099583107
 21
-7093.20847438582
 31
0.0
  0
LINE
  5
91
330
1F
100
AcDbEntity
  8
1
  6
Continuous
 62
     1
100
AcDbLine
 10
-2600.31142851909
 20
-7086.36314789636
 30
0.0
 11
-2583.48072549817
 21
-7034.41186338873
 31
0.0
  0
LINE
  5
92
330
1F
100
AcDbEntity
  8
1
  6
Continuous
 62
     7
100
AcDbLine
 10
-2788.26785415244
 20
-7045.11346812917
 30
0.0
 11
-2776.01157311976
 21
-7056.22012622381
 31
0.0
  0
LINE
  5
93
330
1F
100
AcDbEntity
  8
1
  6
Continuous
 62
     7
100
AcDbLine
 10
-2487.33319478833
 20
-7066.35412161453
 30
0.0
 11
-2342.34793740852
 21
-7332.83588294432
 31
0.0
  0
LINE
  5
94
330
1F
100
AcDbEntity
  8
1
  6
Continuous
 62
     1
100
AcDbLine
 10
-2543.93996971987
 20
-7060.64681273976
 30
0.0
 11
-2394.32100869091
 21
-7415.32551679652
 31
0.0
  0
LINE
  5
95
330
1F
100
AcDbEntity
  8
1
  6
Continuous
 62
     7
100
AcDbLine
 10
-2532.00372861753
 20
-7088.94222728063
 30
0.0
 11
-2532.03507542169
 21
-7088.86791822383
 31
0.0
  0
LINE
  5
96
330
1F
100
AcDbEntity
  8
0
  6
Continuous
 62
     7
100
AcDbLine
 10
-2745.07675723819
 20
-7078.58677290577
 30
0.0
 11
-2745.07675670075
 21
-7078.58677558574
 31
0.0
  0
LINE
  5
97
330
1F
100
AcDbEntity
  8
0
  6
Continuous
 62
     1
100
AcDbLine
 10
-2583.48072549817
 20
-7034.41186338873
 30
0.0
 11
-2790.99561500228
 21
-7034.4118633888
 31
0.0
  0
LINE
  5
98
330
1F
100
AcDbEntity
  8
0
  6
Continuous
 62
     7
100
AcDbLine
 10
-2800.07715575162
 20
-7034.4118633888
 30
0.0
 11
-2800.07673815894
 21
-7034.41394572951
 31
0.0
  0
LINE
  5
99
330
1F
100
AcDbEntity
  8
0
  6
Continuous
 62
     7
100
AcDbLine
 10
-2680.04244880211
 20
-7093.21014257844
 30
0.0
 11
-2680.04285595684
 21
-7093.21014257899
 31
0.0
  0
LINE
  5
9A
330
1F
100
AcDbEntity
  8
0
  6
Continuous
 62
     7
100
AcDbLine
 10
-2675.5770883017
 20
-7093.20847707032
 30
0.0
 11
-2675.57708883914
 21
-7093.20847438584
 31
0.0
  0
LINE
  5
9B
330
1F
100
AcDbEntity
  8
0
  6
Continuous
 62
     7
100
AcDbLine
 10
-2679.1913627008
 20
-7009.20846470557
 30
0.0
 11
-2583.48066052903
 21
-7009.20846470554
 31
0.0
  0
LINE
  5
9C
330
1F
100
AcDbEntity
  8
0
  6
Continuous
 62
     7
100
AcDbLine
 10
-2525.60158424485
 20
-7555.66935872793
 30
0.0
 11
-2525.60158424499
 21
-7649.85688289288
 31
0.0
  0
LINE
  5
9D
330
1F
100
AcDbEntity
  8
1
  6
DASHED
 62
     3
100
AcDbLine
 10
-2709.52234281647
 20
-7179.4958080328
 30
0.0
 11
-2683.81097740319
 21
-7134.50890376655
 31
0.0
  0
LINE
  5
9E
330
1F
100
AcDbEntity
  8
1
  6
DASHED
 62
     3
100
AcDbLine
 10
-2711.8778659549
 20
-7198.81056873077
 30
0.0
 11
-2699.18209874951
 21
-7234.74167363943
 31
0.0
  0
LINE
  5
9F
330
1F
100
AcDbEntity
  8
1
  6
DASHED
 62
     3
100
AcDbLine
 10
-2806.84786703648
 20
-7201.18857871986
 30
0.0
 11
-2738.04399872768
 21
-7182.75091073029
 31
0.0
  0
LINE
  5
A0
330
1F
100
AcDbEntity
  8
1
  6
DASHED
 62
     3
100
AcDbLine
 10
-2731.60574801418
 20
-7173.93898318927
 30
0.0
 11
-2728.79451913978
 21
-7119.40178929018
 31
0.0
  0
LINE
  5
A1
330
1F
100
AcDbEntity
  8
1
  6
DASHED
 62
     3
100
AcDbLine
 10
-2923.83391647854
 20
-7182.7415547793
 30
0.0
 11
-2909.12064345248
 21
-7190.29760372329
 31
0.0
  0
LINE
  5
A2
330
1F
100
AcDbEntity
  8
1
  6
DASHED
 62
     3
100
AcDbLine
 10
-2627.65587132081
 20
-7125.37082937318
 30
0.0
 11
-2582.80471346686
 21
-7172.55259536193
 31
0.0
  0
LINE
  5
A3
330
1F
100
AcDbEntity
  8
1
  6
DASHED
 62
     3
100
AcDbLine
 10
-2683.81097740319
 20
-7134.50890376655
 30
0.0
 11
-2569.9439803824
 21
-7280.92431963584
 31
0.0
  0
LINE
  5
A4
330
1F
100
AcDbEntity
  8
1
  6
DASHED
 62
     3
100
AcDbLine
 10
-2664.95806168138
 20
-7158.75084891291
 30
0.0
 11
-2665.00757296821
 21
-7158.68718502574
 31
0.0
  0
LINE
  5
A5
330
1F
100
AcDbEntity
  8
0
  6
DASHED
 62
     3
100
AcDbLine
 10
-2873.4509917246
 20
-7203.89560589398
 30
0.0
 11
-2873.45099051184
 21
-7203.89560834354
 31
0.0
  0
LINE
  5
A6
330
1F
100
AcDbEntity
  8
0
  6
DASHED
 62
     3
100
AcDbLine
 10
-2728.79451913978
 20
-7119.40178929018
 30
0.0
 11
-2929.23851025131
 21
-7173.11059483627
 31
0.0
  0
LINE
  5
A7
330
1F
100
AcDbEntity
  8
0
  6
DASHED
 62
     3
100
AcDbLine
 10
-2938.01060500359
 20
-7175.46107054107
 30
0.0
 11
-2938.0096626906
 21
-7175.4629738468
 31
0.0
  0
LINE
  5
A8
330
1F
100
AcDbEntity
  8
0
  6
DASHED
 62
     3
100
AcDbLine
 10
-2806.84786703648
 20
-7201.18857871986
 30
0.0
 11
-2806.84826031761
 21
-7201.18868409979
 31
0.0
  0
LINE
  5
A9
330
1F
100
AcDbEntity
  8
0
  6
DASHED
 62
     3
100
AcDbLine
 10
-2802.53509107067
 20
-7200.03124962179
 30
0.0
 11
-2802.53509228459
 21
-7200.03124716789
 31
0.0
  0
LINE
  5
AA
330
1F
100
AcDbEntity
  8
0
  6
DASHED
 62
     3
100
AcDbLine
 10
-2827.7670150449
 20
-7119.8289113188
 30
0.0
 11
-2735.31757596494
 21
-7095.05715877658
 31
0.0
  0
LINE
  5
AB
330
1F
100
AcDbEntity
  8
0
  6
DASHED
 62
     3
100
AcDbLine
 10
-2537.97619460353
 20
-7607.91764211451
 30
0.0
 11
-2520.7811470431
 21
-7672.09043324893
 31
0.0
  0
LINE
  5
AC
330
1F
100
AcDbEntity
  8
0
  6
DASHED
 62
     3
100
AcDbLine
 10
-2479.36115218961
 20
-6989.53154997168
 30
0.0
 11
-2482.64763183538
 21
-7009.61024834044
 31
0.0
  0
LINE
  5
AD
330
1F
100
AcDbEntity
  8
0
  6
DASHED
 62
     3
100
AcDbLine
 10
-2495.77990322587
 20
-6875.87654720604
 30
0.0
 11
-2516.4002408849
 21
-6891.88121280195
 31
0.0
  0
LINE
  5
AE
330
1F
100
AcDbEntity
  8
0
  6
DASHED
 62
     3
100
AcDbLine
 10
-2512.96246578384
 20
-7034.95161478425
 30
0.0
 11
-2484.76723486712
 21
-6875.0485142799
 31
0.0
  0
LINE
  5
AF
330
1F
100
AcDbEntity
  8
1
  6
DASHED
 62
     3
100
AcDbLine
 10
-2481.78126560172
 20
-7061.19717056503
 30
0.0
 11
-2489.29781796402
 21
-7062.89445658232
 31
0.0
  0
LINE
  5
B0
330
1F
100
AcDbEntity
  8
1
  6
DASHED
 62
     3
100
AcDbLine
 10
-2487.63507270354
 20
-7019.67157188132
 30
0.0
 11
-2501.63507270354
 21
-7019.67157188132
 31
0.0
  0
LINE
  5
B1
330
1F
100
AcDbEntity
  8
0
  6
DASHED
 62
     3
100
AcDbLine
 10
-2668.62861465776
 20
-7009.20846470557
 30
0.0
 11
-2674.69046110645
 21
-6939.92124275122
 31
0.0
  0
LINE
  5
B2
330
1F
100
AcDbEntity
  8
0
  6
DASHED
 62
     3
100
AcDbLine
 10
-2685.11357119926
 20
-6943.57134944824
 30
0.0
 11
-2700.8889756242
 21
-6964.36760539105
 31
0.0
  0
LINE
  5
B3
330
1F
100
AcDbEntity
  8
1
  6
DASHED
 62
     3
100
AcDbLine
 10
-2623.62741880967
 20
-7118.95421167206
 30
0.0
 11
-2630.44779565435
 21
-7122.53868878985
 31
0.0
  0
LINE
  5
B4
330
1F
100
AcDbEntity
  8
1
  6
DASHED
 62
     3
100
AcDbLine
 10
-2661.27945857012
 20
-7093.20970316186
 30
0.0
 11
-2660.53911945298
 21
-7101.67181799189
 31
0.0
  0
LINE
  5
B5
330
1F
100
AcDbEntity
  8
1
  6
Continuous
 62
     1
100
AcDbLine
 10
-2402.84641025568
 20
-7361.73889453181
 30
0.0
 11
-1774.27235543957
 21
-7361.73889453181
 31
0.0
  0
LINE
  5
B6
330
1F
100
AcDbEntity
  8
1
  6
Continuous
 62
     7
100
AcDbLine
 10
-2222.84641025568
 20
-7311.73889453181
 30
0.0
 11
-1954.27235543957
 21
-7311.73889453181
 31
0.0
  0
LINE
  5
B7
330
1F
100
AcDbEntity
  8
1
  6
Continuous
 62
     7
100
AcDbLine
 10
-1824.27235543957
 20
-7411.73889453181
 30
0.0
 11
-2302.84641025568
 21
-7411.73889453181
 31
0.0
  0
LINE
  5
B8
330
1F
100
AcDbEntity
  8
1
  6
Continuous
 62
     7
100
AcDbLine
 10
-2520.7811470431
 20
-7823.73914587112
 30
0.0
 11
-1774.27235543957
 21
-7823.73914587112
 31
0.0
  0
LINE
  5
B9
330
1F
100
AcDbEntity
  8
1
  6
Continuous
 62
     1
100
AcDbLine
 10
-2147.10171536994
 20
-7411.73889453181
 30
0.0
 11
-2147.10171536994
 21
-7823.73914587112
 31
0.0
  0
LINE
  5
BA
330
1F
100
AcDbEntity
  8
0
  6
Continuous
 62
     7
100
AcDbLine
 10
-2333.35609953312
 20
-7411.73889453181
 30
0.0
 11
-1854.27235543957
 21
-7411.73889453181
 31
0.0
  0
LINE
  5
BB
330
1F
100
AcDbEntity
  8
0
  6
Continuous
 62
     7
100
AcDbLine
 10
-1774.27235543957
 20
-7823.73914587112
 30
0.0
 11
-1774.27235543957
 21
-7491.73889453181
 31
0.0
  0
LINE
  5
BC
330
1F
100
AcDbEntity
  8
0
  6
Continuous
 62
     7
100
AcDbLine
 10
-2520.7811470431
 20
-7823.73914587112
 30
0.0
 11
-2520.7811470431
 21
-7519.3207101601
 31
0.0
  0
LINE
  5
BD
330
1F
100
AcDbEntity
  8
1
  6
Continuous
 62
     1
100
AcDbLine
 10
-2558.16996550772
 20
-7042.67213510205
 30
0.0
 11
-2540.23521055441
 21
-7018.11529003265
 31
0.0
  0
LINE
  5
BE
330
1F
100
AcDbEntity
  8
1
  6
Continuous
 62
     7
100
AcDbLine
 10
-444.748587607716
 20
-9412.47636186676
 30
0.0
 11
-444.748587607716
 21
-9054.68235260357
 31
0.0
  0
LINE
  5
BF
330
1F
100
AcDbEntity
  8
1
  6
Continuous
 62
     7
100
AcDbLine
 10
-394.748587607716
 20
-9004.68235260357
 30
0.0
 11
165.884771522265
 21
-9004.68235260357
 31
0.0
  0
LINE
  5
C0
330
1F
100
AcDbEntity
  8
1
  6
Continuous
 62
     7
100
AcDbLine
 10
-584.115228477735
 20
-9449.42710522846
 30
0.0
 11
-576.527669184977
 21
-9972.68780557573
 31
0.0
  0
LINE
  5
C1
330
1F
100
AcDbEntity
  8
1
  6
Continuous
 62
     7
100
AcDbLine
 10
-526.532924992921
 20
-10021.9628551148
 30
0.0
 11
-270.248927227826
 21
-10021.9628551148
 31
0.0
  0
LINE
  5
C2
330
1F
100
AcDbEntity
  8
1
  6
Continuous
 62
     7
100
AcDbLine
 10
-220.248927227826
 20
-9971.96285511484
 30
0.0
 11
-220.248927227826
 21
-9514.52901073588
 31
0.0
  0
LINE
  5
C3
330
1F
100
AcDbEntity
  8
1
  6
DASHED
 62
     3
100
AcDbLine
 10
-444.748587607716
 20
-8916.96962052705
 30
0.0
 11
-444.748587607716
 21
-9064.27119045858
 31
0.0
  0
LINE
  5
C4
330
1F
100
AcDbEntity
  8
1
  6
Continuous
 62
     7
100
AcDbLine
 10
-270.248927227826
 20
-10021.9628551148
 30
0.0
 11
702.018470272356
 21
-10021.9628551148
 31
0.0
  0
LINE
  5
C5
330
1F
100
AcDbEntity
  8
1
  6
Continuous
 62
     7
100
AcDbLine
 10
652.018470272356
 20
-9514.52901073588
 30
0.0
 11
652.018470272356
 21
-9971.96285511484
 31
0.0
  0
LINE
  5
C6
330
1F
100
AcDbEntity
  8
1
  6
Continuous
 62
     7
100
AcDbLine
 10
702.018470272356
 20
-10021.9628551148
 30
0.0
 11
958.302468037449
 21
-10021.9628551148
 31
0.0
  0
LINE
  5
C7
330
1F
100
AcDbEntity
  8
1
  6
Continuous
 62
     7
100
AcDbLine
 10
1008.29721222951
 20
-9972.68780557573
 30
0.0
 11
1015.88477152227
 21
-9449.42710522846
 31
0.0
  0
LINE
  5
C8
330
1F
100
AcDbEntity
  8
1
  6
Continuous
 62
     1
100
AcDbLine
 10
876.518130652245
 20
-9256.0
 30
0.0
 11
-444.748587607716
 21
-9256.0
 31
0.0
  0
LINE
  5
C9
330
1F
100
AcDbEntity
  8
1
  6
Continuous
 62
     7
100
AcDbLine
 10
265.884771522265
 20
-9004.68235260357
 30
0.0
 11
826.518130652245
 21
-9004.68235260357
 31
0.0
  0
LINE
  5
CA
330
1F
100
AcDbEntity
  8
1
  6
Continuous
 62
     7
100
AcDbLine
 10
876.518130652245
 20
-9054.68235260357
 30
0.0
 11
876.518130652245
 21
-9412.47636186676
 31
0.0
  0
LINE
  5
CB
330
1F
100
AcDbEntity
  8
0
  6
Continuous
 62
     7
100
AcDbLine
 10
652.018470272356
 20
-9535.80317373221
 30
0.0
 11
325.604795140137
 21
-9535.80317373221
 31
0.0
  0
LINE
  5
CC
330
1F
100
AcDbEntity
  8
1
  6
Continuous
 62
     7
100
AcDbLine
 10
215.884771522265
 20
-9054.68235260357
 30
0.0
 11
215.88477152226
 21
-9488.49078883089
 31
0.0
  0
LINE
  5
CD
330
1F
100
AcDbEntity
  8
1
  6
DASHED
 62
     3
100
AcDbLine
 10
265.884771522265
 20
-8866.96962052705
 30
0.0
 11
826.518130652245
 21
-8866.96962052705
 31
0.0
  0
LINE
  5
CE
330
1F
100
AcDbEntity
  8
1
  6
DASHED
 62
     3
100
AcDbLine
 10
876.518130652245
 20
-8916.96962052705
 30
0.0
 11
876.518130652245
 21
-9064.27119045858
 31
0.0
  0
LINE
  5
CF
330
1F
100
AcDbEntity
  8
1
  6
DASHED
 62
     3
100
AcDbLine
 10
215.884771522265
 20
-8916.96962052705
 30
0.0
 11
215.884771522265
 21
-9064.27119045858
 31
0.0
  0
LINE
  5
D0
330
1F
100
AcDbEntity
  8
1
  6
DASHED
 62
     3
100
AcDbLine
 10
2653.51813065299
 20
-8916.96962052705
 30
0.0
 11
2653.51813065299
 21
-9064.27119045858
 31
0.0
  0
LINE
  5
D1
330
1F
100
AcDbEntity
  8
1
  6
DASHED
 62
     3
100
AcDbLine
 10
3430.51813065373
 20
-8916.96962052705
 30
0.0
 11
3430.51813065373
 21
-9064.27119045858
 31
0.0
  0
LINE
  5
D2
330
1F
100
AcDbEntity
  8
1
  6
DASHED
 62
     3
100
AcDbLine
 10
2703.51813065299
 20
-8866.96962052705
 30
0.0
 11
3380.51813065373
 21
-8866.96962052705
 31
0.0
  0
LINE
  5
D3
330
1F
100
AcDbEntity
  8
1
  6
Continuous
 62
     7
100
AcDbLine
 10
2653.51813065299
 20
-9054.68235260357
 30
0.0
 11
2653.51813065299
 21
-9488.49078883089
 31
0.0
  0
LINE
  5
D4
330
1F
100
AcDbEntity
  8
0
  6
Continuous
 62
     7
100
AcDbLine
 10
3206.01847027384
 20
-9535.80317373222
 30
0.0
 11
2763.23815427086
 21
-9535.80317373222
 31
0.0
  0
LINE
  5
D5
330
1F
100
AcDbEntity
  8
1
  6
Continuous
 62
     7
100
AcDbLine
 10
3430.51813065373
 20
-9054.68235260357
 30
0.0
 11
3430.51813065373
 21
-9412.47636186676
 31
0.0
  0
LINE
  5
D6
330
1F
100
AcDbEntity
  8
1
  6
Continuous
 62
     7
100
AcDbLine
 10
2703.51813065299
 20
-9004.68235260357
 30
0.0
 11
3380.51813065373
 21
-9004.68235260357
 31
0.0
  0
LINE
  5
D7
330
1F
100
AcDbEntity
  8
1
  6
Continuous
 62
     7
100
AcDbLine
 10
3562.29721223099
 20
-9972.68780557573
 30
0.0
 11
3569.88477152375
 21
-9449.42710522846
 31
0.0
  0
LINE
  5
D8
330
1F
100
AcDbEntity
  8
1
  6
Continuous
 62
     7
100
AcDbLine
 10
3256.01847027384
 20
-10021.9628551148
 30
0.0
 11
3512.30246803893
 21
-10021.9628551148
 31
0.0
  0
LINE
  5
D9
330
1F
100
AcDbEntity
  8
1
  6
Continuous
 62
     7
100
AcDbLine
 10
3206.01847027384
 20
-9514.52901073588
 30
0.0
 11
3206.01847027384
 21
-9971.96285511484
 31
0.0
  0
LINE
  5
DA
330
1F
100
AcDbEntity
  8
1
  6
Continuous
 62
     7
100
AcDbLine
 10
2051.01779103213
 20
-10021.9628551148
 30
0.0
 11
3256.01847027384
 21
-10021.9628551148
 31
0.0
  0
LINE
  5
DB
330
1F
100
AcDbEntity
  8
1
  6
DASHED
 62
     3
100
AcDbLine
 10
1876.51813065225
 20
-8916.96962052705
 30
0.0
 11
1876.51813065225
 21
-9064.27119045858
 31
0.0
  0
LINE
  5
DC
330
1F
100
AcDbEntity
  8
1
  6
DASHED
 62
     3
100
AcDbLine
 10
1926.51813065225
 20
-8866.96962052705
 30
0.0
 11
2603.51813065299
 21
-8866.96962052705
 31
0.0
  0
LINE
  5
DD
330
1F
100
AcDbEntity
  8
1
  6
Continuous
 62
     7
100
AcDbLine
 10
2101.01779103213
 20
-9971.96285511484
 30
0.0
 11
2101.01779103213
 21
-9514.52901073588
 31
0.0
  0
LINE
  5
DE
330
1F
100
AcDbEntity
  8
1
  6
Continuous
 62
     7
100
AcDbLine
 10
1794.73379326704
 20
-10021.9628551148
 30
0.0
 11
2051.01779103213
 21
-10021.9628551148
 31
0.0
  0
LINE
  5
DF
330
1F
100
AcDbEntity
  8
1
  6
Continuous
 62
     7
100
AcDbLine
 10
1737.15148978223
 20
-9449.42710522846
 30
0.0
 11
1744.73904907498
 21
-9972.68780557573
 31
0.0
  0
LINE
  5
E0
330
1F
100
AcDbEntity
  8
1
  6
Continuous
 62
     7
100
AcDbLine
 10
1926.51813065225
 20
-9004.68235260357
 30
0.0
 11
2603.51813065299
 21
-9004.68235260357
 31
0.0
  0
LINE
  5
E1
330
1F
100
AcDbEntity
  8
1
  6
Continuous
 62
     7
100
AcDbLine
 10
1876.51813065225
 20
-9412.47636186676
 30
0.0
 11
1876.51813065225
 21
-9054.68235260357
 31
0.0
  0
LINE
  5
E2
330
1F
100
AcDbEntity
  8
0
  6
Continuous
 62
     7
100
AcDbLine
 10
2543.79810703512
 20
-9535.80317373222
 30
0.0
 11
2101.01779103213
 21
-9535.80317373222
 31
0.0
  0
LINE
  5
E3
330
1F
100
AcDbEntity
  8
0
  6
Continuous
 62
     7
100
AcDbLine
 10
5171.89627995754
 20
-9535.80317373221
 30
0.0
 11
4595.48260482532
 21
-9535.80317373221
 31
0.0
  0
LINE
  5
E4
330
1F
100
AcDbEntity
  8
1
  6
Continuous
 62
     7
100
AcDbLine
 10
4370.98294444543
 20
-9412.47636186676
 30
0.0
 11
4370.98294444543
 21
-9054.68235260357
 31
0.0
  0
LINE
  5
E5
330
1F
100
AcDbEntity
  8
1
  6
Continuous
 62
     7
100
AcDbLine
 10
4420.98294444543
 20
-9004.68235260357
 30
0.0
 11
5231.61630357541
 21
-9004.68235260357
 31
0.0
  0
LINE
  5
E6
330
1F
100
AcDbEntity
  8
1
  6
Continuous
 62
     1
100
AcDbLine
 10
6192.24966270539
 20
-9256.0
 30
0.0
 11
4370.98294444543
 21
-9256.0
 31
0.0
  0
LINE
  5
E7
330
1F
100
AcDbEntity
  8
1
  6
Continuous
 62
     7
100
AcDbLine
 10
4231.61630357541
 20
-9449.42710522846
 30
0.0
 11
4239.20386286817
 21
-9972.68780557573
 31
0.0
  0
LINE
  5
E8
330
1F
100
AcDbEntity
  8
1
  6
Continuous
 62
     7
100
AcDbLine
 10
4289.19860706023
 20
-10021.9628551148
 30
0.0
 11
4545.48260482532
 21
-10021.9628551148
 31
0.0
  0
LINE
  5
E9
330
1F
100
AcDbEntity
  8
1
  6
Continuous
 62
     7
100
AcDbLine
 10
4595.48260482532
 20
-9971.96285511484
 30
0.0
 11
4595.48260482532
 21
-9514.52901073588
 31
0.0
  0
LINE
  5
EA
330
1F
100
AcDbEntity
  8
1
  6
DASHED
 62
     3
100
AcDbLine
 10
4420.98294444543
 20
-8866.96962052705
 30
0.0
 11
5231.61630357541
 21
-8866.96962052705
 31
0.0
  0
LINE
  5
EB
330
1F
100
AcDbEntity
  8
1
  6
DASHED
 62
     3
100
AcDbLine
 10
4370.98294444543
 20
-8916.96962052705
 30
0.0
 11
4370.98294444543
 21
-9064.27119045858
 31
0.0
  0
LINE
  5
EC
330
1F
100
AcDbEntity
  8
1
  6
Continuous
 62
     7
100
AcDbLine
 10
4545.48260482532
 20
-10021.9628551148
 30
0.0
 11
6017.7500023255
 21
-10021.9628551148
 31
0.0
  0
LINE
  5
ED
330
1F
100
AcDbEntity
  8
1
  6
Continuous
 62
     7
100
AcDbLine
 10
5967.7500023255
 20
-9514.52901073588
 30
0.0
 11
5967.7500023255
 21
-9971.96285511484
 31
0.0
  0
LINE
  5
EE
330
1F
100
AcDbEntity
  8
1
  6
Continuous
 62
     7
100
AcDbLine
 10
6017.7500023255
 20
-10021.9628551148
 30
0.0
 11
6274.0340000906
 21
-10021.9628551148
 31
0.0
  0
LINE
  5
EF
330
1F
100
AcDbEntity
  8
1
  6
Continuous
 62
     7
100
AcDbLine
 10
6324.02874428265
 20
-9972.68780557573
 30
0.0
 11
6331.61630357541
 21
-9449.42710522846
 31
0.0
  0
LINE
  5
F0
330
1F
100
AcDbEntity
  8
1
  6
Continuous
 62
     7
100
AcDbLine
 10
5331.61630357541
 20
-9004.68235260357
 30
0.0
 11
6142.24966270539
 21
-9004.68235260357
 31
0.0
  0
LINE
  5
F1
330
1F
100
AcDbEntity
  8
1
  6
Continuous
 62
     7
100
AcDbLine
 10
6192.24966270539
 20
-9054.68235260357
 30
0.0
 11
6192.24966270539
 21
-9412.47636186676
 31
0.0
  0
LINE
  5
F2
330
1F
100
AcDbEntity
  8
0
  6
Continuous
 62
     7
100
AcDbLine
 10
5967.7500023255
 20
-9535.80317373221
 30
0.0
 11
5391.33632719328
 21
-9535.80317373221
 31
0.0
  0
LINE
  5
F3
330
1F
100
AcDbEntity
  8
1
  6
Continuous
 62
     7
100
AcDbLine
 10
5281.61630357541
 20
-9054.68235260357
 30
0.0
 11
5281.61630357541
 21
-9488.49078883089
 31
0.0
  0
LINE
  5
F4
330
1F
100
AcDbEntity
  8
1
  6
DASHED
 62
     3
100
AcDbLine
 10
5331.61630357541
 20
-8866.96962052705
 30
0.0
 11
6142.24966270539
 21
-8866.96962052705
 31
0.0
  0
LINE
  5
F5
330
1F
100
AcDbEntity
  8
1
  6
DASHED
 62
     3
100
AcDbLine
 10
6192.24966270539
 20
-8916.96962052705
 30
0.0
 11
6192.24966270539
 21
-9064.27119045858
 31
0.0
  0
LINE
  5
F6
330
1F
100
AcDbEntity
  8
1
  6
DASHED
 62
     3
100
AcDbLine
 10
5281.61630357541
 20
-8916.96962052705
 30
0.0
 11
5281.61630357541
 21
-9064.27119045858
 31
0.0
  0
LINE
  5
F7
330
1F
100
AcDbEntity
  8
1
  6
DASHED
 62
     3
100
AcDbLine
 10
8265.38302183537
 20
-8916.96962052705
 30
0.0
 11
8265.38302183537
 21
-9064.27119045858
 31
0.0
  0
LINE
  5
F8
330
1F
100
AcDbEntity
  8
1
  6
DASHED
 62
     3
100
AcDbLine
 10
9338.51638096535
 20
-8916.96962052705
 30
0.0
 11
9338.51638096535
 21
-9064.27119045858
 31
0.0
  0
LINE
  5
F9
330
1F
100
AcDbEntity
  8
1
  6
DASHED
 62
     3
100
AcDbLine
 10
8315.38302183537
 20
-8866.96962052705
 30
0.0
 11
9288.51638096535
 21
-8866.96962052705
 31
0.0
  0
LINE
  5
FA
330
1F
100
AcDbEntity
  8
1
  6
Continuous
 62
     7
100
AcDbLine
 10
8265.38302183537
 20
-9054.68235260357
 30
0.0
 11
8265.38302183537
 21
-9488.49078883089
 31
0.0
  0
LINE
  5
FB
330
1F
100
AcDbEntity
  8
0
  6
Continuous
 62
     7
100
AcDbLine
 10
9114.01672058547
 20
-9535.80317373221
 30
0.0
 11
8375.10304545324
 21
-9535.80317373221
 31
0.0
  0
LINE
  5
FC
330
1F
100
AcDbEntity
  8
1
  6
Continuous
 62
     7
100
AcDbLine
 10
9338.51638096535
 20
-9054.68235260357
 30
0.0
 11
9338.51638096535
 21
-9412.47636186676
 31
0.0
  0
LINE
  5
FD
330
1F
100
AcDbEntity
  8
1
  6
Continuous
 62
     7
100
AcDbLine
 10
8315.38302183537
 20
-9004.68235260357
 30
0.0
 11
9288.51638096535
 21
-9004.68235260357
 31
0.0
  0
LINE
  5
FE
330
1F
100
AcDbEntity
  8
1
  6
Continuous
 62
     7
100
AcDbLine
 10
9470.29546254262
 20
-9972.68780557573
 30
0.0
 11
9477.88302183537
 21
-9449.42710522846
 31
0.0
  0
LINE
  5
FF
330
1F
100
AcDbEntity
  8
1
  6
Continuous
 62
     7
100
AcDbLine
 10
9164.01672058547
 20
-10021.9628551148
 30
0.0
 11
9420.30071835056
 21
-10021.9628551148
 31
0.0
  0
LINE
  5
100
330
1F
100
AcDbEntity
  8
1
  6
Continuous
 62
     7
100
AcDbLine
 10
9114.01672058547
 20
-9514.52901073588
 30
0.0
 11
9114.01672058547
 21
-9971.96285511484
 31
0.0
  0
LINE
  5
101
330
1F
100
AcDbEntity
  8
1
  6
Continuous
 62
     7
100
AcDbLine
 10
7366.74932308528
 20
-10021.9628551148
 30
0.0
 11
9164.01672058547
 21
-10021.9628551148
 31
0.0
  0
LINE
  5
102
330
1F
100
AcDbEntity
  8
1
  6
DASHED
 62
     3
100
AcDbLine
 10
7192.24966270539
 20
-8916.96962052705
 30
0.0
 11
7192.24966270539
 21
-9064.27119045858
 31
0.0
  0
LINE
  5
103
330
1F
100
AcDbEntity
  8
1
  6
DASHED
 62
     3
100
AcDbLine
 10
7242.24966270539
 20
-8866.96962052705
 30
0.0
 11
8215.38302183537
 21
-8866.96962052705
 31
0.0
  0
LINE
  5
104
330
1F
100
AcDbEntity
  8
1
  6
Continuous
 62
     7
100
AcDbLine
 10
7416.74932308528
 20
-9971.96285511484
 30
0.0
 11
7416.74932308528
 21
-9514.52901073588
 31
0.0
  0
LINE
  5
105
330
1F
100
AcDbEntity
  8
1
  6
Continuous
 62
     7
100
AcDbLine
 10
7110.46532532019
 20
-10021.9628551148
 30
0.0
 11
7366.74932308528
 21
-10021.9628551148
 31
0.0
  0
LINE
  5
106
330
1F
100
AcDbEntity
  8
1
  6
Continuous
 62
     7
100
AcDbLine
 10
7052.88302183537
 20
-9449.42710522846
 30
0.0
 11
7060.47058112813
 21
-9972.68780557573
 31
0.0
  0
LINE
  5
107
330
1F
100
AcDbEntity
  8
1
  6
Continuous
 62
     1
100
AcDbLine
 10
9338.51638096535
 20
-9256.0
 30
0.0
 11
7192.24966270539
 21
-9256.0
 31
0.0
  0
LINE
  5
108
330
1F
100
AcDbEntity
  8
1
  6
Continuous
 62
     7
100
AcDbLine
 10
7242.24966270539
 20
-9004.68235260357
 30
0.0
 11
8215.38302183537
 21
-9004.68235260357
 31
0.0
  0
LINE
  5
109
330
1F
100
AcDbEntity
  8
1
  6
Continuous
 62
     7
100
AcDbLine
 10
7192.24966270539
 20
-9412.47636186676
 30
0.0
 11
7192.24966270539
 21
-9054.68235260357
 31
0.0
  0
LINE
  5
10A
330
1F
100
AcDbEntity
  8
0
  6
Continuous
 62
     7
100
AcDbLine
 10
8155.6629982175
 20
-9535.80317373221
 30
0.0
 11
7416.74932308528
 21
-9535.80317373221
 31
0.0
  0
LINE
  5
10B
330
1F
100
AcDbEntity
  8
1
  6
Continuous
 62
     7
100
AcDbLine
 10
106.164747904392
 20
-9535.80317373221
 30
0.0
 11
-220.248927227826
 21
-9535.80317373221
 31
0.0
  0
LINE
  5
10C
330
1F
100
AcDbEntity
  8
1
  6
DASHED
 62
     3
100
AcDbLine
 10
-394.748587607716
 20
-8866.96962052705
 30
0.0
 11
165.884771522265
 21
-8866.96962052705
 31
0.0
  0
LINE
  5
10D
330
1F
100
AcDbEntity
  8
1
  6
Continuous
 62
     1
100
AcDbLine
 10
3430.51813065373
 20
-9256.0
 30
0.0
 11
1876.51813065225
 21
-9256.0
 31
0.0
  0
LINE
  5
10E
330
1F
100
AcDbEntity
  8
0
  6
Continuous
 62
     7
100
AcDbLine
 10
809.51374232744
 20
-7823.73914587112
 30
0.0
 11
889.518130964321
 21
-7823.73914587112
 31
0.0
  0
LINE
  5
10F
330
1F
100
AcDbEntity
  8
0
  6
Continuous
 62
     7
100
AcDbLine
 10
809.509483413737
 20
-7823.73914587112
 30
0.0
 11
809.51374232744
 21
-7823.73914587112
 31
0.0
  0
LINE
  5
110
330
1F
100
AcDbEntity
  8
0
  6
Continuous
 62
     7
100
AcDbLine
 10
889.518130964321
 20
-7411.73889453181
 30
0.0
 11
889.518130964321
 21
-7823.73914587112
 31
0.0
  0
LINE
  5
111
330
1F
100
AcDbEntity
  8
1
  6
Continuous
 62
     7
100
AcDbLine
 10
215.884771522264
 20
-7536.57582197826
 30
0.0
 11
809.509483413737
 21
-7536.57582197826
 31
0.0
  0
LINE
  5
112
330
1F
100
AcDbEntity
  8
1
  6
Continuous
 62
     1
100
AcDbLine
 10
849.513807189029
 20
-7474.15872296255
 30
0.0
 11
849.513807189029
 21
-7823.73914587112
 31
0.0
  0
LINE
  5
113
330
1F
100
AcDbEntity
  8
1
  6
Continuous
 62
     7
100
AcDbLine
 10
809.509483413737
 20
-7823.73914587112
 30
0.0
 11
809.509483413737
 21
-7536.57582197826
 31
0.0
  0
LINE
  5
114
330
1F
100
AcDbEntity
  8
1
  6
Continuous
 62
     7
100
AcDbLine
 10
291.313952374338
 20
-7009.20996019718
 30
0.0
 11
756.134372383247
 21
-7009.20996019718
 31
0.0
  0
LINE
  5
115
330
1F
100
AcDbEntity
  8
1
  6
Continuous
 62
     1
100
AcDbLine
 10
215.884771522264
 20
-7474.15872296255
 30
0.0
 11
849.513807189029
 21
-7474.15872296255
 31
0.0
  0
LINE
  5
116
330
1F
100
AcDbEntity
  8
1
  6
Continuous
 62
     7
100
AcDbLine
 10
215.884771522264
 20
-7411.73889453181
 30
0.0
 11
889.518130964321
 21
-7411.73889453181
 31
0.0
  0
LINE
  5
117
330
1F
100
AcDbEntity
  8
1
  6
Continuous
 62
     7
100
AcDbLine
 10
-457.748587919794
 20
-7411.73889453181
 30
0.0
 11
215.884771522264
 21
-7411.73889453181
 31
0.0
  0
LINE
  5
118
330
1F
100
AcDbEntity
  8
1
  6
Continuous
 62
     1
100
AcDbLine
 10
-417.744264144502
 20
-7474.15872296255
 30
0.0
 11
215.884771522264
 21
-7474.15872296255
 31
0.0
  0
LINE
  5
119
330
1F
100
AcDbEntity
  8
1
  6
Continuous
 62
     7
100
AcDbLine
 10
-324.364829338717
 20
-7009.20996019718
 30
0.0
 11
140.455590670188
 21
-7009.20996019718
 31
0.0
  0
LINE
  5
11A
330
1F
100
AcDbEntity
  8
1
  6
Continuous
 62
     7
100
AcDbLine
 10
-377.73994036921
 20
-7536.57582197826
 30
0.0
 11
-377.73994036921
 21
-7823.73914587112
 31
0.0
  0
LINE
  5
11B
330
1F
100
AcDbEntity
  8
1
  6
Continuous
 62
     1
100
AcDbLine
 10
-417.744264144502
 20
-7823.73914587112
 30
0.0
 11
-417.744264144502
 21
-7474.15872296255
 31
0.0
  0
LINE
  5
11C
330
1F
100
AcDbEntity
  8
1
  6
Continuous
 62
     7
100
AcDbLine
 10
-377.73994036921
 20
-7536.57582197826
 30
0.0
 11
215.884771522264
 21
-7536.57582197826
 31
0.0
  0
LINE
  5
11D
330
1F
100
AcDbEntity
  8
0
  6
Continuous
 62
     7
100
AcDbLine
 10
-457.748587919793
 20
-7823.73914587112
 30
0.0
 11
-457.748587919794
 21
-7411.73889453181
 31
0.0
  0
LINE
  5
11E
330
1F
100
AcDbEntity
  8
0
  6
Continuous
 62
     7
100
AcDbLine
 10
-377.744199282913
 20
-7823.73914587112
 30
0.0
 11
-377.73994036921
 21
-7823.73914587112
 31
0.0
  0
LINE
  5
11F
330
1F
100
AcDbEntity
  8
0
  6
Continuous
 62
     7
100
AcDbLine
 10
-457.748587919793
 20
-7823.73914587112
 30
0.0
 11
-377.744199282913
 21
-7823.73914587112
 31
0.0
  0
LINE
  5
120
330
1F
100
AcDbEntity
  8
1
  6
Continuous
 62
     1
100
AcDbLine
 10
-336.86204880578
 20
-7026.69472840175
 30
0.0
 11
140.455590670188
 21
-7026.69472840175
 31
0.0
  0
LINE
  5
121
330
1F
100
AcDbEntity
  8
1
  6
Continuous
 62
     1
100
AcDbLine
 10
291.313952374338
 20
-7026.69472840175
 30
0.0
 11
768.631591850308
 21
-7026.69472840175
 31
0.0
  0
LINE
  5
122
330
1F
100
AcDbEntity
  8
1
  6
DASHED
 62
     3
100
AcDbLine
 10
-394.748587607717
 20
-6873.84550109108
 30
0.0
 11
165.884771522264
 21
-6873.84550109108
 31
0.0
  0
LINE
  5
123
330
1F
100
AcDbEntity
  8
1
  6
DASHED
 62
     3
100
AcDbLine
 10
265.884771522264
 20
-6873.84550109108
 30
0.0
 11
826.518130652245
 21
-6873.84550109108
 31
0.0
  0
LINE
  5
124
330
1F
100
AcDbEntity
  8
1
  6
DASHED
 62
     3
100
AcDbLine
 10
-444.748587607717
 20
-6923.84550109108
 30
0.0
 11
-444.748587607717
 21
-7071.14707102261
 31
0.0
  0
LINE
  5
125
330
1F
100
AcDbEntity
  8
1
  6
DASHED
 62
     3
100
AcDbLine
 10
215.884771522264
 20
-6923.84550109108
 30
0.0
 11
215.884771522264
 21
-7071.14707102261
 31
0.0
  0
LINE
  5
126
330
1F
100
AcDbEntity
  8
1
  6
Continuous
 62
     7
100
AcDbLine
 10
-377.73994036921
 20
-7666.73914587112
 30
0.0
 11
809.509483413737
 21
-7666.73914587112
 31
0.0
  0
LINE
  5
127
330
1F
100
AcDbEntity
  8
1
  6
Continuous
 62
     7
100
AcDbLine
 10
215.884771522264
 20
-7019.57582197826
 30
0.0
 11
215.884771522264
 21
-7666.73914587112
 31
0.0
  0
LINE
  5
128
330
1F
100
AcDbEntity
  8
1
  6
Continuous
 62
     7
100
AcDbLine
 10
5281.61630357541
 20
-7019.57582197826
 30
0.0
 11
5281.61630357541
 21
-7666.73914587112
 31
0.0
  0
LINE
  5
129
330
1F
100
AcDbEntity
  8
1
  6
Continuous
 62
     7
100
AcDbLine
 10
4437.99159168394
 20
-7666.73914587112
 30
0.0
 11
6125.24101546688
 21
-7666.73914587112
 31
0.0
  0
LINE
  5
12A
330
1F
100
AcDbEntity
  8
1
  6
DASHED
 62
     3
100
AcDbLine
 10
6192.24966270539
 20
-6923.84550109108
 30
0.0
 11
6192.24966270539
 21
-7071.14707102261
 31
0.0
  0
LINE
  5
12B
330
1F
100
AcDbEntity
  8
1
  6
DASHED
 62
     3
100
AcDbLine
 10
5281.61630357541
 20
-6923.84550109108
 30
0.0
 11
5281.61630357541
 21
-7071.14707102261
 31
0.0
  0
LINE
  5
12C
330
1F
100
AcDbEntity
  8
1
  6
DASHED
 62
     3
100
AcDbLine
 10
4370.98294444543
 20
-6923.84550109108
 30
0.0
 11
4370.98294444543
 21
-7071.14707102261
 31
0.0
  0
LINE
  5
12D
330
1F
100
AcDbEntity
  8
1
  6
DASHED
 62
     3
100
AcDbLine
 10
5331.61630357541
 20
-6873.84550109108
 30
0.0
 11
6142.24966270539
 21
-6873.84550109108
 31
0.0
  0
LINE
  5
12E
330
1F
100
AcDbEntity
  8
1
  6
DASHED
 62
     3
100
AcDbLine
 10
4420.98294444543
 20
-6873.84550109108
 30
0.0
 11
5231.61630357541
 21
-6873.84550109108
 31
0.0
  0
LINE
  5
12F
330
1F
100
AcDbEntity
  8
1
  6
Continuous
 62
     1
100
AcDbLine
 10
5357.04548442748
 20
-7026.69472840175
 30
0.0
 11
6084.36312390345
 21
-7026.69472840175
 31
0.0
  0
LINE
  5
130
330
1F
100
AcDbEntity
  8
1
  6
Continuous
 62
     1
100
AcDbLine
 10
4478.86948324734
 20
-7026.69472840175
 30
0.0
 11
5206.18712272333
 21
-7026.69472840175
 31
0.0
  0
LINE
  5
131
330
1F
100
AcDbEntity
  8
0
  6
Continuous
 62
     7
100
AcDbLine
 10
4357.98294413335
 20
-7823.73914587112
 30
0.0
 11
4437.98733277023
 21
-7823.73914587112
 31
0.0
  0
LINE
  5
132
330
1F
100
AcDbEntity
  8
0
  6
Continuous
 62
     7
100
AcDbLine
 10
4437.98733277023
 20
-7823.73914587112
 30
0.0
 11
4437.99159168394
 21
-7823.73914587112
 31
0.0
  0
LINE
  5
133
330
1F
100
AcDbEntity
  8
0
  6
Continuous
 62
     7
100
AcDbLine
 10
4357.98294413335
 20
-7823.73914587112
 30
0.0
 11
4357.98294413335
 21
-7411.73889453181
 31
0.0
  0
LINE
  5
134
330
1F
100
AcDbEntity
  8
1
  6
Continuous
 62
     7
100
AcDbLine
 10
4437.99159168394
 20
-7536.57582197826
 30
0.0
 11
5281.61630357541
 21
-7536.57582197826
 31
0.0
  0
LINE
  5
135
330
1F
100
AcDbEntity
  8
1
  6
Continuous
 62
     1
100
AcDbLine
 10
4397.98726790864
 20
-7823.73914587112
 30
0.0
 11
4397.98726790864
 21
-7474.15872296255
 31
0.0
  0
LINE
  5
136
330
1F
100
AcDbEntity
  8
1
  6
Continuous
 62
     7
100
AcDbLine
 10
4437.99159168394
 20
-7536.57582197826
 30
0.0
 11
4437.99159168394
 21
-7823.73914587112
 31
0.0
  0
LINE
  5
137
330
1F
100
AcDbEntity
  8
1
  6
Continuous
 62
     7
100
AcDbLine
 10
4491.36670271443
 20
-7009.20996019718
 30
0.0
 11
5206.18712272333
 21
-7009.20996019718
 31
0.0
  0
LINE
  5
138
330
1F
100
AcDbEntity
  8
1
  6
Continuous
 62
     1
100
AcDbLine
 10
4397.98726790864
 20
-7474.15872296255
 30
0.0
 11
5281.61630357541
 21
-7474.15872296255
 31
0.0
  0
LINE
  5
139
330
1F
100
AcDbEntity
  8
1
  6
Continuous
 62
     7
100
AcDbLine
 10
4357.98294413335
 20
-7411.73889453181
 30
0.0
 11
5281.61630357541
 21
-7411.73889453181
 31
0.0
  0
LINE
  5
13A
330
1F
100
AcDbEntity
  8
1
  6
Continuous
 62
     7
100
AcDbLine
 10
5281.61630357541
 20
-7411.73889453181
 30
0.0
 11
6205.24966301747
 21
-7411.73889453181
 31
0.0
  0
LINE
  5
13B
330
1F
100
AcDbEntity
  8
1
  6
Continuous
 62
     1
100
AcDbLine
 10
5281.61630357541
 20
-7474.15872296255
 30
0.0
 11
6165.24533924217
 21
-7474.15872296255
 31
0.0
  0
LINE
  5
13C
330
1F
100
AcDbEntity
  8
1
  6
Continuous
 62
     7
100
AcDbLine
 10
5357.04548442748
 20
-7009.20996019718
 30
0.0
 11
6071.86590443639
 21
-7009.20996019718
 31
0.0
  0
LINE
  5
13D
330
1F
100
AcDbEntity
  8
1
  6
Continuous
 62
     7
100
AcDbLine
 10
6192.24966270539
 20
-7069.21751228945
 30
0.0
 11
6192.24966270539
 21
-7314.82508558761
 31
0.0
  0
LINE
  5
13E
330
1F
100
AcDbEntity
  8
1
  6
Continuous
 62
     7
100
AcDbLine
 10
6125.24101546688
 20
-7823.73914587112
 30
0.0
 11
6125.24101546688
 21
-7536.57582197826
 31
0.0
  0
LINE
  5
13F
330
1F
100
AcDbEntity
  8
1
  6
Continuous
 62
     1
100
AcDbLine
 10
6165.24533924217
 20
-7474.15872296255
 30
0.0
 11
6165.24533924217
 21
-7823.73914587112
 31
0.0
  0
LINE
  5
140
330
1F
100
AcDbEntity
  8
1
  6
Continuous
 62
     7
100
AcDbLine
 10
5281.61630357541
 20
-7536.57582197826
 30
0.0
 11
6125.24101546688
 21
-7536.57582197826
 31
0.0
  0
LINE
  5
141
330
1F
100
AcDbEntity
  8
0
  6
Continuous
 62
     7
100
AcDbLine
 10
6205.24966301747
 20
-7411.73889453181
 30
0.0
 11
6205.24966301747
 21
-7823.73914587112
 31
0.0
  0
LINE
  5
142
330
1F
100
AcDbEntity
  8
0
  6
Continuous
 62
     7
100
AcDbLine
 10
6125.24101546688
 20
-7823.73914587112
 30
0.0
 11
6125.24527438059
 21
-7823.73914587112
 31
0.0
  0
LINE
  5
143
330
1F
100
AcDbEntity
  8
0
  6
Continuous
 62
     7
100
AcDbLine
 10
6125.24527438059
 20
-7823.73914587112
 30
0.0
 11
6205.24966301747
 21
-7823.73914587112
 31
0.0
  0
LINE
  5
144
330
1F
100
AcDbEntity
  8
0
  6
Continuous
 62
     7
100
AcDbLine
 10
9271.51199264055
 20
-7823.73914587112
 30
0.0
 11
9351.51638127743
 21
-7823.73914587112
 31
0.0
  0
LINE
  5
145
330
1F
100
AcDbEntity
  8
0
  6
Continuous
 62
     7
100
AcDbLine
 10
9271.50773372684
 20
-7823.73914587112
 30
0.0
 11
9271.51199264055
 21
-7823.73914587112
 31
0.0
  0
LINE
  5
146
330
1F
100
AcDbEntity
  8
0
  6
Continuous
 62
     7
100
AcDbLine
 10
9351.51638127743
 20
-7411.73889453181
 30
0.0
 11
9351.51638127743
 21
-7823.73914587112
 31
0.0
  0
LINE
  5
147
330
1F
100
AcDbEntity
  8
1
  6
Continuous
 62
     7
100
AcDbLine
 10
8265.38302183537
 20
-7536.57582197826
 30
0.0
 11
9271.50773372684
 21
-7536.57582197826
 31
0.0
  0
LINE
  5
148
330
1F
100
AcDbEntity
  8
1
  6
Continuous
 62
     1
100
AcDbLine
 10
9311.51205750214
 20
-7474.15872296255
 30
0.0
 11
9311.51205750214
 21
-7823.73914587112
 31
0.0
  0
LINE
  5
149
330
1F
100
AcDbEntity
  8
1
  6
Continuous
 62
     7
100
AcDbLine
 10
9271.50773372684
 20
-7823.73914587112
 30
0.0
 11
9271.50773372684
 21
-7536.57582197826
 31
0.0
  0
LINE
  5
14A
330
1F
100
AcDbEntity
  8
1
  6
Continuous
 62
     7
100
AcDbLine
 10
9338.51638096535
 20
-7069.21751228945
 30
0.0
 11
9338.51638096535
 21
-7314.82508558761
 31
0.0
  0
LINE
  5
14B
330
1F
100
AcDbEntity
  8
1
  6
Continuous
 62
     7
100
AcDbLine
 10
8340.81220268745
 20
-7009.20996019718
 30
0.0
 11
9218.13262269635
 21
-7009.20996019718
 31
0.0
  0
LINE
  5
14C
330
1F
100
AcDbEntity
  8
1
  6
Continuous
 62
     1
100
AcDbLine
 10
8265.38302183537
 20
-7474.15872296255
 30
0.0
 11
9311.51205750214
 21
-7474.15872296255
 31
0.0
  0
LINE
  5
14D
330
1F
100
AcDbEntity
  8
1
  6
Continuous
 62
     7
100
AcDbLine
 10
8265.38302183537
 20
-7411.73889453181
 30
0.0
 11
9351.51638127743
 21
-7411.73889453181
 31
0.0
  0
LINE
  5
14E
330
1F
100
AcDbEntity
  8
1
  6
Continuous
 62
     7
100
AcDbLine
 10
7179.24966239331
 20
-7411.73889453181
 30
0.0
 11
8265.38302183537
 21
-7411.73889453181
 31
0.0
  0
LINE
  5
14F
330
1F
100
AcDbEntity
  8
1
  6
Continuous
 62
     1
100
AcDbLine
 10
7219.25398616861
 20
-7474.15872296255
 30
0.0
 11
8265.38302183537
 21
-7474.15872296255
 31
0.0
  0
LINE
  5
150
330
1F
100
AcDbEntity
  8
1
  6
Continuous
 62
     7
100
AcDbLine
 10
7312.63342097439
 20
-7009.20996019718
 30
0.0
 11
8189.9538409833
 21
-7009.20996019718
 31
0.0
  0
LINE
  5
151
330
1F
100
AcDbEntity
  8
1
  6
Continuous
 62
     7
100
AcDbLine
 10
7259.2583099439
 20
-7536.57582197826
 30
0.0
 11
7259.2583099439
 21
-7823.73914587112
 31
0.0
  0
LINE
  5
152
330
1F
100
AcDbEntity
  8
1
  6
Continuous
 62
     1
100
AcDbLine
 10
7219.25398616861
 20
-7823.73914587112
 30
0.0
 11
7219.25398616861
 21
-7474.15872296255
 31
0.0
  0
LINE
  5
153
330
1F
100
AcDbEntity
  8
1
  6
Continuous
 62
     7
100
AcDbLine
 10
7259.2583099439
 20
-7536.57582197826
 30
0.0
 11
8265.38302183537
 21
-7536.57582197826
 31
0.0
  0
LINE
  5
154
330
1F
100
AcDbEntity
  8
0
  6
Continuous
 62
     7
100
AcDbLine
 10
7179.24966239331
 20
-7823.73914587112
 30
0.0
 11
7179.24966239331
 21
-7411.73889453181
 31
0.0
  0
LINE
  5
155
330
1F
100
AcDbEntity
  8
0
  6
Continuous
 62
     7
100
AcDbLine
 10
7259.2540510302
 20
-7823.73914587112
 30
0.0
 11
7259.2583099439
 21
-7823.73914587112
 31
0.0
  0
LINE
  5
156
330
1F
100
AcDbEntity
  8
0
  6
Continuous
 62
     7
100
AcDbLine
 10
7179.24966239331
 20
-7823.73914587112
 30
0.0
 11
7259.2540510302
 21
-7823.73914587112
 31
0.0
  0
LINE
  5
157
330
1F
100
AcDbEntity
  8
1
  6
Continuous
 62
     1
100
AcDbLine
 10
7300.1362015073
 20
-7026.69472840175
 30
0.0
 11
8189.9538409833
 21
-7026.69472840175
 31
0.0
  0
LINE
  5
158
330
1F
100
AcDbEntity
  8
1
  6
Continuous
 62
     1
100
AcDbLine
 10
8340.81220268745
 20
-7026.69472840175
 30
0.0
 11
9230.62984216342
 21
-7026.69472840175
 31
0.0
  0
LINE
  5
159
330
1F
100
AcDbEntity
  8
1
  6
DASHED
 62
     3
100
AcDbLine
 10
7242.24966270539
 20
-6873.84550109108
 30
0.0
 11
8215.38302183537
 21
-6873.84550109108
 31
0.0
  0
LINE
  5
15A
330
1F
100
AcDbEntity
  8
1
  6
DASHED
 62
     3
100
AcDbLine
 10
8315.38302183537
 20
-6873.84550109108
 30
0.0
 11
9288.51638096535
 21
-6873.84550109108
 31
0.0
  0
LINE
  5
15B
330
1F
100
AcDbEntity
  8
1
  6
DASHED
 62
     3
100
AcDbLine
 10
7192.24966270539
 20
-6923.84550109108
 30
0.0
 11
7192.24966270539
 21
-7071.14707102261
 31
0.0
  0
LINE
  5
15C
330
1F
100
AcDbEntity
  8
1
  6
DASHED
 62
     3
100
AcDbLine
 10
8265.38302183537
 20
-6923.84550109108
 30
0.0
 11
8265.38302183537
 21
-7071.14707102261
 31
0.0
  0
LINE
  5
15D
330
1F
100
AcDbEntity
  8
1
  6
DASHED
 62
     3
100
AcDbLine
 10
9338.51638096535
 20
-6923.84550109108
 30
0.0
 11
9338.51638096535
 21
-7071.14707102261
 31
0.0
  0
LINE
  5
15E
330
1F
100
AcDbEntity
  8
1
  6
Continuous
 62
     7
100
AcDbLine
 10
7192.24966270539
 20
-7314.82508558761
 30
0.0
 11
7192.24966270539
 21
-7069.21751228945
 31
0.0
  0
LINE
  5
15F
330
1F
100
AcDbEntity
  8
1
  6
Continuous
 62
     7
100
AcDbLine
 10
7259.2583099439
 20
-7666.73914587112
 30
0.0
 11
9271.50773372684
 21
-7666.73914587112
 31
0.0
  0
LINE
  5
160
330
1F
100
AcDbEntity
  8
1
  6
Continuous
 62
     7
100
AcDbLine
 10
8265.38302183537
 20
-7019.57582197826
 30
0.0
 11
8265.38302183537
 21
-7666.73914587112
 31
0.0
  0
LINE
  5
161
330
1F
100
AcDbEntity
  8
1
  6
Continuous
 62
     7
100
AcDbLine
 10
2653.51813065299
 20
-7019.57582197826
 30
0.0
 11
2653.51813065299
 21
-7666.73914587112
 31
0.0
  0
LINE
  5
162
330
1F
100
AcDbEntity
  8
1
  6
Continuous
 62
     7
100
AcDbLine
 10
1943.52677789075
 20
-7666.73914587112
 30
0.0
 11
3363.50948341522
 21
-7666.73914587112
 31
0.0
  0
LINE
  5
163
330
1F
100
AcDbEntity
  8
1
  6
DASHED
 62
     3
100
AcDbLine
 10
3430.51813065373
 20
-6923.84550109108
 30
0.0
 11
3430.51813065373
 21
-7071.14707102261
 31
0.0
  0
LINE
  5
164
330
1F
100
AcDbEntity
  8
1
  6
DASHED
 62
     3
100
AcDbLine
 10
2653.51813065299
 20
-6923.84550109108
 30
0.0
 11
2653.51813065299
 21
-7071.14707102261
 31
0.0
  0
LINE
  5
165
330
1F
100
AcDbEntity
  8
1
  6
DASHED
 62
     3
100
AcDbLine
 10
1876.51813065225
 20
-6923.84550109108
 30
0.0
 11
1876.51813065225
 21
-7071.14707102261
 31
0.0
  0
LINE
  5
166
330
1F
100
AcDbEntity
  8
1
  6
DASHED
 62
     3
100
AcDbLine
 10
2703.51813065299
 20
-6873.84550109108
 30
0.0
 11
3380.51813065373
 21
-6873.84550109108
 31
0.0
  0
LINE
  5
167
330
1F
100
AcDbEntity
  8
1
  6
DASHED
 62
     3
100
AcDbLine
 10
1926.51813065225
 20
-6873.84550109108
 30
0.0
 11
2603.51813065299
 21
-6873.84550109108
 31
0.0
  0
LINE
  5
168
330
1F
100
AcDbEntity
  8
1
  6
Continuous
 62
     1
100
AcDbLine
 10
2728.94731150506
 20
-7026.69472840175
 30
0.0
 11
3322.63159185179
 21
-7026.69472840175
 31
0.0
  0
LINE
  5
169
330
1F
100
AcDbEntity
  8
1
  6
Continuous
 62
     1
100
AcDbLine
 10
1984.40466945418
 20
-7026.69472840175
 30
0.0
 11
2578.08894980091
 21
-7026.69472840175
 31
0.0
  0
LINE
  5
16A
330
1F
100
AcDbEntity
  8
0
  6
Continuous
 62
     7
100
AcDbLine
 10
1863.51813034017
 20
-7823.73914587112
 30
0.0
 11
1943.52251897705
 21
-7823.73914587112
 31
0.0
  0
LINE
  5
16B
330
1F
100
AcDbEntity
  8
0
  6
Continuous
 62
     7
100
AcDbLine
 10
1943.52251897705
 20
-7823.73914587112
 30
0.0
 11
1943.52677789075
 21
-7823.73914587112
 31
0.0
  0
LINE
  5
16C
330
1F
100
AcDbEntity
  8
0
  6
Continuous
 62
     7
100
AcDbLine
 10
1863.51813034017
 20
-7823.73914587112
 30
0.0
 11
1863.51813034017
 21
-7411.73889453181
 31
0.0
  0
LINE
  5
16D
330
1F
100
AcDbEntity
  8
1
  6
Continuous
 62
     7
100
AcDbLine
 10
1943.52677789075
 20
-7536.57582197826
 30
0.0
 11
2653.51813065299
 21
-7536.57582197826
 31
0.0
  0
LINE
  5
16E
330
1F
100
AcDbEntity
  8
1
  6
Continuous
 62
     1
100
AcDbLine
 10
1903.52245411546
 20
-7823.73914587112
 30
0.0
 11
1903.52245411546
 21
-7474.15872296255
 31
0.0
  0
LINE
  5
16F
330
1F
100
AcDbEntity
  8
1
  6
Continuous
 62
     7
100
AcDbLine
 10
1943.52677789075
 20
-7536.57582197826
 30
0.0
 11
1943.52677789075
 21
-7823.73914587112
 31
0.0
  0
LINE
  5
170
330
1F
100
AcDbEntity
  8
1
  6
Continuous
 62
     7
100
AcDbLine
 10
1984.40466945418
 20
-7009.20996019718
 30
0.0
 11
2578.08894980091
 21
-7009.20996019718
 31
0.0
  0
LINE
  5
171
330
1F
100
AcDbEntity
  8
1
  6
Continuous
 62
     1
100
AcDbLine
 10
1903.52245411546
 20
-7474.15872296255
 30
0.0
 11
2653.51813065299
 21
-7474.15872296255
 31
0.0
  0
LINE
  5
172
330
1F
100
AcDbEntity
  8
1
  6
Continuous
 62
     7
100
AcDbLine
 10
1863.51813034017
 20
-7411.73889453181
 30
0.0
 11
2653.51813065299
 21
-7411.73889453181
 31
0.0
  0
LINE
  5
173
330
1F
100
AcDbEntity
  8
1
  6
Continuous
 62
     7
100
AcDbLine
 10
2653.51813065299
 20
-7411.73889453181
 30
0.0
 11
3443.51813096581
 21
-7411.73889453181
 31
0.0
  0
LINE
  5
174
330
1F
100
AcDbEntity
  8
1
  6
Continuous
 62
     1
100
AcDbLine
 10
2653.51813065299
 20
-7474.15872296255
 30
0.0
 11
3403.51380719051
 21
-7474.15872296255
 31
0.0
  0
LINE
  5
175
330
1F
100
AcDbEntity
  8
1
  6
Continuous
 62
     7
100
AcDbLine
 10
2728.94731150506
 20
-7009.20996019718
 30
0.0
 11
3322.63159185179
 21
-7009.20996019718
 31
0.0
  0
LINE
  5
176
330
1F
100
AcDbEntity
  8
1
  6
Continuous
 62
     7
100
AcDbLine
 10
3363.50948341522
 20
-7823.73914587112
 30
0.0
 11
3363.50948341522
 21
-7536.57582197826
 31
0.0
  0
LINE
  5
177
330
1F
100
AcDbEntity
  8
1
  6
Continuous
 62
     1
100
AcDbLine
 10
3403.51380719051
 20
-7474.15872296255
 30
0.0
 11
3403.51380719051
 21
-7823.73914587112
 31
0.0
  0
LINE
  5
178
330
1F
100
AcDbEntity
  8
1
  6
Continuous
 62
     7
100
AcDbLine
 10
2653.51813065299
 20
-7536.57582197826
 30
0.0
 11
3363.50948341522
 21
-7536.57582197826
 31
0.0
  0
LINE
  5
179
330
1F
100
AcDbEntity
  8
0
  6
Continuous
 62
     7
100
AcDbLine
 10
3443.51813096581
 20
-7411.73889453181
 30
0.0
 11
3443.51813096581
 21
-7823.73914587112
 31
0.0
  0
LINE
  5
17A
330
1F
100
AcDbEntity
  8
0
  6
Continuous
 62
     7
100
AcDbLine
 10
3363.50948341522
 20
-7823.73914587112
 30
0.0
 11
3363.51374232892
 21
-7823.73914587112
 31
0.0
  0
LINE
  5
17B
330
1F
100
AcDbEntity
  8
0
  6
Continuous
 62
     7
100
AcDbLine
 10
3363.51374232892
 20
-7823.73914587112
 30
0.0
 11
3443.51813096581
 21
-7823.73914587112
 31
0.0
  0
LINE
  5
17C
330
1F
100
AcDbEntity
  8
1
  6
DASHED
 62
     3
100
AcDbLine
 10
-444.748587607718
 20
-7051.73000445296
 30
0.0
 11
-444.748587607718
 21
-7031.92636379921
 31
0.0
  0
LINE
  5
17D
330
1F
100
AcDbEntity
  8
1
  6
DASHED
 62
     3
100
AcDbLine
 10
-444.748587607724
 20
-7096.05821056981
 30
0.0
 11
-444.748587607724
 21
-7071.75182105476
 31
0.0
  0
LINE
  5
17E
330
1F
100
AcDbEntity
  8
1
  6
DASHED
 62
     3
100
AcDbLine
 10
3430.51813065373
 20
-7031.92636379921
 30
0.0
 11
3430.51813065373
 21
-7051.73000445296
 31
0.0
  0
LINE
  5
17F
330
1F
100
AcDbEntity
  8
1
  6
DASHED
 62
     3
100
AcDbLine
 10
3430.51813065373
 20
-7071.75182105476
 30
0.0
 11
3430.51813065373
 21
-7096.05821056981
 31
0.0
  0
LINE
  5
180
330
1F
100
AcDbEntity
  8
1
  6
DASHED
 62
     3
100
AcDbLine
 10
1876.51813065225
 20
-7096.05821056981
 30
0.0
 11
1876.51813065225
 21
-7071.75182105476
 31
0.0
  0
LINE
  5
181
330
1F
100
AcDbEntity
  8
1
  6
DASHED
 62
     3
100
AcDbLine
 10
1876.51813065225
 20
-7051.73000445296
 30
0.0
 11
1876.51813065225
 21
-7031.92636379921
 31
0.0
  0
LINE
  5
182
330
1F
100
AcDbEntity
  8
1
  6
Continuous
 62
     1
100
AcDbLine
 10
2728.94731150506
 20
-7026.69472840175
 30
0.0
 11
3206.26495098103
 21
-7026.69472840175
 31
0.0
  0
LINE
  5
183
330
1F
100
AcDbEntity
  8
1
  6
Continuous
 62
     1
100
AcDbLine
 10
2100.77131032494
 20
-7026.69472840175
 30
0.0
 11
2578.08894980091
 21
-7026.69472840175
 31
0.0
  0
LINE
  5
184
330
1F
100
AcDbEntity
  8
1
  6
Continuous
 62
     7
100
AcDbLine
 10
2113.26852979201
 20
-7009.20996019718
 30
0.0
 11
2578.08894980091
 21
-7009.20996019718
 31
0.0
  0
LINE
  5
185
330
1F
100
AcDbEntity
  8
1
  6
Continuous
 62
     7
100
AcDbLine
 10
2728.94731150506
 20
-7009.20996019718
 30
0.0
 11
3193.76773151397
 21
-7009.20996019718
 31
0.0
  0
LINE
  5
186
330
1F
100
AcDbEntity
  8
1
  6
Continuous
 62
     7
100
AcDbLine
 10
5357.04548442748
 20
-7009.20996019718
 30
0.0
 11
5821.86590443639
 21
-7009.20996019718
 31
0.0
  0
LINE
  5
187
330
1F
100
AcDbEntity
  8
1
  6
Continuous
 62
     7
100
AcDbLine
 10
4741.36670271443
 20
-7009.20996019718
 30
0.0
 11
5206.18712272333
 21
-7009.20996019718
 31
0.0
  0
LINE
  5
188
330
1F
100
AcDbEntity
  8
1
  6
Continuous
 62
     1
100
AcDbLine
 10
4728.86948324737
 20
-7026.69472840175
 30
0.0
 11
5206.18712272333
 21
-7026.69472840175
 31
0.0
  0
LINE
  5
189
330
1F
100
AcDbEntity
  8
1
  6
Continuous
 62
     1
100
AcDbLine
 10
5357.04548442748
 20
-7026.69472840175
 30
0.0
 11
5834.36312390345
 21
-7026.69472840175
 31
0.0
  0
LINE
  5
18A
330
1F
100
AcDbEntity
  8
1
  6
DASHED
 62
     3
100
AcDbLine
 10
4370.98294444543
 20
-7051.73000445296
 30
0.0
 11
4370.98294444543
 21
-7031.92636379921
 31
0.0
  0
LINE
  5
18B
330
1F
100
AcDbEntity
  8
1
  6
DASHED
 62
     3
100
AcDbLine
 10
4370.98294444543
 20
-7096.05821056981
 30
0.0
 11
4370.98294444543
 21
-7071.75182105476
 31
0.0
  0
LINE
  5
18C
330
1F
100
AcDbEntity
  8
1
  6
DASHED
 62
     3
100
AcDbLine
 10
6192.24966270539
 20
-7071.75182105476
 30
0.0
 11
6192.24966270539
 21
-7096.05821056981
 31
0.0
  0
LINE
  5
18D
330
1F
100
AcDbEntity
  8
1
  6
DASHED
 62
     3
100
AcDbLine
 10
6192.24966270539
 20
-7031.92636379921
 30
0.0
 11
6192.24966270539
 21
-7051.73000445296
 31
0.0
  0
LINE
  5
18E
330
1F
100
AcDbEntity
  8
1
  6
Continuous
 62
     7
100
AcDbLine
 10
5357.04548442748
 20
-7009.20996019718
 30
0.0
 11
5950.72976477421
 21
-7009.20996019718
 31
0.0
  0
LINE
  5
18F
330
1F
100
AcDbEntity
  8
1
  6
Continuous
 62
     7
100
AcDbLine
 10
4612.5028423766
 20
-7009.20996019718
 30
0.0
 11
5206.18712272333
 21
-7009.20996019718
 31
0.0
  0
LINE
  5
190
330
1F
100
AcDbEntity
  8
1
  6
Continuous
 62
     1
100
AcDbLine
 10
4612.5028423766
 20
-7026.69472840175
 30
0.0
 11
5206.18712272333
 21
-7026.69472840175
 31
0.0
  0
LINE
  5
191
330
1F
100
AcDbEntity
  8
1
  6
Continuous
 62
     1
100
AcDbLine
 10
5357.04548442748
 20
-7026.69472840175
 30
0.0
 11
5950.72976477421
 21
-7026.69472840175
 31
0.0
  0
LINE
  5
192
330
1F
100
AcDbEntity
  8
1
  6
Continuous
 62
     1
100
AcDbLine
 10
8340.81220268745
 20
-7026.69472840175
 30
0.0
 11
8934.49648303418
 21
-7026.69472840175
 31
0.0
  0
LINE
  5
193
330
1F
100
AcDbEntity
  8
1
  6
Continuous
 62
     1
100
AcDbLine
 10
7596.26956063657
 20
-7026.69472840175
 30
0.0
 11
8189.9538409833
 21
-7026.69472840175
 31
0.0
  0
LINE
  5
194
330
1F
100
AcDbEntity
  8
1
  6
Continuous
 62
     7
100
AcDbLine
 10
7596.26956063657
 20
-7009.20996019718
 30
0.0
 11
8189.9538409833
 21
-7009.20996019718
 31
0.0
  0
LINE
  5
195
330
1F
100
AcDbEntity
  8
1
  6
Continuous
 62
     7
100
AcDbLine
 10
8340.81220268745
 20
-7009.20996019718
 30
0.0
 11
8934.49648303418
 21
-7009.20996019718
 31
0.0
  0
LINE
  5
196
330
1F
100
AcDbEntity
  8
1
  6
DASHED
 62
     3
100
AcDbLine
 10
9338.51638096535
 20
-7031.92636379921
 30
0.0
 11
9338.51638096535
 21
-7051.73000445296
 31
0.0
  0
LINE
  5
197
330
1F
100
AcDbEntity
  8
1
  6
DASHED
 62
     3
100
AcDbLine
 10
9338.51638096535
 20
-7071.75182105476
 30
0.0
 11
9338.51638096535
 21
-7096.05821056981
 31
0.0
  0
LINE
  5
198
330
1F
100
AcDbEntity
  8
1
  6
DASHED
 62
     3
100
AcDbLine
 10
7192.24966270539
 20
-7096.05821056981
 30
0.0
 11
7192.24966270539
 21
-7071.75182105476
 31
0.0
  0
LINE
  5
199
330
1F
100
AcDbEntity
  8
1
  6
DASHED
 62
     3
100
AcDbLine
 10
7192.24966270539
 20
-7051.73000445296
 30
0.0
 11
7192.24966270539
 21
-7031.92636379921
 31
0.0
  0
LINE
  5
19A
330
1F
100
AcDbEntity
  8
1
  6
Continuous
 62
     1
100
AcDbLine
 10
8340.81220268745
 20
-7026.69472840175
 30
0.0
 11
8818.12984216342
 21
-7026.69472840175
 31
0.0
  0
LINE
  5
19B
330
1F
100
AcDbEntity
  8
1
  6
Continuous
 62
     1
100
AcDbLine
 10
7712.63620150733
 20
-7026.69472840175
 30
0.0
 11
8189.9538409833
 21
-7026.69472840175
 31
0.0
  0
LINE
  5
19C
330
1F
100
AcDbEntity
  8
1
  6
Continuous
 62
     7
100
AcDbLine
 10
7725.13342097439
 20
-7009.20996019718
 30
0.0
 11
8189.9538409833
 21
-7009.20996019718
 31
0.0
  0
LINE
  5
19D
330
1F
100
AcDbEntity
  8
1
  6
Continuous
 62
     7
100
AcDbLine
 10
8340.81220268745
 20
-7009.20996019718
 30
0.0
 11
8805.63262269635
 21
-7009.20996019718
 31
0.0
  0
LINE
  5
19E
330
1F
100
AcDbEntity
  8
0
  6
Continuous
 62
     7
100
AcDbLine
 10
-2537.9187076956
 20
-7481.41350919756
 30
0.0
 11
-2537.91336400149
 21
-7481.44015635278
 31
0.0
  0
LINE
  5
19F
330
1F
100
AcDbEntity
  8
0
  6
DASHED
 62
     3
100
AcDbLine
 10
-2628.90158059307
 20
-7410.90981686675
 30
0.0
 11
-2628.81548810426
 21
-7411.10695472898
 31
0.0
  0
LINE
  5
1A0
330
1F
100
AcDbEntity
  8
0
  6
DASHED
 62
     3
100
AcDbLine
 10
-2628.90534492342
 20
-7410.9011962661
 30
0.0
 11
-2628.90158059307
 21
-7410.90981686675
 31
0.0
  0
LINE
  5
1A1
330
1F
100
AcDbEntity
  8
0
  6
DASHED
 62
     3
100
AcDbLine
 10
-2628.90676136616
 20
-7410.89795248592
 30
0.0
 11
-2628.90534492342
 21
-7410.9011962661
 31
0.0
  0
LINE
  5
1A2
330
1F
100
AcDbEntity
  8
0
  6
DASHED
 62
     3
100
AcDbLine
 10
-2628.9130765032
 20
-7410.88349012996
 30
0.0
 11
-2628.91159418667
 21
-7410.88688481622
 31
0.0
  0
LINE
  5
1A3
330
1F
100
AcDbEntity
  8
0
  6
DASHED
 62
     3
100
AcDbLine
 10
-2628.91159418667
 20
-7410.88688481622
 30
0.0
 11
-2628.90676136616
 21
-7410.89795248592
 31
0.0
  0
LINE
  5
1A4
330
1F
100
AcDbEntity
  8
0
  6
DASHED
 62
     3
100
AcDbLine
 10
-2628.91315025375
 20
-7410.88332123187
 30
0.0
 11
-2628.9130765032
 21
-7410.88349012996
 31
0.0
  0
LINE
  5
1A5
330
1F
100
AcDbEntity
  8
0
  6
DASHED
 62
     3
100
AcDbLine
 10
-2628.90158059307
 20
-7410.90981686675
 30
0.0
 11
-2628.81548810426
 21
-7411.10695472898
 31
0.0
  0
LINE
  5
1A6
330
1F
100
AcDbEntity
  8
0
  6
DASHED
 62
     3
100
AcDbLine
 10
-2628.90534492342
 20
-7410.9011962661
 30
0.0
 11
-2628.90158059307
 21
-7410.90981686675
 31
0.0
  0
LINE
  5
1A7
330
1F
100
AcDbEntity
  8
0
  6
DASHED
 62
     3
100
AcDbLine
 10
-2628.90676136616
 20
-7410.89795248592
 30
0.0
 11
-2628.90534492342
 21
-7410.9011962661
 31
0.0
  0
LINE
  5
1A8
330
1F
100
AcDbEntity
  8
0
  6
DASHED
 62
     3
100
AcDbLine
 10
-2628.9130765032
 20
-7410.88349012996
 30
0.0
 11
-2628.91159418667
 21
-7410.88688481622
 31
0.0
  0
LINE
  5
1A9
330
1F
100
AcDbEntity
  8
0
  6
DASHED
 62
     3
100
AcDbLine
 10
-2628.91159418667
 20
-7410.88688481622
 30
0.0
 11
-2628.90676136616
 21
-7410.89795248592
 31
0.0
  0
LINE
  5
1AA
330
1F
100
AcDbEntity
  8
0
  6
DASHED
 62
     3
100
AcDbLine
 10
-2628.91315025375
 20
-7410.88332123187
 30
0.0
 11
-2628.9130765032
 21
-7410.88349012996
 31
0.0
  0
LINE
  5
1AB
330
1F
100
AcDbEntity
  8
0
  6
DASHED
 62
     3
100
AcDbLine
 10
-2628.90158059307
 20
-7410.90981686675
 30
0.0
 11
-2628.81548810426
 21
-7411.10695472898
 31
0.0
  0
LINE
  5
1AC
330
1F
100
AcDbEntity
  8
0
  6
DASHED
 62
     3
100
AcDbLine
 10
-2628.90534492342
 20
-7410.9011962661
 30
0.0
 11
-2628.90158059307
 21
-7410.90981686675
 31
0.0
  0
LINE
  5
1AD
330
1F
100
AcDbEntity
  8
0
  6
DASHED
 62
     3
100
AcDbLine
 10
-2628.90676136616
 20
-7410.89795248592
 30
0.0
 11
-2628.90534492342
 21
-7410.9011962661
 31
0.0
  0
LINE
  5
1AE
330
1F
100
AcDbEntity
  8
0
  6
DASHED
 62
     3
100
AcDbLine
 10
-2628.9130765032
 20
-7410.88349012996
 30
0.0
 11
-2628.91159418667
 21
-7410.88688481622
 31
0.0
  0
LINE
  5
1AF
330
1F
100
AcDbEntity
  8
0
  6
DASHED
 62
     3
100
AcDbLine
 10
-2628.91159418667
 20
-7410.88688481622
 30
0.0
 11
-2628.90676136616
 21
-7410.89795248592
 31
0.0
  0
LINE
  5
1B0
330
1F
100
AcDbEntity
  8
0
  6
DASHED
 62
     3
100
AcDbLine
 10
-2628.91315025375
 20
-7410.88332123187
 30
0.0
 11
-2628.9130765032
 21
-7410.88349012996
 31
0.0
  0
LINE
  5
1B1
330
1F
100
AcDbEntity
  8
0
  6
DASHED
 62
     3
100
AcDbLine
 10
-2569.09245031892
 20
-7539.37990543003
 30
0.0
 11
-2569.08039191551
 21
-7539.40426155565
 31
0.0
  0
LINE
  5
1B2
330
1F
100
AcDbEntity
  8
0
  6
DASHED
 62
     3
100
AcDbLine
 10
-2560.90185549035
 20
-7555.79538141438
 30
0.0
 11
-2560.90184160545
 21
-7555.79540902728
 31
0.0
  0
LINE
  5
1B3
330
1F
100
AcDbEntity
  8
0
  6
DASHED
 62
     3
100
AcDbLine
 10
-2560.90184160545
 20
-7555.79540902728
 30
0.0
 11
-2560.84970525351
 21
-7555.89908746876
 31
0.0
  0
LINE
  5
1B4
330
1F
100
AcDbEntity
  8
0
  6
DASHED
 62
     3
100
AcDbLine
 10
-2560.8420377309
 20
-7555.91433426155
 30
0.0
 11
-2560.81199209935
 21
-7555.974077586971
 31
0.0
  0
LINE
  5
1B5
330
1F
100
AcDbEntity
  8
0
  6
DASHED
 62
     3
100
AcDbLine
 10
-2560.84644692357
 20
-7555.90556665241
 30
0.0
 11
-2560.8420377309
 21
-7555.91433426155
 31
0.0
  0
LINE
  5
1B6
330
1F
100
AcDbEntity
  8
0
  6
DASHED
 62
     3
100
AcDbLine
 10
-2560.81199209935
 20
-7555.974077586971
 30
0.0
 11
-2560.81197826424
 21
-7555.9741050962
 31
0.0
  0
LINE
  5
1B7
330
1F
100
AcDbEntity
  8
0
  6
DASHED
 62
     3
100
AcDbLine
 10
-2560.84970525351
 20
-7555.89908746876
 30
0.0
 11
-2560.84644692357
 21
-7555.90556665241
 31
0.0
  0
LINE
  5
1B8
330
1F
100
AcDbEntity
  8
0
  6
DASHED
 62
     3
100
AcDbLine
 10
-2560.90185549035
 20
-7555.79538141438
 30
0.0
 11
-2560.90184160545
 21
-7555.79540902728
 31
0.0
  0
LINE
  5
1B9
330
1F
100
AcDbEntity
  8
0
  6
DASHED
 62
     3
100
AcDbLine
 10
-2560.90184160545
 20
-7555.79540902728
 30
0.0
 11
-2560.84970525351
 21
-7555.89908746876
 31
0.0
  0
LINE
  5
1BA
330
1F
100
AcDbEntity
  8
0
  6
DASHED
 62
     3
100
AcDbLine
 10
-2560.8420377309
 20
-7555.91433426155
 30
0.0
 11
-2560.81199209935
 21
-7555.974077586971
 31
0.0
  0
LINE
  5
1BB
330
1F
100
AcDbEntity
  8
0
  6
DASHED
 62
     3
100
AcDbLine
 10
-2560.84644692357
 20
-7555.90556665241
 30
0.0
 11
-2560.8420377309
 21
-7555.91433426155
 31
0.0
  0
LINE
  5
1BC
330
1F
100
AcDbEntity
  8
0
  6
DASHED
 62
     3
100
AcDbLine
 10
-2560.81199209935
 20
-7555.974077586971
 30
0.0
 11
-2560.81197826424
 21
-7555.9741050962
 31
0.0
  0
LINE
  5
1BD
330
1F
100
AcDbEntity
  8
0
  6
DASHED
 62
     3
100
AcDbLine
 10
-2560.84970525351
 20
-7555.89908746876
 30
0.0
 11
-2560.84644692357
 21
-7555.90556665241
 31
0.0
  0
LINE
  5
1BE
330
1F
100
AcDbEntity
  8
0
  6
DASHED
 62
     3
100
AcDbLine
 10
-2560.90185549035
 20
-7555.79538141438
 30
0.0
 11
-2560.90184160545
 21
-7555.79540902728
 31
0.0
  0
LINE
  5
1BF
330
1F
100
AcDbEntity
  8
0
  6
DASHED
 62
     3
100
AcDbLine
 10
-2560.90184160545
 20
-7555.79540902728
 30
0.0
 11
-2560.84970525351
 21
-7555.89908746876
 31
0.0
  0
LINE
  5
1C0
330
1F
100
AcDbEntity
  8
0
  6
DASHED
 62
     3
100
AcDbLine
 10
-2560.8420377309
 20
-7555.91433426155
 30
0.0
 11
-2560.81199209935
 21
-7555.974077586971
 31
0.0
  0
LINE
  5
1C1
330
1F
100
AcDbEntity
  8
0
  6
DASHED
 62
     3
100
AcDbLine
 10
-2560.84644692357
 20
-7555.90556665241
 30
0.0
 11
-2560.8420377309
 21
-7555.91433426155
 31
0.0
  0
LINE
  5
1C2
330
1F
100
AcDbEntity
  8
0
  6
DASHED
 62
     3
100
AcDbLine
 10
-2560.81199209935
 20
-7555.974077586971
 30
0.0
 11
-2560.81197826424
 21
-7555.9741050962
 31
0.0
  0
LINE
  5
1C3
330
1F
100
AcDbEntity
  8
0
  6
DASHED
 62
     3
100
AcDbLine
 10
-2560.84970525351
 20
-7555.89908746876
 30
0.0
 11
-2560.84644692357
 21
-7555.90556665241
 31
0.0
  0
LINE
  5
1C4
330
1F
100
AcDbEntity
  8
1
  6
DASHED
 62
     3
100
AcDbLine
 10
10338.5163809654
 20
-7096.05821056981
 30
0.0
 11
10338.5163809654
 21
-7071.75182105476
 31
0.0
  0
LINE
  5
1C5
330
1F
100
AcDbEntity
  8
1
  6
DASHED
 62
     3
100
AcDbLine
 10
10338.5163809654
 20
-7051.73000445296
 30
0.0
 11
10338.5163809654
 21
-7031.92636379921
 31
0.0
  0
LINE
  5
1C6
330
1F
100
AcDbEntity
  8
1
  6
Continuous
 62
     7
100
AcDbLine
 10
10338.5163809654
 20
-7314.8250855876
 30
0.0
 11
10338.5163809654
 21
-7069.21751228945
 31
0.0
  0
LINE
  5
1C7
330
1F
100
AcDbEntity
  8
1
  6
DASHED
 62
     3
100
AcDbLine
 10
10338.5163809654
 20
-6923.84550109108
 30
0.0
 11
10338.5163809654
 21
-7071.14707102261
 31
0.0
  0
LINE
  5
1C8
330
1F
100
AcDbEntity
  8
1
  6
DASHED
 62
     3
100
AcDbLine
 10
10388.5163809654
 20
-6873.84550109108
 30
0.0
 11
11209.7771256601
 21
-6873.84550109108
 31
0.0
  0
LINE
  5
1C9
330
1F
100
AcDbEntity
  8
1
  6
Continuous
 62
     1
100
AcDbLine
 10
10446.4029197673
 20
-7026.69472840175
 30
0.0
 11
11151.8905868582
 21
-7026.69472840175
 31
0.0
  0
LINE
  5
1CA
330
1F
100
AcDbEntity
  8
0
  6
Continuous
 62
     7
100
AcDbLine
 10
10325.5163806533
 20
-7823.73914587112
 30
0.0
 11
10405.5207692901
 21
-7823.73914587112
 31
0.0
  0
LINE
  5
1CB
330
1F
100
AcDbEntity
  8
0
  6
Continuous
 62
     7
100
AcDbLine
 10
10405.5207692901
 20
-7823.73914587112
 30
0.0
 11
10405.5250282039
 21
-7823.73914587112
 31
0.0
  0
LINE
  5
1CC
330
1F
100
AcDbEntity
  8
0
  6
Continuous
 62
     7
100
AcDbLine
 10
10325.5163806533
 20
-7823.73914587112
 30
0.0
 11
10325.5163806533
 21
-7411.73889453181
 31
0.0
  0
LINE
  5
1CD
330
1F
100
AcDbEntity
  8
1
  6
Continuous
 62
     7
100
AcDbLine
 10
10405.5250282039
 20
-7536.57582197826
 30
0.0
 11
11192.7684784216
 21
-7536.57582197826
 31
0.0
  0
LINE
  5
1CE
330
1F
100
AcDbEntity
  8
1
  6
Continuous
 62
     1
100
AcDbLine
 10
10365.5207044286
 20
-7823.73914587112
 30
0.0
 11
10365.5207044286
 21
-7474.15872296255
 31
0.0
  0
LINE
  5
1CF
330
1F
100
AcDbEntity
  8
1
  6
Continuous
 62
     7
100
AcDbLine
 10
10405.5250282039
 20
-7536.57582197826
 30
0.0
 11
10405.5250282039
 21
-7823.73914587112
 31
0.0
  0
LINE
  5
1D0
330
1F
100
AcDbEntity
  8
1
  6
Continuous
 62
     7
100
AcDbLine
 10
10458.9001392344
 20
-7009.20996019718
 30
0.0
 11
11139.3933673911
 21
-7009.20996019718
 31
0.0
  0
LINE
  5
1D1
330
1F
100
AcDbEntity
  8
1
  6
Continuous
 62
     1
100
AcDbLine
 10
10365.5207044286
 20
-7474.15872296255
 30
0.0
 11
11232.7728021969
 21
-7474.15872296255
 31
0.0
  0
LINE
  5
1D2
330
1F
100
AcDbEntity
  8
1
  6
DASHED
 62
     3
100
AcDbLine
 10
10388.5163809654
 20
-8866.96962052705
 30
0.0
 11
11209.7771256601
 21
-8866.96962052705
 31
0.0
  0
LINE
  5
1D3
330
1F
100
AcDbEntity
  8
1
  6
Continuous
 62
     7
100
AcDbLine
 10
11035.2774652803
 20
-9535.80317373221
 30
0.0
 11
10563.0160413452
 21
-9535.80317373221
 31
0.0
  0
LINE
  5
1D4
330
1F
100
AcDbEntity
  8
1
  6
DASHED
 62
     3
100
AcDbLine
 10
11259.7771256601
 20
-8916.96962052705
 30
0.0
 11
11259.7771256601
 21
-9064.27119045858
 31
0.0
  0
LINE
  5
1D5
330
1F
100
AcDbEntity
  8
1
  6
Continuous
 62
     7
100
AcDbLine
 10
11259.7771256601
 20
-9054.68235260357
 30
0.0
 11
11259.7771256601
 21
-9412.47636186676
 31
0.0
  0
LINE
  5
1D6
330
1F
100
AcDbEntity
  8
1
  6
Continuous
 62
     1
100
AcDbLine
 10
11259.7771256601
 20
-9256.0
 30
0.0
 11
10338.5163809654
 21
-9256.0
 31
0.0
  0
LINE
  5
1D7
330
1F
100
AcDbEntity
  8
1
  6
Continuous
 62
     7
100
AcDbLine
 10
11391.5562072374
 20
-9972.68780557573
 30
0.0
 11
11399.1437665302
 21
-9449.42710522846
 31
0.0
  0
LINE
  5
1D8
330
1F
100
AcDbEntity
  8
1
  6
Continuous
 62
     7
100
AcDbLine
 10
11085.2774652803
 20
-10021.9628551148
 30
0.0
 11
11341.5614630453
 21
-10021.9628551148
 31
0.0
  0
LINE
  5
1D9
330
1F
100
AcDbEntity
  8
1
  6
Continuous
 62
     7
100
AcDbLine
 10
11035.2774652803
 20
-9514.52901073588
 30
0.0
 11
11035.2774652803
 21
-9971.96285511484
 31
0.0
  0
LINE
  5
1DA
330
1F
100
AcDbEntity
  8
1
  6
DASHED
 62
     3
100
AcDbLine
 10
10338.5163809654
 20
-8916.96962052705
 30
0.0
 11
10338.5163809654
 21
-9064.27119045858
 31
0.0
  0
LINE
  5
1DB
330
1F
100
AcDbEntity
  8
1
  6
Continuous
 62
     7
100
AcDbLine
 10
10563.0160413452
 20
-9971.96285511484
 30
0.0
 11
10563.0160413452
 21
-9514.52901073588
 31
0.0
  0
LINE
  5
1DC
330
1F
100
AcDbEntity
  8
1
  6
Continuous
 62
     7
100
AcDbLine
 10
10256.7320435802
 20
-10021.9628551148
 30
0.0
 11
10513.0160413452
 21
-10021.9628551148
 31
0.0
  0
LINE
  5
1DD
330
1F
100
AcDbEntity
  8
1
  6
Continuous
 62
     7
100
AcDbLine
 10
10199.1497400953
 20
-9449.42710522846
 30
0.0
 11
10206.7372993881
 21
-9972.68780557573
 31
0.0
  0
LINE
  5
1DE
330
1F
100
AcDbEntity
  8
1
  6
Continuous
 62
     7
100
AcDbLine
 10
10388.5163809654
 20
-9004.68235260357
 30
0.0
 11
11209.7771256601
 21
-9004.68235260357
 31
0.0
  0
LINE
  5
1DF
330
1F
100
AcDbEntity
  8
1
  6
Continuous
 62
     7
100
AcDbLine
 10
10338.5163809654
 20
-9412.47636186676
 30
0.0
 11
10338.5163809654
 21
-9054.68235260357
 31
0.0
  0
LINE
  5
1E0
330
1F
100
AcDbEntity
  8
1
  6
Continuous
 62
     7
100
AcDbLine
 10
10405.5250282039
 20
-7666.73914587112
 30
0.0
 11
11192.7684784216
 21
-7666.73914587112
 31
0.0
  0
LINE
  5
1E1
330
1F
100
AcDbEntity
  8
0
  6
Continuous
 62
     7
100
AcDbLine
 10
11192.7727373353
 20
-7823.73914587112
 30
0.0
 11
11272.7771259722
 21
-7823.73914587112
 31
0.0
  0
LINE
  5
1E2
330
1F
100
AcDbEntity
  8
0
  6
Continuous
 62
     7
100
AcDbLine
 10
11192.7684784216
 20
-7823.73914587112
 30
0.0
 11
11192.7727373353
 21
-7823.73914587112
 31
0.0
  0
LINE
  5
1E3
330
1F
100
AcDbEntity
  8
0
  6
Continuous
 62
     7
100
AcDbLine
 10
11272.7771259722
 20
-7411.73889453181
 30
0.0
 11
11272.7771259722
 21
-7823.73914587112
 31
0.0
  0
LINE
  5
1E4
330
1F
100
AcDbEntity
  8
1
  6
Continuous
 62
     1
100
AcDbLine
 10
11232.7728021969
 20
-7474.15872296255
 30
0.0
 11
11232.7728021969
 21
-7823.73914587112
 31
0.0
  0
LINE
  5
1E5
330
1F
100
AcDbEntity
  8
1
  6
Continuous
 62
     7
100
AcDbLine
 10
11192.7684784216
 20
-7823.73914587112
 30
0.0
 11
11192.7684784216
 21
-7536.57582197826
 31
0.0
  0
LINE
  5
1E6
330
1F
100
AcDbEntity
  8
1
  6
Continuous
 62
     7
100
AcDbLine
 10
11259.7771256601
 20
-7069.21751228945
 30
0.0
 11
11259.7771256601
 21
-7314.8250855876
 31
0.0
  0
LINE
  5
1E7
330
1F
100
AcDbEntity
  8
1
  6
DASHED
 62
     3
100
AcDbLine
 10
11259.7771256601
 20
-6923.84550109108
 30
0.0
 11
11259.7771256601
 21
-7071.14707102261
 31
0.0
  0
LINE
  5
1E8
330
1F
100
AcDbEntity
  8
1
  6
DASHED
 62
     3
100
AcDbLine
 10
11259.7771256601
 20
-7071.75182105476
 30
0.0
 11
11259.7771256601
 21
-7096.05821056981
 31
0.0
  0
LINE
  5
1E9
330
1F
100
AcDbEntity
  8
1
  6
DASHED
 62
     3
100
AcDbLine
 10
11259.7771256601
 20
-7031.92636379921
 30
0.0
 11
11259.7771256601
 21
-7051.73000445296
 31
0.0
  0
LINE
  5
1EA
330
1F
100
AcDbEntity
  8
1
  6
Continuous
 62
     7
100
AcDbLine
 10
10513.0160413452
 20
-10021.9628551148
 30
0.0
 11
11085.2774652803
 21
-10021.9628551148
 31
0.0
  0
LINE
  5
1EB
330
1F
100
AcDbEntity
  8
1
  6
Continuous
 62
     1
100
AcDbLine
 10
215.88477152226
 20
-9488.49078883089
 30
0.0
 11
215.884771522264
 21
-10021.9628551148
 31
0.0
  0
LINE
  5
1EC
330
1F
100
AcDbEntity
  8
1
  6
Continuous
 62
     1
100
AcDbLine
 10
2653.51813065299
 20
-9488.49078883089
 30
0.0
 11
2653.51813065299
 21
-10021.9628551148
 31
0.0
  0
LINE
  5
1ED
330
1F
100
AcDbEntity
  8
1
  6
Continuous
 62
     1
100
AcDbLine
 10
5281.61630357541
 20
-9488.49078883089
 30
0.0
 11
5281.61630357541
 21
-10021.9628551148
 31
0.0
  0
LINE
  5
1EE
330
1F
100
AcDbEntity
  8
1
  6
Continuous
 62
     1
100
AcDbLine
 10
8265.38302183537
 20
-9488.49078883089
 30
0.0
 11
8265.38302183537
 21
-10021.9628551148
 31
0.0
  0
ARC
  5
1EF
330
1F
100
AcDbEntity
  8
1
  6
Continuous
 62
     7
100
AcDbCircle
 10
1001.85919951185
 20
-7341.73396938543
 30
0.0
 40
14.0285587928533
100
AcDbArc
 50
330.1532324635352
 51
84.910626585439
  0
ARC
  5
1F0
330
1F
100
AcDbEntity
  8
1
  6
Continuous
 62
     7
100
AcDbCircle
 10
1001.85919951185
 20
-7341.73396938543
 30
0.0
 40
14.0285587928533
100
AcDbArc
 50
330.1532324635352
 51
84.910626585439
  0
ARC
  5
1F1
330
1F
100
AcDbEntity
  8
1
  6
DASHED
 62
     3
100
AcDbCircle
 10
790.20938292334
 20
-7168.80386016317
 30
0.0
 40
77.00000000002383
100
AcDbArc
 50
324.2303553390167
 51
359.267972987605
  0
ARC
  5
1F2
330
1F
100
AcDbEntity
  8
1
  6
DASHED
 62
     3
100
AcDbCircle
 10
853.699878052992
 20
-7124.05557642018
 30
0.0
 40
14.02855879285453
100
AcDbArc
 50
15.15323246356368
 51
129.9106265854199
  0
ARC
  5
1F3
330
1F
100
AcDbEntity
  8
1
  6
DASHED
 62
     3
100
AcDbCircle
 10
1062.1426478109
 20
-7431.8217365117
 30
0.0
 40
298.0000000000007
100
AcDbArc
 50
143.1233555194252
 51
176.1357890489684
  0
ARC
  5
1F4
330
1F
100
AcDbEntity
  8
1
  6
DASHED
 62
     3
100
AcDbCircle
 10
788.13755102828
 20
-7370.65156625014
 30
0.0
 40
155.5209858911237
100
AcDbArc
 50
126.9209368399898
 51
195.3189193312899
  0
ARC
  5
1F5
330
1F
100
AcDbEntity
  8
1
  6
DASHED
 62
     3
100
AcDbCircle
 10
752.024573989642
 20
-7222.10459999754
 30
0.0
 40
24.46993620870217
100
AcDbArc
 50
135.1496964127973
 51
179.1162015723489
  0
ARC
  5
1F6
330
1F
100
AcDbEntity
  8
1
  6
DASHED
 62
     3
100
AcDbCircle
 10
712.559333358223
 20
-7221.49579277769
 30
0.0
 40
14.99999999994879
100
AcDbArc
 50
274.3683563401879
 51
359.1162015723972
  0
ARC
  5
1F7
330
1F
100
AcDbEntity
  8
1
  6
DASHED
 62
     3
100
AcDbCircle
 10
715.780015288375
 20
-7263.65668261056
 30
0.0
 40
27.28372528052491
100
AcDbArc
 50
94.36835634027165
 51
140.5431248700315
  0
ARC
  5
1F8
330
1F
100
AcDbEntity
  8
1
  6
DASHED
 62
     3
100
AcDbCircle
 10
1181.03395020703
 20
-7629.37155114516
 30
0.0
 40
615.9999999998645
100
AcDbArc
 50
123.0928803169021
 51
136.4360931531639
  0
ARC
  5
1F9
330
1F
100
AcDbEntity
  8
1
  6
Continuous
 62
     1
100
AcDbCircle
 10
1330.14750562856
 20
-7670.36812331396
 30
0.0
 40
729.0000000000023
100
AcDbArc
 50
130.03508584193
 51
159.2204915083689
  0
ARC
  5
1FA
330
1F
100
AcDbEntity
  8
1
  6
Continuous
 62
     7
100
AcDbCircle
 10
739.848056435996
 20
-7400.6106383439
 30
0.0
 40
74.99999999982842
100
AcDbArc
 50
103.7523608097487
 51
183.8635210442019
  0
ARC
  5
1FB
330
1F
100
AcDbEntity
  8
1
  6
Continuous
 62
     7
100
AcDbCircle
 10
862.561139797441
 20
-8077.2437569763
 30
0.0
 40
762.5464104404474
100
AcDbArc
 50
79.37927705725032
 51
100.6207229427486
  0
ARC
  5
1FC
330
1F
100
AcDbEntity
  8
1
  6
Continuous
 62
     1
100
AcDbCircle
 10
717.018310490141
 20
-7411.60828554807
 30
0.0
 40
52.00000000018833
100
AcDbArc
 50
102.4602599185264
 51
180.1439106039065
  0
ARC
  5
1FD
330
1F
100
AcDbEntity
  8
1
  6
Continuous
 62
     7
100
AcDbCircle
 10
925.322824983651
 20
-7328.4812246195
 30
0.0
 40
77.00000000002498
100
AcDbArc
 50
279.2303553390209
 51
314.2679729876076
  0
ARC
  5
1FE
330
1F
100
AcDbEntity
  8
0
  6
Continuous
 62
     1
100
AcDbCircle
 10
991.277971882161
 20
-8629.10897143045
 30
0.0
 40
1300.008508778686
100
AcDbArc
 50
98.55880145706332
 51
102.685424425739
  0
ARC
  5
1FF
330
1F
100
AcDbEntity
  8
0
  6
Continuous
 62
     7
100
AcDbCircle
 10
756.134372383246
 20
-7311.72048826403
 30
0.0
 40
302.5105280668435
100
AcDbArc
 50
73.81522412360937
 51
89.99999999999983
  0
ARC
  5
200
330
1F
100
AcDbEntity
  8
0
  6
Continuous
 62
     1
100
AcDbCircle
 10
760.643707964216
 20
-7437.69170663435
 30
0.0
 40
411.0745946970029
100
AcDbArc
 50
74.9116773652244
 51
88.88657473146809
  0
ARC
  5
201
330
1F
100
AcDbEntity
  8
1
  6
Continuous
 62
     1
100
AcDbCircle
 10
855.813273083168
 20
-7140.40458384277
 30
0.0
 40
20.99999999949523
100
AcDbArc
 50
9.61731340654792
 51
82.6178187954955
  0
ARC
  5
202
330
1F
100
AcDbEntity
  8
1
  6
Continuous
 62
     1
100
AcDbCircle
 10
852.736990576567
 20
-7096.50491607091
 30
0.0
 40
23.78533516904361
100
AcDbArc
 50
284.0504522603172
 51
1.07611873199503
  0
ARC
  5
203
330
1F
100
AcDbEntity
  8
1
  6
Continuous
 62
     1
100
AcDbCircle
 10
863.519901736442
 20
-7031.7117826758
 30
0.0
 40
13.00000000023619
100
AcDbArc
 50
359.0542191467714
 51
77.2727636115307
  0
ARC
  5
204
330
1F
100
AcDbEntity
  8
1
  6
Continuous
 62
     1
100
AcDbCircle
 10
866.460558682646
 20
-7051.71339726801
 30
0.0
 40
10.0575856805851
100
AcDbArc
 50
267.6725173138924
 51
359.9053925991956
  0
ARC
  5
205
330
1F
100
AcDbEntity
  8
1
  6
Continuous
 62
     1
100
AcDbCircle
 10
866.518130652243
 20
-7071.75182105476
 30
0.0
 40
10.00000000000193
100
AcDbArc
 50
0.0
 51
87.65815719479909
  0
ARC
  5
206
330
1F
100
AcDbEntity
  8
1
  6
Continuous
 62
     1
100
AcDbCircle
 10
866.443808068668
 20
-7008.95687104592
 30
0.0
 40
10.07450052493158
100
AcDbArc
 50
269.6594624855883
 51
359.6594624855973
  0
ARC
  5
207
330
1F
100
AcDbEntity
  8
1
  6
Continuous
 62
     7
100
AcDbCircle
 10
826.518130652245
 20
-7069.21751228945
 30
0.0
 40
50.0
100
AcDbArc
 50
0.0
 51
73.81522412360835
  0
ARC
  5
208
330
1F
100
AcDbEntity
  8
1
  6
DASHED
 62
     3
100
AcDbCircle
 10
826.518130652245
 20
-6923.84550109108
 30
0.0
 40
50.0
100
AcDbArc
 50
0.0
 51
90.0
  0
ARC
  5
209
330
1F
100
AcDbEntity
  8
1
  6
DASHED
 62
     3
100
AcDbCircle
 10
826.518130652245
 20
-6923.84550109108
 30
0.0
 40
50.0
100
AcDbArc
 50
0.0
 51
90.0
  0
ARC
  5
20A
330
1F
100
AcDbEntity
  8
1
  6
DASHED
 62
     3
100
AcDbCircle
 10
10424.8251286943
 20
-7168.80386016317
 30
0.0
 40
77.00000000009776
100
AcDbArc
 50
180.7320270123944
 51
215.7696446609897
  0
ARC
  5
20B
330
1F
100
AcDbEntity
  8
1
  6
DASHED
 62
     3
100
AcDbCircle
 10
10361.3346335646
 20
-7124.05557642018
 30
0.0
 40
14.02855879303596
100
AcDbArc
 50
50.08937341442109
 51
164.846767536388
  0
ARC
  5
20C
330
1F
100
AcDbEntity
  8
1
  6
DASHED
 62
     3
100
AcDbCircle
 10
10152.8918638067
 20
-7431.8217365117
 30
0.0
 40
298.0000000000293
100
AcDbArc
 50
3.8642109510312
 51
36.87664448057019
  0
ARC
  5
20D
330
1F
100
AcDbEntity
  8
1
  6
DASHED
 62
     3
100
AcDbCircle
 10
10426.8969605893
 20
-7370.65156625014
 30
0.0
 40
155.520985891198
100
AcDbArc
 50
344.6810806687178
 51
53.07906315998968
  0
ARC
  5
20E
330
1F
100
AcDbEntity
  8
1
  6
DASHED
 62
     3
100
AcDbCircle
 10
10463.009937628
 20
-7222.10459999755
 30
0.0
 40
24.46993620884104
100
AcDbArc
 50
0.88379842767487
 51
44.85030358722656
  0
ARC
  5
20F
330
1F
100
AcDbEntity
  8
1
  6
DASHED
 62
     3
100
AcDbCircle
 10
10502.4751782594
 20
-7221.49579277769
 30
0.0
 40
14.99999999994004
100
AcDbArc
 50
180.8837984276034
 51
265.6316436598161
  0
ARC
  5
210
330
1F
100
AcDbEntity
  8
1
  6
DASHED
 62
     3
100
AcDbCircle
 10
10499.2544963292
 20
-7263.65668261056
 30
0.0
 40
27.28372528056892
100
AcDbArc
 50
39.45687512986306
 51
85.63164365962764
  0
ARC
  5
211
330
1F
100
AcDbEntity
  8
1
  6
DASHED
 62
     3
100
AcDbCircle
 10
10034.0005614106
 20
-7629.37155114516
 30
0.0
 40
616.0000000000103
100
AcDbArc
 50
43.5639068468359
 51
56.90711968309533
  0
ARC
  5
212
330
1F
100
AcDbEntity
  8
1
  6
Continuous
 62
     1
100
AcDbCircle
 10
9884.88700598906
 20
-7670.36812331396
 30
0.0
 40
728.9999999999995
100
AcDbArc
 50
20.77950849163119
 51
49.96491415806676
  0
ARC
  5
213
330
1F
100
AcDbEntity
  8
1
  6
Continuous
 62
     7
100
AcDbCircle
 10
10475.1864551816
 20
-7400.6106383439
 30
0.0
 40
75.00000000003728
100
AcDbArc
 50
356.1364789558016
 51
76.2476391902248
  0
ARC
  5
214
330
1F
100
AcDbEntity
  8
1
  6
Continuous
 62
     7
100
AcDbCircle
 10
10352.4733718202
 20
-8077.24375697631
 30
0.0
 40
762.546410440595
100
AcDbArc
 50
79.37927705725167
 51
100.6207229427485
  0
ARC
  5
215
330
1F
100
AcDbEntity
  8
1
  6
Continuous
 62
     1
100
AcDbCircle
 10
10498.0162011275
 20
-7411.60828554807
 30
0.0
 40
52.00000000018422
100
AcDbArc
 50
359.8560893960935
 51
77.53974008145114
  0
ARC
  5
216
330
1F
100
AcDbEntity
  8
1
  6
Continuous
 62
     7
100
AcDbCircle
 10
10213.1753121058
 20
-7341.73396938543
 30
0.0
 40
14.02855879299826
100
AcDbArc
 50
95.08937341458862
 51
209.8467675364271
  0
ARC
  5
217
330
1F
100
AcDbEntity
  8
1
  6
Continuous
 62
     7
100
AcDbCircle
 10
10289.711686634
 20
-7328.4812246195
 30
0.0
 40
77.00000000002112
100
AcDbArc
 50
225.7320270124032
 51
260.7696446609711
  0
ARC
  5
218
330
1F
100
AcDbEntity
  8
0
  6
Continuous
 62
     1
100
AcDbCircle
 10
10223.7565397355
 20
-8629.10897143045
 30
0.0
 40
1300.008508778673
100
AcDbArc
 50
77.31457557426087
 51
81.44119854293704
  0
ARC
  5
219
330
1F
100
AcDbEntity
  8
0
  6
Continuous
 62
     1
100
AcDbCircle
 10
10243.4527650714
 20
-9370.48130278832
 30
0.0
 40
2034.339226507112
100
AcDbArc
 50
85.09972623387792
 51
91.22057254248544
  0
ARC
  5
21A
330
1F
100
AcDbEntity
  8
0
  6
Continuous
 62
     1
100
AcDbCircle
 10
11354.8407415541
 20
-9370.48130278832
 30
0.0
 40
2034.339226507094
100
AcDbArc
 50
88.77942745751461
 51
94.90027376612215
  0
ARC
  5
21B
330
1F
100
AcDbEntity
  8
0
  6
Continuous
 62
     1
100
AcDbCircle
 10
11374.53696689
 20
-8629.10897143045
 30
0.0
 40
1300.008508778664
100
AcDbArc
 50
98.55880145706303
 51
102.685424425739
  0
ARC
  5
21C
330
1F
100
AcDbEntity
  8
1
  6
Continuous
 62
     7
100
AcDbCircle
 10
11308.5818199915
 20
-7328.4812246195
 30
0.0
 40
77.00000000002673
100
AcDbArc
 50
279.2303553390289
 51
314.267972987651
  0
ARC
  5
21D
330
1F
100
AcDbEntity
  8
1
  6
Continuous
 62
     7
100
AcDbCircle
 10
11385.1181945197
 20
-7341.73396938543
 30
0.0
 40
14.02855879287095
100
AcDbArc
 50
330.1532324635766
 51
84.91062658535769
  0
ARC
  5
21E
330
1F
100
AcDbEntity
  8
1
  6
Continuous
 62
     1
100
AcDbCircle
 10
11100.277305498
 20
-7411.60828554807
 30
0.0
 40
52.00000000019275
100
AcDbArc
 50
102.4602599185484
 51
180.1439106039065
  0
ARC
  5
21F
330
1F
100
AcDbEntity
  8
1
  6
Continuous
 62
     7
100
AcDbCircle
 10
11245.8201348053
 20
-8077.24375697631
 30
0.0
 40
762.5464104404492
100
AcDbArc
 50
79.37927705724961
 51
100.6207229427485
  0
ARC
  5
220
330
1F
100
AcDbEntity
  8
1
  6
Continuous
 62
     7
100
AcDbCircle
 10
11123.1070514439
 20
-7400.6106383439
 30
0.0
 40
74.99999999997924
100
AcDbArc
 50
103.7523608097752
 51
183.8635210441984
  0
ARC
  5
221
330
1F
100
AcDbEntity
  8
1
  6
Continuous
 62
     1
100
AcDbCircle
 10
11713.4065006364
 20
-7670.36812331396
 30
0.0
 40
729.0000000000007
100
AcDbArc
 50
130.0350858419298
 51
159.2204915083662
  0
ARC
  5
222
330
1F
100
AcDbEntity
  8
1
  6
DASHED
 62
     3
100
AcDbCircle
 10
11564.2929452149
 20
-7629.37155114516
 30
0.0
 40
615.9999999998171
100
AcDbArc
 50
123.0928803169055
 51
136.4360931531641
  0
ARC
  5
223
330
1F
100
AcDbEntity
  8
1
  6
DASHED
 62
     3
100
AcDbCircle
 10
11099.0390102963
 20
-7263.65668261056
 30
0.0
 40
27.28372528051869
100
AcDbArc
 50
94.36835634037656
 51
140.5431248701207
  0
ARC
  5
224
330
1F
100
AcDbEntity
  8
1
  6
DASHED
 62
     3
100
AcDbCircle
 10
11095.8183283661
 20
-7221.49579277769
 30
0.0
 40
14.99999999995859
100
AcDbArc
 50
274.3683563401763
 51
359.1162015723967
  0
ARC
  5
225
330
1F
100
AcDbEntity
  8
1
  6
DASHED
 62
     3
100
AcDbCircle
 10
11135.2835689975
 20
-7222.10459999755
 30
0.0
 40
24.46993620884797
100
AcDbArc
 50
135.1496964127734
 51
179.1162015723251
  0
ARC
  5
226
330
1F
100
AcDbEntity
  8
1
  6
DASHED
 62
     3
100
AcDbCircle
 10
11171.3965460362
 20
-7370.65156625014
 30
0.0
 40
155.5209858911612
100
AcDbArc
 50
126.9209368400081
 51
195.3189193312787
  0
ARC
  5
227
330
1F
100
AcDbEntity
  8
1
  6
DASHED
 62
     3
100
AcDbCircle
 10
11445.4016428188
 20
-7431.8217365117
 30
0.0
 40
298.0000000000343
100
AcDbArc
 50
143.12335551943
 51
176.1357890489688
  0
ARC
  5
228
330
1F
100
AcDbEntity
  8
1
  6
DASHED
 62
     3
100
AcDbCircle
 10
11236.9588730609
 20
-7124.05557642018
 30
0.0
 40
14.02855879281086
100
AcDbArc
 50
15.15323246361199
 51
129.9106265857112
  0
ARC
  5
229
330
1F
100
AcDbEntity
  8
1
  6
DASHED
 62
     3
100
AcDbCircle
 10
11173.4683779312
 20
-7168.80386016317
 30
0.0
 40
77.00000000001185
100
AcDbArc
 50
324.2303553390103
 51
359.2679729876056
  0
ARC
  5
22A
330
1F
100
AcDbEntity
  8
1
  6
DASHED
 62
     3
100
AcDbCircle
 10
7278.55841043429
 20
-7168.80386016317
 30
0.0
 40
77.00000000003773
100
AcDbArc
 50
180.732027012395
 51
215.7696446609858
  0
ARC
  5
22B
330
1F
100
AcDbEntity
  8
1
  6
DASHED
 62
     3
100
AcDbCircle
 10
7215.06791530464
 20
-7124.05557642018
 30
0.0
 40
14.02855879300386
100
AcDbArc
 50
50.08937341457781
 51
164.8467675364424
  0
ARC
  5
22C
330
1F
100
AcDbEntity
  8
1
  6
DASHED
 62
     3
100
AcDbCircle
 10
7006.62514554673
 20
-7431.8217365117
 30
0.0
 40
297.9999999999993
100
AcDbArc
 50
3.86421095103159
 51
36.8766444805747
  0
ARC
  5
22D
330
1F
100
AcDbEntity
  8
1
  6
DASHED
 62
     3
100
AcDbCircle
 10
7280.63024232935
 20
-7370.65156625014
 30
0.0
 40
155.5209858911208
100
AcDbArc
 50
344.68108066871
 51
53.07906316000931
  0
ARC
  5
22E
330
1F
100
AcDbEntity
  8
1
  6
DASHED
 62
     3
100
AcDbCircle
 10
7316.74321936799
 20
-7222.10459999755
 30
0.0
 40
24.46993620885105
100
AcDbArc
 50
0.88379842767451
 51
44.85030358721004
  0
ARC
  5
22F
330
1F
100
AcDbEntity
  8
1
  6
DASHED
 62
     3
100
AcDbCircle
 10
7356.20845999941
 20
-7221.49579277769
 30
0.0
 40
14.99999999995005
100
AcDbArc
 50
180.8837984276028
 51
265.6316436598242
  0
ARC
  5
230
330
1F
100
AcDbEntity
  8
1
  6
DASHED
 62
     3
100
AcDbCircle
 10
7352.98777806926
 20
-7263.65668261056
 30
0.0
 40
27.28372528052261
100
AcDbArc
 50
39.45687512997031
 51
85.63164365972597
  0
ARC
  5
231
330
1F
100
AcDbEntity
  8
1
  6
DASHED
 62
     3
100
AcDbCircle
 10
6887.73384315061
 20
-7629.37155114516
 30
0.0
 40
616.0000000000031
100
AcDbArc
 50
43.56390684683653
 51
56.90711968309689
  0
ARC
  5
232
330
1F
100
AcDbEntity
  8
1
  6
Continuous
 62
     1
100
AcDbCircle
 10
6738.62028772907
 20
-7670.36812331396
 30
0.0
 40
728.9999999999987
100
AcDbArc
 50
20.77950849163122
 51
49.96491415807013
  0
ARC
  5
233
330
1F
100
AcDbEntity
  8
1
  6
Continuous
 62
     7
100
AcDbCircle
 10
7328.91973692164
 20
-7400.6106383439
 30
0.0
 40
74.9999999999674
100
AcDbArc
 50
356.136478955798
 51
76.24763919026122
  0
ARC
  5
234
330
1F
100
AcDbEntity
  8
1
  6
Continuous
 62
     7
100
AcDbCircle
 10
7206.20665356019
 20
-8077.24375697631
 30
0.0
 40
762.5464104405953
100
AcDbArc
 50
79.37927705725153
 51
100.6207229427484
  0
ARC
  5
235
330
1F
100
AcDbEntity
  8
1
  6
Continuous
 62
     1
100
AcDbCircle
 10
7351.74948286749
 20
-7411.60828554807
 30
0.0
 40
52.00000000018422
100
AcDbArc
 50
359.8560893960935
 51
77.5397400814717
  0
ARC
  5
236
330
1F
100
AcDbEntity
  8
1
  6
Continuous
 62
     7
100
AcDbCircle
 10
7066.90859384578
 20
-7341.73396938543
 30
0.0
 40
14.02855879299746
100
AcDbArc
 50
95.08937341455163
 51
209.8467675364641
  0
ARC
  5
237
330
1F
100
AcDbEntity
  8
1
  6
Continuous
 62
     7
100
AcDbCircle
 10
7143.44496837398
 20
-7328.4812246195
 30
0.0
 40
77.00000000003571
100
AcDbArc
 50
225.7320270123921
 51
260.7696446609791
  0
ARC
  5
238
330
1F
100
AcDbEntity
  8
0
  6
Continuous
 62
     1
100
AcDbCircle
 10
7077.48982147547
 20
-8629.10897143045
 30
0.0
 40
1300.008508778673
100
AcDbArc
 50
77.3145755742609
 51
81.44119854293662
  0
ARC
  5
239
330
1F
100
AcDbEntity
  8
0
  6
Continuous
 62
     1
100
AcDbCircle
 10
7097.18604681144
 20
-9370.48130278832
 30
0.0
 40
2034.339226507107
100
AcDbArc
 50
85.09972623387957
 51
91.22057254248595
  0
ARC
  5
23A
330
1F
100
AcDbEntity
  8
0
  6
Continuous
 62
     1
100
AcDbCircle
 10
9433.57999685929
 20
-9370.48130278832
 30
0.0
 40
2034.339226507095
100
AcDbArc
 50
88.77942745751373
 51
94.90027376612016
  0
ARC
  5
23B
330
1F
100
AcDbEntity
  8
0
  6
Continuous
 62
     1
100
AcDbCircle
 10
9453.27622219527
 20
-8629.10897143045
 30
0.0
 40
1300.008508778666
100
AcDbArc
 50
98.55880145706351
 51
102.685424425739
  0
ARC
  5
23C
330
1F
100
AcDbEntity
  8
1
  6
Continuous
 62
     7
100
AcDbCircle
 10
9387.32107529676
 20
-7328.4812246195
 30
0.0
 40
77.00000000002498
100
AcDbArc
 50
279.2303553390209
 51
314.2679729876074
  0
ARC
  5
23D
330
1F
100
AcDbEntity
  8
1
  6
Continuous
 62
     7
100
AcDbCircle
 10
9463.85744982496
 20
-7341.73396938543
 30
0.0
 40
14.0285587928536
100
AcDbArc
 50
330.1532324635359
 51
84.91062658543167
  0
ARC
  5
23E
330
1F
100
AcDbEntity
  8
1
  6
Continuous
 62
     1
100
AcDbCircle
 10
9179.01656080325
 20
-7411.60828554807
 30
0.0
 40
52.00000000018804
100
AcDbArc
 50
102.460259918525
 51
180.1439106039065
  0
ARC
  5
23F
330
1F
100
AcDbEntity
  8
1
  6
Continuous
 62
     7
100
AcDbCircle
 10
9324.55939011055
 20
-8077.24375697631
 30
0.0
 40
762.5464104404479
100
AcDbArc
 50
79.37927705725014
 51
100.6207229427484
  0
ARC
  5
240
330
1F
100
AcDbEntity
  8
1
  6
Continuous
 62
     7
100
AcDbCircle
 10
9201.8463067491
 20
-7400.6106383439
 30
0.0
 40
74.99999999996713
100
AcDbArc
 50
103.7523608097374
 51
183.863521044202
  0
ARC
  5
241
330
1F
100
AcDbEntity
  8
1
  6
Continuous
 62
     1
100
AcDbCircle
 10
9792.14575594167
 20
-7670.36812331396
 30
0.0
 40
728.9999999999931
100
AcDbArc
 50
130.0350858419303
 51
159.2204915083688
  0
ARC
  5
242
330
1F
100
AcDbEntity
  8
1
  6
DASHED
 62
     3
100
AcDbCircle
 10
9643.03220052013
 20
-7629.37155114516
 30
0.0
 40
615.9999999998624
100
AcDbArc
 50
123.0928803169018
 51
136.4360931531635
  0
ARC
  5
243
330
1F
100
AcDbEntity
  8
1
  6
DASHED
 62
     3
100
AcDbCircle
 10
9177.77826560148
 20
-7263.65668261056
 30
0.0
 40
27.28372528051425
100
AcDbArc
 50
94.36835634025468
 51
140.5431248700285
  0
ARC
  5
244
330
1F
100
AcDbEntity
  8
1
  6
DASHED
 62
     3
100
AcDbCircle
 10
9174.55758367133
 20
-7221.49579277769
 30
0.0
 40
14.99999999995929
100
AcDbArc
 50
274.3683563402109
 51
359.1162015723972
  0
ARC
  5
245
330
1F
100
AcDbEntity
  8
1
  6
DASHED
 62
     3
100
AcDbCircle
 10
9214.02282430275
 20
-7222.10459999755
 30
0.0
 40
24.46993620885571
100
AcDbArc
 50
135.1496964127915
 51
179.1162015723255
  0
ARC
  5
246
330
1F
100
AcDbEntity
  8
1
  6
DASHED
 62
     3
100
AcDbCircle
 10
9250.13580134139
 20
-7370.65156625014
 30
0.0
 40
155.5209858911251
100
AcDbArc
 50
126.9209368399904
 51
195.31891933129
  0
ARC
  5
247
330
1F
100
AcDbEntity
  8
1
  6
DASHED
 62
     3
100
AcDbCircle
 10
9524.14089812401
 20
-7431.8217365117
 30
0.0
 40
298.0000000000008
100
AcDbArc
 50
143.1233555194252
 51
176.1357890489684
  0
ARC
  5
248
330
1F
100
AcDbEntity
  8
1
  6
DASHED
 62
     3
100
AcDbCircle
 10
9315.6981283661
 20
-7124.05557642018
 30
0.0
 40
14.02855879285826
100
AcDbArc
 50
15.15323246355955
 51
129.9106265854342
  0
ARC
  5
249
330
1F
100
AcDbEntity
  8
1
  6
DASHED
 62
     3
100
AcDbCircle
 10
9252.20763323645
 20
-7168.80386016317
 30
0.0
 40
77.00000000001923
100
AcDbArc
 50
324.2303553390142
 51
359.2679729876049
  0
ARC
  5
24A
330
1F
100
AcDbEntity
  8
0
  6
Continuous
 62
     1
100
AcDbCircle
 10
6287.31327859934
 20
-9370.48130278832
 30
0.0
 40
2034.339226507094
100
AcDbArc
 50
88.77942745751405
 51
94.90027376612048
  0
ARC
  5
24B
330
1F
100
AcDbEntity
  8
0
  6
Continuous
 62
     1
100
AcDbCircle
 10
6307.00950393531
 20
-8629.10897143045
 30
0.0
 40
1300.008508778666
100
AcDbArc
 50
98.55880145706347
 51
102.685424425739
  0
ARC
  5
24C
330
1F
100
AcDbEntity
  8
1
  6
Continuous
 62
     7
100
AcDbCircle
 10
6241.0543570368
 20
-7328.4812246195
 30
0.0
 40
77.00000000002498
100
AcDbArc
 50
279.2303553390209
 51
314.2679729876074
  0
ARC
  5
24D
330
1F
100
AcDbEntity
  8
1
  6
Continuous
 62
     7
100
AcDbCircle
 10
6317.590731565
 20
-7341.73396938543
 30
0.0
 40
14.02855879285281
100
AcDbArc
 50
330.153232463534
 51
84.910626585439
  0
ARC
  5
24E
330
1F
100
AcDbEntity
  8
1
  6
Continuous
 62
     1
100
AcDbCircle
 10
6032.74984254329
 20
-7411.60828554807
 30
0.0
 40
52.00000000018804
100
AcDbArc
 50
102.460259918525
 51
180.1439106039065
  0
ARC
  5
24F
330
1F
100
AcDbEntity
  8
1
  6
Continuous
 62
     7
100
AcDbCircle
 10
6178.29267185059
 20
-8077.24375697631
 30
0.0
 40
762.5464104404576
100
AcDbArc
 50
79.37927705725036
 51
100.6207229427484
  0
ARC
  5
250
330
1F
100
AcDbEntity
  8
1
  6
Continuous
 62
     7
100
AcDbCircle
 10
6055.57958848915
 20
-7400.6106383439
 30
0.0
 40
74.99999999996994
100
AcDbArc
 50
103.7523608097462
 51
183.8635210442015
  0
ARC
  5
251
330
1F
100
AcDbEntity
  8
1
  6
Continuous
 62
     1
100
AcDbCircle
 10
6645.87903768171
 20
-7670.36812331396
 30
0.0
 40
729.0000000000007
100
AcDbArc
 50
130.0350858419298
 51
159.2204915083688
  0
ARC
  5
252
330
1F
100
AcDbEntity
  8
1
  6
DASHED
 62
     3
100
AcDbCircle
 10
6496.76548226018
 20
-7629.37155114516
 30
0.0
 40
615.9999999998669
100
AcDbArc
 50
123.0928803169024
 51
136.4360931531634
  0
ARC
  5
253
330
1F
100
AcDbEntity
  8
1
  6
DASHED
 62
     3
100
AcDbCircle
 10
6031.51154734152
 20
-7263.65668261056
 30
0.0
 40
27.28372528051425
100
AcDbArc
 50
94.36835634025468
 51
140.5431248700285
  0
ARC
  5
254
330
1F
100
AcDbEntity
  8
1
  6
DASHED
 62
     3
100
AcDbCircle
 10
6028.29086541137
 20
-7221.49579277769
 30
0.0
 40
14.99999999995929
100
AcDbArc
 50
274.3683563402109
 51
359.1162015723972
  0
ARC
  5
255
330
1F
100
AcDbEntity
  8
1
  6
DASHED
 62
     3
100
AcDbCircle
 10
6067.75610604279
 20
-7222.10459999755
 30
0.0
 40
24.46993620884733
100
AcDbArc
 50
135.149696412772
 51
179.1162015723255
  0
ARC
  5
256
330
1F
100
AcDbEntity
  8
1
  6
DASHED
 62
     3
100
AcDbCircle
 10
6103.86908308143
 20
-7370.65156625014
 30
0.0
 40
155.5209858911256
100
AcDbArc
 50
126.9209368399907
 51
195.3189193312899
  0
ARC
  5
257
330
1F
100
AcDbEntity
  8
1
  6
DASHED
 62
     3
100
AcDbCircle
 10
6377.87417986405
 20
-7431.8217365117
 30
0.0
 40
298.0000000000015
100
AcDbArc
 50
143.1233555194253
 51
176.1357890489684
  0
ARC
  5
258
330
1F
100
AcDbEntity
  8
1
  6
DASHED
 62
     3
100
AcDbCircle
 10
6169.43141010614
 20
-7124.05557642018
 30
0.0
 40
14.02855879285914
100
AcDbArc
 50
15.15323246355858
 51
129.9106265854285
  0
ARC
  5
259
330
1F
100
AcDbEntity
  8
1
  6
DASHED
 62
     3
100
AcDbCircle
 10
6105.94091497649
 20
-7168.80386016317
 30
0.0
 40
77.00000000001997
100
AcDbArc
 50
324.2303553390146
 51
359.267972987605
  0
ARC
  5
25A
330
1F
100
AcDbEntity
  8
1
  6
DASHED
 62
     3
100
AcDbCircle
 10
4457.29169217433
 20
-7168.80386016317
 30
0.0
 40
77.00000000002773
100
AcDbArc
 50
180.732027012395
 51
215.7696446609854
  0
ARC
  5
25B
330
1F
100
AcDbEntity
  8
1
  6
DASHED
 62
     3
100
AcDbCircle
 10
4393.80119704468
 20
-7124.05557642018
 30
0.0
 40
14.02855879300445
100
AcDbArc
 50
50.08937341457496
 51
164.8467675364414
  0
ARC
  5
25C
330
1F
100
AcDbEntity
  8
1
  6
DASHED
 62
     3
100
AcDbCircle
 10
4185.35842728677
 20
-7431.8217365117
 30
0.0
 40
297.9999999999993
100
AcDbArc
 50
3.86421095103159
 51
36.8766444805747
  0
ARC
  5
25D
330
1F
100
AcDbEntity
  8
1
  6
DASHED
 62
     3
100
AcDbCircle
 10
4459.36352406939
 20
-7370.65156625014
 30
0.0
 40
155.5209858911208
100
AcDbArc
 50
344.68108066871
 51
53.07906316000931
  0
ARC
  5
25E
330
1F
100
AcDbEntity
  8
1
  6
DASHED
 62
     3
100
AcDbCircle
 10
4495.47650110803
 20
-7222.10459999755
 30
0.0
 40
24.46993620885014
100
AcDbArc
 50
0.88379842767454
 51
44.85030358721004
  0
ARC
  5
25F
330
1F
100
AcDbEntity
  8
1
  6
DASHED
 62
     3
100
AcDbCircle
 10
4534.94174173945
 20
-7221.49579277769
 30
0.0
 40
14.99999999995096
100
AcDbArc
 50
180.8837984276027
 51
265.6316436598242
  0
ARC
  5
260
330
1F
100
AcDbEntity
  8
1
  6
DASHED
 62
     3
100
AcDbCircle
 10
4531.7210598093
 20
-7263.65668261056
 30
0.0
 40
27.28372528052261
100
AcDbArc
 50
39.45687512997031
 51
85.63164365972597
  0
ARC
  5
261
330
1F
100
AcDbEntity
  8
1
  6
DASHED
 62
     3
100
AcDbCircle
 10
4066.46712489065
 20
-7629.37155114516
 30
0.0
 40
616.0000000000027
100
AcDbArc
 50
43.56390684683656
 51
56.90711968309692
  0
ARC
  5
262
330
1F
100
AcDbEntity
  8
1
  6
Continuous
 62
     1
100
AcDbCircle
 10
3917.35356946911
 20
-7670.36812331396
 30
0.0
 40
728.9999999999987
100
AcDbArc
 50
20.77950849163122
 51
49.96491415807018
  0
ARC
  5
263
330
1F
100
AcDbEntity
  8
1
  6
Continuous
 62
     7
100
AcDbCircle
 10
4507.65301866167
 20
-7400.6106383439
 30
0.0
 40
74.99999999997738
100
AcDbArc
 50
356.1364789557985
 51
76.24763919025449
  0
ARC
  5
264
330
1F
100
AcDbEntity
  8
1
  6
Continuous
 62
     7
100
AcDbCircle
 10
4384.93993530023
 20
-8077.24375697631
 30
0.0
 40
762.5464104405952
100
AcDbArc
 50
79.3792770572516
 51
100.6207229427484
  0
ARC
  5
265
330
1F
100
AcDbEntity
  8
1
  6
Continuous
 62
     1
100
AcDbCircle
 10
4530.48276460753
 20
-7411.60828554807
 30
0.0
 40
52.00000000018422
100
AcDbArc
 50
359.8560893960935
 51
77.53974008147269
  0
ARC
  5
266
330
1F
100
AcDbEntity
  8
1
  6
Continuous
 62
     7
100
AcDbCircle
 10
4245.64187558582
 20
-7341.73396938543
 30
0.0
 40
14.02855879299746
100
AcDbArc
 50
95.08937341455163
 51
209.8467675364641
  0
ARC
  5
267
330
1F
100
AcDbEntity
  8
1
  6
Continuous
 62
     7
100
AcDbCircle
 10
4322.17825011402
 20
-7328.4812246195
 30
0.0
 40
77.00000000003509
100
AcDbArc
 50
225.7320270123925
 51
260.7696446609791
  0
ARC
  5
268
330
1F
100
AcDbEntity
  8
0
  6
Continuous
 62
     1
100
AcDbCircle
 10
4256.22310321551
 20
-8629.10897143045
 30
0.0
 40
1300.008508778673
100
AcDbArc
 50
77.3145755742609
 51
81.44119854293662
  0
ARC
  5
269
330
1F
100
AcDbEntity
  8
0
  6
Continuous
 62
     1
100
AcDbCircle
 10
4275.91932855148
 20
-9370.48130278832
 30
0.0
 40
2034.339226507107
100
AcDbArc
 50
85.0997262338796
 51
91.22057254248595
  0
ARC
  5
26A
330
1F
100
AcDbEntity
  8
0
  6
Continuous
 62
     1
100
AcDbCircle
 10
3525.58174654768
 20
-9370.48130278832
 30
0.0
 40
2034.339226507094
100
AcDbArc
 50
88.77942745751402
 51
94.90027376612046
  0
ARC
  5
26B
330
1F
100
AcDbEntity
  8
0
  6
Continuous
 62
     1
100
AcDbCircle
 10
3545.27797188365
 20
-8629.10897143045
 30
0.0
 40
1300.008508778666
100
AcDbArc
 50
98.55880145706347
 51
102.685424425739
  0
ARC
  5
26C
330
1F
100
AcDbEntity
  8
1
  6
Continuous
 62
     7
100
AcDbCircle
 10
3479.32282498514
 20
-7328.4812246195
 30
0.0
 40
77.00000000002498
100
AcDbArc
 50
279.2303553390209
 51
314.2679729876077
  0
ARC
  5
26D
330
1F
100
AcDbEntity
  8
1
  6
Continuous
 62
     7
100
AcDbCircle
 10
3555.85919951334
 20
-7341.73396938543
 30
0.0
 40
14.0285587928532
100
AcDbArc
 50
330.1532324635349
 51
84.91062658543538
  0
ARC
  5
26E
330
1F
100
AcDbEntity
  8
1
  6
Continuous
 62
     1
100
AcDbCircle
 10
3271.01831049163
 20
-7411.60828554807
 30
0.0
 40
52.00000000018814
100
AcDbArc
 50
102.4602599185255
 51
180.1439106039065
  0
ARC
  5
26F
330
1F
100
AcDbEntity
  8
1
  6
Continuous
 62
     7
100
AcDbCircle
 10
3416.56113979893
 20
-8077.24375697631
 30
0.0
 40
762.5464104404476
100
AcDbArc
 50
79.37927705725025
 51
100.6207229427485
  0
ARC
  5
270
330
1F
100
AcDbEntity
  8
1
  6
Continuous
 62
     7
100
AcDbCircle
 10
3293.84805643749
 20
-7400.6106383439
 30
0.0
 40
74.99999999996983
100
AcDbArc
 50
103.7523608097459
 51
183.8635210442015
  0
ARC
  5
271
330
1F
100
AcDbEntity
  8
1
  6
Continuous
 62
     1
100
AcDbCircle
 10
3884.14750563005
 20
-7670.36812331396
 30
0.0
 40
729.000000000001
100
AcDbArc
 50
130.0350858419299
 51
159.2204915083688
  0
ARC
  5
272
330
1F
100
AcDbEntity
  8
1
  6
DASHED
 62
     3
100
AcDbCircle
 10
3735.03395020851
 20
-7629.37155114516
 30
0.0
 40
615.9999999998616
100
AcDbArc
 50
123.0928803169017
 51
136.4360931531634
  0
ARC
  5
273
330
1F
100
AcDbEntity
  8
1
  6
DASHED
 62
     3
100
AcDbCircle
 10
3269.78001528986
 20
-7263.65668261056
 30
0.0
 40
27.28372528051422
100
AcDbArc
 50
94.36835634025374
 51
140.5431248700285
  0
ARC
  5
274
330
1F
100
AcDbEntity
  8
1
  6
DASHED
 62
     3
100
AcDbCircle
 10
3266.55933335971
 20
-7221.49579277769
 30
0.0
 40
14.99999999995932
100
AcDbArc
 50
274.3683563402127
 51
359.1162015723972
  0
ARC
  5
275
330
1F
100
AcDbEntity
  8
1
  6
DASHED
 62
     3
100
AcDbCircle
 10
3306.02457399113
 20
-7222.10459999755
 30
0.0
 40
24.46993620885506
100
AcDbArc
 50
135.14969641279
 51
179.1162015723255
  0
ARC
  5
276
330
1F
100
AcDbEntity
  8
1
  6
DASHED
 62
     3
100
AcDbCircle
 10
3342.13755102977
 20
-7370.65156625014
 30
0.0
 40
155.5209858911254
100
AcDbArc
 50
126.9209368399906
 51
195.31891933129
  0
ARC
  5
277
330
1F
100
AcDbEntity
  8
1
  6
DASHED
 62
     3
100
AcDbCircle
 10
3616.14264781239
 20
-7431.8217365117
 30
0.0
 40
298.0000000000015
100
AcDbArc
 50
143.1233555194253
 51
176.1357890489684
  0
ARC
  5
278
330
1F
100
AcDbEntity
  8
1
  6
DASHED
 62
     3
100
AcDbCircle
 10
3407.69987805448
 20
-7124.05557642018
 30
0.0
 40
14.02855879285914
100
AcDbArc
 50
15.15323246355858
 51
129.9106265854299
  0
ARC
  5
279
330
1F
100
AcDbEntity
  8
1
  6
DASHED
 62
     3
100
AcDbCircle
 10
3344.20938292483
 20
-7168.80386016317
 30
0.0
 40
77.0000000000196
100
AcDbArc
 50
324.2303553390145
 51
359.267972987605
  0
ARC
  5
27A
330
1F
100
AcDbEntity
  8
1
  6
DASHED
 62
     3
100
AcDbCircle
 10
1962.82687838115
 20
-7168.80386016317
 30
0.0
 40
77.00000000003773
100
AcDbArc
 50
180.732027012395
 51
215.7696446609854
  0
ARC
  5
27B
330
1F
100
AcDbEntity
  8
1
  6
DASHED
 62
     3
100
AcDbCircle
 10
1899.3363832515
 20
-7124.05557642018
 30
0.0
 40
14.02855879299648
100
AcDbArc
 50
50.08937341455017
 51
164.8467675364414
  0
ARC
  5
27C
330
1F
100
AcDbEntity
  8
1
  6
DASHED
 62
     3
100
AcDbCircle
 10
1690.89361349359
 20
-7431.8217365117
 30
0.0
 40
297.9999999999993
100
AcDbArc
 50
3.86421095103159
 51
36.8766444805747
  0
ARC
  5
27D
330
1F
100
AcDbEntity
  8
1
  6
DASHED
 62
     3
100
AcDbCircle
 10
1964.89871027621
 20
-7370.65156625014
 30
0.0
 40
155.520985891121
100
AcDbArc
 50
344.68108066871
 51
53.07906316000937
  0
ARC
  5
27E
330
1F
100
AcDbEntity
  8
1
  6
DASHED
 62
     3
100
AcDbCircle
 10
2001.01168731485
 20
-7222.10459999755
 30
0.0
 40
24.46993620885059
100
AcDbArc
 50
0.88379842767453
 51
44.85030358722693
  0
ARC
  5
27F
330
1F
100
AcDbEntity
  8
1
  6
DASHED
 62
     3
100
AcDbCircle
 10
2040.47692794627
 20
-7221.49579277769
 30
0.0
 40
14.99999999995073
100
AcDbArc
 50
180.8837984276028
 51
265.6316436598233
  0
ARC
  5
280
330
1F
100
AcDbEntity
  8
1
  6
DASHED
 62
     3
100
AcDbCircle
 10
2037.25624601612
 20
-7263.65668261056
 30
0.0
 40
27.28372528052208
100
AcDbArc
 50
39.45687512997122
 51
85.63164365972645
  0
ARC
  5
281
330
1F
100
AcDbEntity
  8
1
  6
DASHED
 62
     3
100
AcDbCircle
 10
1572.00231109747
 20
-7629.37155114516
 30
0.0
 40
615.9999999999955
100
AcDbArc
 50
43.56390684683721
 51
56.90711968309642
  0
ARC
  5
282
330
1F
100
AcDbEntity
  8
1
  6
Continuous
 62
     1
100
AcDbCircle
 10
1422.88875567593
 20
-7670.36812331396
 30
0.0
 40
728.9999999999983
100
AcDbArc
 50
20.77950849163124
 51
49.96491415807015
  0
ARC
  5
283
330
1F
100
AcDbEntity
  8
1
  6
Continuous
 62
     7
100
AcDbCircle
 10
2013.18820486849
 20
-7400.6106383439
 30
0.0
 40
74.99999999997715
100
AcDbArc
 50
356.1364789557985
 51
76.24763919025415
  0
ARC
  5
284
330
1F
100
AcDbEntity
  8
1
  6
Continuous
 62
     7
100
AcDbCircle
 10
1890.47512150705
 20
-8077.24375697631
 30
0.0
 40
762.5464104405952
100
AcDbArc
 50
79.37927705725157
 51
100.6207229427485
  0
ARC
  5
285
330
1F
100
AcDbEntity
  8
1
  6
Continuous
 62
     1
100
AcDbCircle
 10
2036.01795081435
 20
-7411.60828554807
 30
0.0
 40
52.00000000018399
100
AcDbArc
 50
359.8560893960935
 51
77.53974008147219
  0
ARC
  5
286
330
1F
100
AcDbEntity
  8
1
  6
Continuous
 62
     7
100
AcDbCircle
 10
1751.17706179264
 20
-7341.73396938543
 30
0.0
 40
14.02855879299746
100
AcDbArc
 50
95.08937341455163
 51
209.846767536465
  0
ARC
  5
287
330
1F
100
AcDbEntity
  8
1
  6
Continuous
 62
     7
100
AcDbCircle
 10
1827.71343632084
 20
-7328.4812246195
 30
0.0
 40
77.00000000003524
100
AcDbArc
 50
225.7320270123924
 51
260.7696446609791
  0
ARC
  5
288
330
1F
100
AcDbEntity
  8
0
  6
Continuous
 62
     1
100
AcDbCircle
 10
1761.75828942233
 20
-8629.10897143045
 30
0.0
 40
1300.008508778673
100
AcDbArc
 50
77.31457557426091
 51
81.44119854293662
  0
ARC
  5
289
330
1F
100
AcDbEntity
  8
0
  6
Continuous
 62
     1
100
AcDbCircle
 10
1781.4545147583
 20
-9370.48130278832
 30
0.0
 40
2034.339226507107
100
AcDbArc
 50
85.09972623387957
 51
91.22057254248595
  0
ARC
  5
28A
330
1F
100
AcDbEntity
  8
1
  6
Continuous
 62
     7
100
AcDbCircle
 10
-420.967447532044
 20
-7096.50491607091
 30
0.0
 40
23.78533516904538
100
AcDbArc
 50
178.9238812680051
 51
255.9495477396898
  0
ARC
  5
28B
330
1F
100
AcDbEntity
  8
1
  6
Continuous
 62
     7
100
AcDbCircle
 10
-424.043730038644
 20
-7140.40458384277
 30
0.0
 40
20.99999999950344
100
AcDbArc
 50
97.38218120449912
 51
170.3826865934535
  0
ARC
  5
28C
330
1F
100
AcDbEntity
  8
1
  6
DASHED
 62
     3
100
AcDbCircle
 10
-358.439839878813
 20
-7168.80386016317
 30
0.0
 40
77.00000000003477
100
AcDbArc
 50
180.732027012395
 51
215.7696446609837
  0
ARC
  5
28D
330
1F
100
AcDbEntity
  8
1
  6
DASHED
 62
     3
100
AcDbCircle
 10
-421.930335008465
 20
-7124.05557642018
 30
0.0
 40
14.02855879300346
100
AcDbArc
 50
50.08937341457976
 51
164.8467675364362
  0
ARC
  5
28E
330
1F
100
AcDbEntity
  8
1
  6
DASHED
 62
     3
100
AcDbCircle
 10
-630.37310476637
 20
-7431.8217365117
 30
0.0
 40
297.9999999999953
100
AcDbArc
 50
3.86421095103164
 51
36.87664448057514
  0
ARC
  5
28F
330
1F
100
AcDbEntity
  8
1
  6
DASHED
 62
     3
100
AcDbCircle
 10
-356.368007983753
 20
-7370.65156625014
 30
0.0
 40
155.5209858911202
100
AcDbArc
 50
344.6810806687099
 51
53.07906316001083
  0
ARC
  5
290
330
1F
100
AcDbEntity
  8
1
  6
DASHED
 62
     3
100
AcDbCircle
 10
-320.255030945114
 20
-7222.10459999754
 30
0.0
 40
24.46993620884828
100
AcDbArc
 50
0.88379842765118
 51
44.85030358720207
  0
ARC
  5
291
330
1F
100
AcDbEntity
  8
1
  6
DASHED
 62
     3
100
AcDbCircle
 10
-280.789790313696
 20
-7221.49579277769
 30
0.0
 40
14.99999999995079
100
AcDbArc
 50
180.8837984276028
 51
265.6316436598124
  0
ARC
  5
292
330
1F
100
AcDbEntity
  8
1
  6
DASHED
 62
     3
100
AcDbCircle
 10
-284.010472243848
 20
-7263.65668261056
 30
0.0
 40
27.28372528052213
100
AcDbArc
 50
39.45687512997115
 51
85.63164365972835
  0
ARC
  5
293
330
1F
100
AcDbEntity
  8
1
  6
DASHED
 62
     3
100
AcDbCircle
 10
-749.264407162499
 20
-7629.37155114516
 30
0.0
 40
616.0000000000027
100
AcDbArc
 50
43.56390684683656
 51
56.90711968309669
  0
ARC
  5
294
330
1F
100
AcDbEntity
  8
1
  6
Continuous
 62
     1
100
AcDbCircle
 10
-898.377962584037
 20
-7670.36812331396
 30
0.0
 40
729.0000000000013
100
AcDbArc
 50
20.77950849163114
 51
49.96491415806991
  0
ARC
  5
295
330
1F
100
AcDbEntity
  8
1
  6
Continuous
 62
     7
100
AcDbCircle
 10
-308.078513391469
 20
-7400.6106383439
 30
0.0
 40
74.9999999999691
100
AcDbArc
 50
356.1364789557981
 51
76.24763919025783
  0
ARC
  5
296
330
1F
100
AcDbEntity
  8
1
  6
Continuous
 62
     7
100
AcDbCircle
 10
-430.791596752913
 20
-8077.2437569763
 30
0.0
 40
762.5464104405852
100
AcDbArc
 50
79.3792770572515
 51
100.6207229427487
  0
ARC
  5
297
330
1F
100
AcDbEntity
  8
1
  6
Continuous
 62
     1
100
AcDbCircle
 10
-285.248767445614
 20
-7411.60828554807
 30
0.0
 40
52.00000000018404
100
AcDbArc
 50
359.8560893960935
 51
77.53974008147219
  0
ARC
  5
298
330
1F
100
AcDbEntity
  8
1
  6
Continuous
 62
     7
100
AcDbCircle
 10
-570.089656467324
 20
-7341.73396938543
 30
0.0
 40
14.02855879299755
100
AcDbArc
 50
95.08937341455578
 51
209.8467675364646
  0
ARC
  5
299
330
1F
100
AcDbEntity
  8
1
  6
Continuous
 62
     7
100
AcDbCircle
 10
-493.553281939124
 20
-7328.4812246195
 30
0.0
 40
77.00000000003529
100
AcDbArc
 50
225.7320270123924
 51
260.7696446609792
  0
ARC
  5
29A
330
1F
100
AcDbEntity
  8
0
  6
Continuous
 62
     1
100
AcDbCircle
 10
-559.508428837634
 20
-8629.10897143045
 30
0.0
 40
1300.008508778673
100
AcDbArc
 50
77.3145755742609
 51
81.44119854293656
  0
ARC
  5
29B
330
1F
100
AcDbEntity
  8
0
  6
Continuous
 62
     1
100
AcDbCircle
 10
-539.81220350166
 20
-9370.48130278832
 30
0.0
 40
2034.339226507107
100
AcDbArc
 50
85.09972623387966
 51
91.22057254248602
  0
ARC
  5
29C
330
1F
100
AcDbEntity
  8
0
  6
Continuous
 62
     7
100
AcDbCircle
 10
-2333.35608688562
 20
-7628.79073267852
 30
0.0
 40
221.9999999994384
100
AcDbArc
 50
90.20186418853365
 51
151.827854038752
  0
ARC
  5
29D
330
1F
100
AcDbEntity
  8
1
  6
Continuous
 62
     7
100
AcDbCircle
 10
-2650.56285389606
 20
-7553.25953225648
 30
0.0
 40
124.984503745324
100
AcDbArc
 50
358.8952114990695
 51
13.54851241210758
  0
ARC
  5
29E
330
1F
100
AcDbEntity
  8
1
  6
Continuous
 62
     7
100
AcDbCircle
 10
1060.98646060282
 20
-6795.08410493669
 30
0.0
 40
3663.29040365244
100
AcDbArc
 50
185.6145730280276
 51
191.4769029590916
  0
ARC
  5
29F
330
1F
100
AcDbEntity
  8
1
  6
Continuous
 62
     7
100
AcDbCircle
 10
-2582.79888731133
 20
-7088.443265593
 30
0.0
 40
20.0000000000099
100
AcDbArc
 50
186.4064175767611
 51
257.9368972485976
  0
ARC
  5
2A0
330
1F
100
AcDbEntity
  8
1
  6
Continuous
 62
     7
100
AcDbCircle
 10
-2565.88876042452
 20
-7113.79242674998
 30
0.0
 40
21.87046905969165
100
AcDbArc
 50
164.6462879814475
 51
184.4601685684044
  0
ARC
  5
2A1
330
1F
100
AcDbEntity
  8
1
  6
Continuous
 62
     1
100
AcDbCircle
 10
-2608.81099583107
 20
-7084.50902524913
 30
0.0
 40
8.69944913668439
100
AcDbArc
 50
314.8656647931684
 51
347.6940973753173
  0
ARC
  5
2A2
330
1F
100
AcDbEntity
  8
1
  6
Continuous
 62
     7
100
AcDbCircle
 10
-2680.10704583511
 20
-6950.38869327798
 30
0.0
 40
142.821463908826
100
AcDbArc
 50
227.8171050703382
 51
270.0259144346016
  0
ARC
  5
2A3
330
1F
100
AcDbEntity
  8
1
  6
Continuous
 62
     7
100
AcDbCircle
 10
-2583.480660529
 20
-7118.66526289964
 30
0.0
 40
109.4567981941005
100
AcDbArc
 50
28.54937265155443
 51
90.0000000000157
  0
ARC
  5
2A4
330
1F
100
AcDbEntity
  8
1
  6
Continuous
 62
     1
100
AcDbCircle
 10
-2583.48072549816
 20
-7077.32682969646
 30
0.0
 40
42.91496630773656
100
AcDbArc
 50
22.8721406036641
 51
90.00000000001334
  0
ARC
  5
2A5
330
1F
100
AcDbEntity
  8
1
  6
Continuous
 62
     7
100
AcDbCircle
 10
-2365.60648516543
 20
-7651.10918897417
 30
0.0
 40
159.9999999999984
100
AcDbArc
 50
179.5515463391882
 51
194.1071429556179
  0
ARC
  5
2A6
330
1F
100
AcDbEntity
  8
1
  6
DASHED
 62
     3
100
AcDbCircle
 10
729.547877069072
 20
-5944.97140943918
 30
0.0
 40
3663.290403652442
100
AcDbArc
 50
200.6145730280304
 51
206.4769029590945
  0
ARC
  5
2A7
330
1F
100
AcDbEntity
  8
1
  6
DASHED
 62
     3
100
AcDbCircle
 10
-2714.1515581017
 20
-7171.41564340146
 30
0.0
 40
20.000000000001
100
AcDbArc
 50
201.4064175767848
 51
272.9368972485892
  0
ARC
  5
2A8
330
1F
100
AcDbEntity
  8
1
  6
DASHED
 62
     3
100
AcDbCircle
 10
-2691.25678413111
 20
-7191.52438994434
 30
0.0
 40
21.87046905969246
100
AcDbArc
 50
146.6335393365595
 51
199.460168568426
  0
ARC
  5
2A9
330
1F
100
AcDbEntity
  8
1
  6
DASHED
 62
     3
100
AcDbCircle
 10
-2740.29558184616
 20
-7174.34788813467
 30
0.0
 40
8.699449136694234
100
AcDbArc
 50
285.0000000000201
 51
2.6940973752856
  0
ARC
  5
2AA
330
1F
100
AcDbEntity
  8
1
  6
DASHED
 62
     3
100
AcDbCircle
 10
-2843.87517410707
 20
-7063.25037123491
 30
0.0
 40
142.8214639088237
100
AcDbArc
 50
242.8171050703407
 51
285.0259144346059
  0
ARC
  5
2AB
330
1F
100
AcDbEntity
  8
1
  6
DASHED
 62
     3
100
AcDbCircle
 10
-2706.98807197632
 20
-7200.78430701516
 30
0.0
 40
109.4567981941072
100
AcDbArc
 50
87.75614355018999
 51
105.0000000000235
  0
ARC
  5
2AC
330
1F
100
AcDbEntity
  8
1
  6
DASHED
 62
     3
100
AcDbCircle
 10
-2717.68730853939
 20
-7160.85446358114
 30
0.0
 40
42.9149663077302
100
AcDbArc
 50
37.87214060367995
 51
105.0000000000216
  0
ARC
  5
2AD
330
1F
100
AcDbEntity
  8
1
  6
DASHED
 62
     3
100
AcDbCircle
 10
-2659.3032212317
 20
-7637.93228497481
 30
0.0
 40
124.9845037453201
100
AcDbArc
 50
13.89521149908066
 51
28.54851241211087
  0
ARC
  5
2AE
330
1F
100
AcDbEntity
  8
0
  6
DASHED
 62
     3
100
AcDbCircle
 10
-2333.35609953398
 20
-7628.79066961534
 30
0.0
 40
221.9999999994264
100
AcDbArc
 50
151.8278541003993
 51
166.8278540387575
  0
ARC
  5
2AF
330
1F
100
AcDbEntity
  8
0
  6
DASHED
 62
     3
100
AcDbCircle
 10
-2777.27586559803
 20
-6937.00114804988
 30
0.0
 40
302.5105280668541
100
AcDbArc
 50
350.0000000003981
 51
10.4838795275459
  0
ARC
  5
2B0
330
1F
100
AcDbEntity
  8
0
  6
DASHED
 62
     3
100
AcDbCircle
 10
-2456.33139447693
 20
-6969.2736386729
 30
0.0
 40
97.96863728242226
100
AcDbArc
 50
127.8171570183923
 51
144.6549375069872
  0
ARC
  5
2B1
330
1F
100
AcDbEntity
  8
1
  6
DASHED
 62
     3
100
AcDbCircle
 10
-2499.5179404185
 20
-7007.51437422443
 30
0.0
 40
16.99999999999812
100
AcDbArc
 50
314.3462053693634
 51
352.9181736514295
  0
ARC
  5
2B2
330
1F
100
AcDbEntity
  8
1
  6
DASHED
 62
     3
100
AcDbCircle
 10
-2507.31748421254
 20
-7043.6215755805
 30
0.0
 40
30.99999999999757
100
AcDbArc
 50
325.4618620434877
 51
50.58620827508066
  0
ARC
  5
2B3
330
1F
100
AcDbEntity
  8
1
  6
DASHED
 62
     3
100
AcDbCircle
 10
-2497.2397643326
 20
-7096.2521639674
 30
0.0
 40
38.31210964500898
100
AcDbArc
 50
335.4257563867479
 51
66.20355156983833
  0
ARC
  5
2B4
330
1F
100
AcDbEntity
  8
0
  6
DASHED
 62
     3
100
AcDbCircle
 10
-2622.83629176127
 20
-7023.57598683124
 30
0.0
 40
97.96863728241557
100
AcDbArc
 50
142.8171570183915
 51
159.6549375069835
  0
ARC
  5
2B5
330
1F
100
AcDbEntity
  8
0
  6
DASHED
 62
     3
100
AcDbCircle
 10
-2941.19758042796
 20
-7075.46969620626
 30
0.0
 40
302.5105280668511
100
AcDbArc
 50
12.65252289979804
 51
25.48387952753933
  0
ARC
  5
2B6
330
1F
100
AcDbEntity
  8
1
  6
DASHED
 62
     3
100
AcDbCircle
 10
-2443.31894479982
 20
-7090.14202442427
 30
0.0
 40
289.4301614091052
100
AcDbArc
 50
159.6549375069804
 51
164.3907291288838
  0
ARC
  5
2B7
330
1F
100
AcDbEntity
  8
1
  6
DASHED
 62
     3
100
AcDbCircle
 10
-2300.15951106604
 20
-7080.03400185762
 30
0.0
 40
289.4301614091091
100
AcDbArc
 50
144.6549375069864
 51
165.8422016182373
  0
ARC
  5
2B8
330
1F
100
AcDbEntity
  8
1
  6
DASHED
 62
     3
100
AcDbCircle
 10
-2629.48628205101
 20
-7156.81568902005
 30
0.0
 40
38.31210964502482
100
AcDbArc
 50
350.4271989478348
 51
81.20355156983467
  0
ARC
  5
2B9
330
1F
100
AcDbEntity
  8
1
  6
DASHED
 62
     3
100
AcDbCircle
 10
-2652.84241058263
 20
-7108.58675028048
 30
0.0
 40
31.0000000000002
100
AcDbArc
 50
340.4618620434758
 51
29.73970436231049
  0
ARC
  5
2BA
330
1F
100
AcDbEntity
  8
1
  6
DASHED
 62
     3
100
AcDbCircle
 10
-2443.31894479982
 20
-7090.14202442427
 30
0.0
 40
289.4301614091077
100
AcDbArc
 50
178.6231838248351
 51
180.8418740189749
  0
ARC
  5
2BB
330
1F
100
AcDbEntity
  8
1
  6
DASHED
 62
     3
100
AcDbCircle
 10
-2706.98807197632
 20
-7200.78430701516
 30
0.0
 40
109.4567981940984
100
AcDbArc
 50
43.54937265156224
 51
79.98890418662452
  0
ARC
  5
2BC
330
1F
100
AcDbEntity
  8
1
  6
Continuous
 62
     7
100
AcDbCircle
 10
-1954.27235543957
 20
-7660.7388945318
 30
0.0
 40
348.9999999999914
100
AcDbArc
 50
58.95177800649064
 51
90.0
  0
ARC
  5
2BD
330
1F
100
AcDbEntity
  8
1
  6
Continuous
 62
     7
100
AcDbCircle
 10
-2222.84641025568
 20
-7660.7388945318
 30
0.0
 40
348.99999999999
100
AcDbArc
 50
90.0
 51
121.0482219935094
  0
ARC
  5
2BE
330
1F
100
AcDbEntity
  8
1
  6
Continuous
 62
     7
100
AcDbCircle
 10
-2297.40094154995
 20
-7275.84795712034
 30
0.0
 40
135.9999999999712
100
AcDbArc
 50
219.1646461937054
 51
267.7052514521421
  0
ARC
  5
2BF
330
1F
100
AcDbEntity
  8
0
  6
Continuous
 62
     7
100
AcDbCircle
 10
-2333.35609953312
 20
-7628.79228414487
 30
0.0
 40
217.0533896130601
100
AcDbArc
 50
90.0
 51
101.4758227029803
  0
ARC
  5
2C0
330
1F
100
AcDbEntity
  8
0
  6
Continuous
 62
     7
100
AcDbCircle
 10
-2333.35609953312
 20
-7628.79228414487
 30
0.0
 40
217.0533896130596
100
AcDbArc
 50
101.4758227029803
 51
135.0497106714807
  0
ARC
  5
2C1
330
1F
100
AcDbEntity
  8
0
  6
Continuous
 62
     7
100
AcDbCircle
 10
-2333.35609953312
 20
-7628.79228414487
 30
0.0
 40
217.0533896130628
100
AcDbArc
 50
135.0497106714807
 51
149.2695732329518
  0
ARC
  5
2C2
330
1F
100
AcDbEntity
  8
1
  6
Continuous
 62
     7
100
AcDbCircle
 10
106.164833292095
 20
-9384.92379362855
 30
0.0
 40
150.879380103685
100
AcDbArc
 50
269.9999675743962
 51
316.6524215248695
  0
ARC
  5
2C3
330
1F
100
AcDbEntity
  8
1
  6
Continuous
 62
     7
100
AcDbCircle
 10
-673.816284379199
 20
-10570.4697676104
 30
0.0
 40
1180.432436630727
100
AcDbArc
 50
69.08376880368337
 51
82.9013953273947
  0
ARC
  5
2C4
330
1F
100
AcDbEntity
  8
1
  6
Continuous
 62
     7
100
AcDbCircle
 10
1105.58582742373
 20
-10570.4697676104
 30
0.0
 40
1180.432436630739
100
AcDbArc
 50
97.0986046726054
 51
110.9162311963169
  0
ARC
  5
2C5
330
1F
100
AcDbEntity
  8
1
  6
Continuous
 62
     7
100
AcDbCircle
 10
325.604709752434
 20
-9384.92379362855
 30
0.0
 40
150.8793801036931
100
AcDbArc
 50
223.3475784751282
 51
270.0000324256038
  0
ARC
  5
2C6
330
1F
100
AcDbEntity
  8
1
  6
Continuous
 62
     7
100
AcDbCircle
 10
2763.23806888316
 20
-9384.92379362855
 30
0.0
 40
150.8793801036903
100
AcDbArc
 50
223.3475784751292
 51
270.0000324256027
  0
ARC
  5
2C7
330
1F
100
AcDbEntity
  8
1
  6
Continuous
 62
     7
100
AcDbCircle
 10
3659.58582742521
 20
-10570.4697676104
 30
0.0
 40
1180.432436630739
100
AcDbArc
 50
97.0986046726052
 51
110.9162311963165
  0
ARC
  5
2C8
330
1F
100
AcDbEntity
  8
1
  6
Continuous
 62
     7
100
AcDbCircle
 10
1647.45043388076
 20
-10570.4697676104
 30
0.0
 40
1180.432436630727
100
AcDbArc
 50
69.08376880368337
 51
82.90139532739475
  0
ARC
  5
2C9
330
1F
100
AcDbEntity
  8
1
  6
Continuous
 62
     7
100
AcDbCircle
 10
2543.79819242282
 20
-9384.92379362855
 30
0.0
 40
150.8793801036941
100
AcDbArc
 50
269.9999675743973
 51
316.6524215248707
  0
ARC
  5
2CA
330
1F
100
AcDbEntity
  8
1
  6
Continuous
 62
     7
100
AcDbCircle
 10
5171.89636534524
 20
-9384.92379362855
 30
0.0
 40
150.879380103685
100
AcDbArc
 50
269.9999675743973
 51
316.6524215248707
  0
ARC
  5
2CB
330
1F
100
AcDbEntity
  8
1
  6
Continuous
 62
     7
100
AcDbCircle
 10
4141.91524767395
 20
-10570.4697676104
 30
0.0
 40
1180.432436630727
100
AcDbArc
 50
69.08376880368337
 51
82.90139532739477
  0
ARC
  5
2CC
330
1F
100
AcDbEntity
  8
1
  6
Continuous
 62
     7
100
AcDbCircle
 10
6421.31735947687
 20
-10570.4697676104
 30
0.0
 40
1180.432436630739
100
AcDbArc
 50
97.09860467260519
 51
110.9162311963165
  0
ARC
  5
2CD
330
1F
100
AcDbEntity
  8
1
  6
Continuous
 62
     7
100
AcDbCircle
 10
5391.33624180558
 20
-9384.92379362855
 30
0.0
 40
150.8793801036906
100
AcDbArc
 50
223.3475784751291
 51
270.0000324256027
  0
ARC
  5
2CE
330
1F
100
AcDbEntity
  8
1
  6
Continuous
 62
     7
100
AcDbCircle
 10
8375.10296006554
 20
-9384.92379362855
 30
0.0
 40
150.87938010369
100
AcDbArc
 50
223.3475784751293
 51
270.0000324256023
  0
ARC
  5
2CF
330
1F
100
AcDbEntity
  8
1
  6
Continuous
 62
     7
100
AcDbCircle
 10
9567.58407773684
 20
-10570.4697676104
 30
0.0
 40
1180.43243663073
100
AcDbArc
 50
97.09860467260525
 51
110.916231196317
  0
ARC
  5
2D0
330
1F
100
AcDbEntity
  8
1
  6
Continuous
 62
     7
100
AcDbCircle
 10
6963.18196593391
 20
-10570.4697676104
 30
0.0
 40
1180.432436630727
100
AcDbArc
 50
69.08376880368337
 51
82.90139532739471
  0
ARC
  5
2D1
330
1F
100
AcDbEntity
  8
1
  6
Continuous
 62
     7
100
AcDbCircle
 10
8155.6630836052
 20
-9384.92379362855
 30
0.0
 40
150.879380103685
100
AcDbArc
 50
269.9999675743973
 51
316.6524215248709
  0
ARC
  5
2D2
330
1F
100
AcDbEntity
  8
1
  6
Continuous
 62
     7
100
AcDbCircle
 10
-2608.81099583107
 20
-7084.50902524913
 30
0.0
 40
8.699449136690419
100
AcDbArc
 50
270.0
 51
314.8656647931684
  0
ARC
  5
2D3
330
1F
100
AcDbEntity
  8
1
  6
Continuous
 62
     1
100
AcDbCircle
 10
-2565.88876042452
 20
-7113.79242674998
 30
0.0
 40
21.87046905969613
100
AcDbArc
 50
131.6335393365678
 51
164.6462879814475
  0
ARC
  5
2D4
330
1F
100
AcDbEntity
  8
1
  6
Continuous
 62
     7
100
AcDbCircle
 10
304.538953814211
 20
-7391.73504856437
 30
0.0
 40
382.5729394129067
100
AcDbArc
 50
91.98102814883057
 51
103.399030951205
  0
ARC
  5
2D5
330
1F
100
AcDbEntity
  8
1
  6
Continuous
 62
     7
100
AcDbCircle
 10
127.230589230315
 20
-7391.73504856437
 30
0.0
 40
382.572939412899
100
AcDbArc
 50
76.60096904879472
 51
88.0189718511694
  0
ARC
  5
2D6
330
1F
100
AcDbEntity
  8
1
  6
Continuous
 62
     1
100
AcDbCircle
 10
127.230589230315
 20
-7409.21981676893
 30
0.0
 40
382.5729394129078
100
AcDbArc
 50
76.60096904879566
 51
88.01897185116931
  0
ARC
  5
2D7
330
1F
100
AcDbEntity
  8
1
  6
Continuous
 62
     1
100
AcDbCircle
 10
304.538953814211
 20
-7409.21981676893
 30
0.0
 40
382.5729394129076
100
AcDbArc
 50
91.98102814883057
 51
103.3990309512052
  0
ARC
  5
2D8
330
1F
100
AcDbEntity
  8
0
  6
Continuous
 62
     1
100
AcDbCircle
 10
-328.874164919692
 20
-7437.69170663435
 30
0.0
 40
411.0745946970044
100
AcDbArc
 50
91.11342526853134
 51
105.0883226347752
  0
ARC
  5
2D9
330
1F
100
AcDbEntity
  8
0
  6
Continuous
 62
     7
100
AcDbCircle
 10
-324.364829338716
 20
-7311.72048826403
 30
0.0
 40
302.5105280668495
100
AcDbArc
 50
90.0000000000002
 51
106.1847758763906
  0
ARC
  5
2DA
330
1F
100
AcDbEntity
  8
0
  6
Continuous
 62
     7
100
AcDbCircle
 10
4491.36670271443
 20
-7311.72048826403
 30
0.0
 40
302.5105280668495
100
AcDbArc
 50
90.0
 51
106.1847758763905
  0
ARC
  5
2DB
330
1F
100
AcDbEntity
  8
0
  6
Continuous
 62
     1
100
AcDbCircle
 10
4486.85736713345
 20
-7437.69170663435
 30
0.0
 40
411.0745946970048
100
AcDbArc
 50
91.11342526853437
 51
105.0883226347732
  0
ARC
  5
2DC
330
1F
100
AcDbEntity
  8
0
  6
Continuous
 62
     1
100
AcDbCircle
 10
6076.37524001736
 20
-7437.69170663435
 30
0.0
 40
411.0745946970042
100
AcDbArc
 50
74.91167736522374
 51
88.8865747314683
  0
ARC
  5
2DD
330
1F
100
AcDbEntity
  8
1
  6
Continuous
 62
     1
100
AcDbCircle
 10
5370.27048586736
 20
-7409.21981676893
 30
0.0
 40
382.5729394129079
100
AcDbArc
 50
91.98102814883156
 51
103.399030951205
  0
ARC
  5
2DE
330
1F
100
AcDbEntity
  8
1
  6
Continuous
 62
     1
100
AcDbCircle
 10
5192.96212128346
 20
-7409.21981676893
 30
0.0
 40
382.5729394129089
100
AcDbArc
 50
76.60096904879494
 51
88.01897185116995
  0
ARC
  5
2DF
330
1F
100
AcDbEntity
  8
1
  6
Continuous
 62
     7
100
AcDbCircle
 10
5192.96212128346
 20
-7391.73504856437
 30
0.0
 40
382.5729394128991
100
AcDbArc
 50
76.6009690487946
 51
88.01897185116991
  0
ARC
  5
2E0
330
1F
100
AcDbEntity
  8
1
  6
Continuous
 62
     7
100
AcDbCircle
 10
5370.27048586736
 20
-7391.73504856437
 30
0.0
 40
382.5729394129069
100
AcDbArc
 50
91.98102814883156
 51
103.3990309512054
  0
ARC
  5
2E1
330
1F
100
AcDbEntity
  8
0
  6
Continuous
 62
     7
100
AcDbCircle
 10
6071.86590443639
 20
-7311.72048826403
 30
0.0
 40
302.5105280668439
100
AcDbArc
 50
73.81522412360914
 51
90.0
  0
ARC
  5
2E2
330
1F
100
AcDbEntity
  8
0
  6
Continuous
 62
     7
100
AcDbCircle
 10
9218.13262269635
 20
-7311.72048826403
 30
0.0
 40
302.5105280668439
100
AcDbArc
 50
73.81522412360914
 51
90.0
  0
ARC
  5
2E3
330
1F
100
AcDbEntity
  8
1
  6
Continuous
 62
     7
100
AcDbCircle
 10
8354.03720412732
 20
-7391.73504856437
 30
0.0
 40
382.5729394129066
100
AcDbArc
 50
91.98102814883019
 51
103.3990309512054
  0
ARC
  5
2E4
330
1F
100
AcDbEntity
  8
1
  6
Continuous
 62
     7
100
AcDbCircle
 10
8176.72883954342
 20
-7391.73504856437
 30
0.0
 40
382.5729394128994
100
AcDbArc
 50
76.60096904879447
 51
88.01897185116826
  0
ARC
  5
2E5
330
1F
100
AcDbEntity
  8
1
  6
Continuous
 62
     1
100
AcDbCircle
 10
8176.72883954342
 20
-7409.21981676893
 30
0.0
 40
382.5729394129091
100
AcDbArc
 50
76.60096904879482
 51
88.01897185116833
  0
ARC
  5
2E6
330
1F
100
AcDbEntity
  8
1
  6
Continuous
 62
     1
100
AcDbCircle
 10
8354.03720412732
 20
-7409.21981676893
 30
0.0
 40
382.5729394129075
100
AcDbArc
 50
91.98102814883019
 51
103.399030951205
  0
ARC
  5
2E7
330
1F
100
AcDbEntity
  8
0
  6
Continuous
 62
     1
100
AcDbCircle
 10
9222.64195827732
 20
-7437.69170663435
 30
0.0
 40
411.0745946970042
100
AcDbArc
 50
74.91167736522374
 51
88.88657473146691
  0
ARC
  5
2E8
330
1F
100
AcDbEntity
  8
0
  6
Continuous
 62
     1
100
AcDbCircle
 10
7308.12408539342
 20
-7437.69170663435
 30
0.0
 40
411.074594697005
100
AcDbArc
 50
91.11342526853576
 51
105.0883226347749
  0
ARC
  5
2E9
330
1F
100
AcDbEntity
  8
0
  6
Continuous
 62
     7
100
AcDbCircle
 10
7312.63342097439
 20
-7311.72048826403
 30
0.0
 40
302.5105280668495
100
AcDbArc
 50
90.0
 51
106.1847758763905
  0
ARC
  5
2EA
330
1F
100
AcDbEntity
  8
0
  6
Continuous
 62
     7
100
AcDbCircle
 10
1996.90188892125
 20
-7311.72048826403
 30
0.0
 40
302.5105280668495
100
AcDbArc
 50
90.0
 51
106.1847758763905
  0
ARC
  5
2EB
330
1F
100
AcDbEntity
  8
0
  6
Continuous
 62
     1
100
AcDbCircle
 10
1992.39255334027
 20
-7437.69170663435
 30
0.0
 40
411.0745946970044
100
AcDbArc
 50
91.11342526853163
 51
105.0883226347749
  0
ARC
  5
2EC
330
1F
100
AcDbEntity
  8
0
  6
Continuous
 62
     1
100
AcDbCircle
 10
3314.6437079657
 20
-7437.69170663435
 30
0.0
 40
411.0745946970043
100
AcDbArc
 50
74.91167736522368
 51
88.88657473146836
  0
ARC
  5
2ED
330
1F
100
AcDbEntity
  8
1
  6
Continuous
 62
     1
100
AcDbCircle
 10
2742.17231294493
 20
-7409.21981676893
 30
0.0
 40
382.5729394129075
100
AcDbArc
 50
91.98102814883012
 51
103.3990309512051
  0
ARC
  5
2EE
330
1F
100
AcDbEntity
  8
1
  6
Continuous
 62
     1
100
AcDbCircle
 10
2564.86394836104
 20
-7409.21981676893
 30
0.0
 40
382.5729394129066
100
AcDbArc
 50
76.60096904879641
 51
88.0189718511699
  0
ARC
  5
2EF
330
1F
100
AcDbEntity
  8
1
  6
Continuous
 62
     7
100
AcDbCircle
 10
2564.86394836104
 20
-7391.73504856437
 30
0.0
 40
382.5729394128991
100
AcDbArc
 50
76.6009690487946
 51
88.01897185116982
  0
ARC
  5
2F0
330
1F
100
AcDbEntity
  8
1
  6
Continuous
 62
     7
100
AcDbCircle
 10
2742.17231294493
 20
-7391.73504856437
 30
0.0
 40
382.5729394129066
100
AcDbArc
 50
91.98102814883012
 51
103.399030951204
  0
ARC
  5
2F1
330
1F
100
AcDbEntity
  8
0
  6
Continuous
 62
     7
100
AcDbCircle
 10
3310.13437238473
 20
-7311.72048826403
 30
0.0
 40
302.5105280668441
100
AcDbArc
 50
73.81522412360897
 51
90.0
  0
ARC
  5
2F2
330
1F
100
AcDbEntity
  8
1
  6
Continuous
 62
     1
100
AcDbCircle
 10
-434.67426502414
 20
-7008.95687104592
 30
0.0
 40
10.07450052493913
100
AcDbArc
 50
180.3405375144024
 51
270.3405375144065
  0
ARC
  5
2F3
330
1F
100
AcDbEntity
  8
1
  6
Continuous
 62
     1
100
AcDbCircle
 10
-434.748587607715
 20
-7071.75182105476
 30
0.0
 40
10.00000000074452
100
AcDbArc
 50
92.34184280520518
 51
180.0
  0
ARC
  5
2F4
330
1F
100
AcDbEntity
  8
1
  6
Continuous
 62
     1
100
AcDbCircle
 10
-434.691015638118
 20
-7051.71339726801
 30
0.0
 40
10.05758568058333
100
AcDbArc
 50
180.0946074008044
 51
272.3274826860846
  0
ARC
  5
2F5
330
1F
100
AcDbEntity
  8
1
  6
Continuous
 62
     1
100
AcDbCircle
 10
-431.750358691915
 20
-7031.7117826758
 30
0.0
 40
13.00000000023496
100
AcDbArc
 50
102.7272363884695
 51
180.9457808532285
  0
ARC
  5
2F6
330
1F
100
AcDbEntity
  8
1
  6
Continuous
 62
     1
100
AcDbCircle
 10
-420.967447532044
 20
-7096.50491607091
 30
0.0
 40
23.78533516904538
100
AcDbArc
 50
178.9238812680051
 51
255.9495477396898
  0
ARC
  5
2F7
330
1F
100
AcDbEntity
  8
1
  6
Continuous
 62
     1
100
AcDbCircle
 10
-424.043730038644
 20
-7140.40458384277
 30
0.0
 40
20.99999999950344
100
AcDbArc
 50
97.38218120449912
 51
170.3826865934535
  0
ARC
  5
2F8
330
1F
100
AcDbEntity
  8
1
  6
Continuous
 62
     1
100
AcDbCircle
 10
-114.431908042727
 20
-2725.66383093902
 30
0.0
 40
4404.999999999997
100
AcDbArc
 50
265.9343761233742
 51
274.3004615893565
  0
ARC
  5
2F9
330
1F
100
AcDbEntity
  8
1
  6
Continuous
 62
     1
100
AcDbCircle
 10
-114.431908042727
 20
-205.784303386032
 30
0.0
 40
6863.435293133236
100
AcDbArc
 50
267.3289275980486
 51
272.7585406521807
  0
ARC
  5
2FA
330
1F
100
AcDbEntity
  8
1
  6
Continuous
 62
     1
100
AcDbCircle
 10
-113.267772721023
 20
-11680.9691332767
 30
0.0
 40
4672.999999999964
100
AcDbArc
 50
85.96090712145055
 51
93.94315148320742
  0
ARC
  5
2FB
330
1F
100
AcDbEntity
  8
1
  6
Continuous
 62
     1
100
AcDbCircle
 10
546.201451087254
 20
-2725.66383093902
 30
0.0
 40
4405.000000000001
100
AcDbArc
 50
265.6995384106434
 51
274.0656238766258
  0
ARC
  5
2FC
330
1F
100
AcDbEntity
  8
1
  6
Continuous
 62
     1
100
AcDbCircle
 10
546.201451087254
 20
-205.784303386032
 30
0.0
 40
6863.435293133238
100
AcDbArc
 50
267.2414593478194
 51
272.6710724019514
  0
ARC
  5
2FD
330
1F
100
AcDbEntity
  8
1
  6
Continuous
 62
     1
100
AcDbCircle
 10
545.03731576555
 20
-11680.9691332767
 30
0.0
 40
4672.999999999965
100
AcDbArc
 50
86.0568485167926
 51
94.03909287854944
  0
ARC
  5
2FE
330
1F
100
AcDbEntity
  8
1
  6
Continuous
 62
     1
100
AcDbCircle
 10
3040.85399533165
 20
-12514.8862292687
 30
0.0
 40
5508.944140626549
100
AcDbArc
 50
86.04956929413876
 51
94.03181365589595
  0
ARC
  5
2FF
330
1F
100
AcDbEntity
  8
1
  6
Continuous
 62
     1
100
AcDbCircle
 10
3042.01813065337
 20
1021.25103469945
 30
0.0
 40
8091.849015769954
100
AcDbArc
 50
267.2480985729843
 51
272.6777116271162
  0
ARC
  5
300
330
1F
100
AcDbEntity
  8
1
  6
Continuous
 62
     1
100
AcDbCircle
 10
3042.01813065336
 20
-1930.13439460177
 30
0.0
 40
5202.652882148017
100
AcDbArc
 50
265.7175406863718
 51
274.083626152354
  0
ARC
  5
301
330
1F
100
AcDbEntity
  8
1
  6
Continuous
 62
     1
100
AcDbCircle
 10
3420.44380807015
 20
-7008.95687104592
 30
0.0
 40
10.07450052470118
100
AcDbArc
 50
269.659462485874
 51
359.6594624855895
  0
ARC
  5
302
330
1F
100
AcDbEntity
  8
1
  6
Continuous
 62
     1
100
AcDbCircle
 10
3420.51813065373
 20
-7071.75182105476
 30
0.0
 40
10.0
100
AcDbArc
 50
0.0
 51
87.65815719479909
  0
ARC
  5
303
330
1F
100
AcDbEntity
  8
1
  6
Continuous
 62
     1
100
AcDbCircle
 10
3420.46055868413
 20
-7051.71339726801
 30
0.0
 40
10.0575856805851
100
AcDbArc
 50
267.6725173138924
 51
359.9053925991956
  0
ARC
  5
304
330
1F
100
AcDbEntity
  8
1
  6
Continuous
 62
     1
100
AcDbCircle
 10
3417.51990173793
 20
-7031.7117826758
 30
0.0
 40
13.00000000023335
100
AcDbArc
 50
359.0542191467712
 51
77.27276361833151
  0
ARC
  5
305
330
1F
100
AcDbEntity
  8
1
  6
Continuous
 62
     1
100
AcDbCircle
 10
3406.73699057805
 20
-7096.50491607091
 30
0.0
 40
23.78533516904062
100
AcDbArc
 50
284.0504522602885
 51
1.07611873199494
  0
ARC
  5
306
330
1F
100
AcDbEntity
  8
1
  6
Continuous
 62
     1
100
AcDbCircle
 10
3409.81327308465
 20
-7140.40458384277
 30
0.0
 40
20.99999999949837
100
AcDbArc
 50
9.61731340654647
 51
82.61781879552565
  0
ARC
  5
307
330
1F
100
AcDbEntity
  8
1
  6
Continuous
 62
     1
100
AcDbCircle
 10
2266.18226597431
 20
-12514.8862292799
 30
0.0
 40
5508.944140637487
100
AcDbArc
 50
85.96818634411204
 51
93.95043070586873
  0
ARC
  5
308
330
1F
100
AcDbEntity
  8
1
  6
Continuous
 62
     1
100
AcDbCircle
 10
2265.0181306526
 20
1021.25103469946
 30
0.0
 40
8091.849015769962
100
AcDbArc
 50
267.3222883728837
 51
272.7519014270159
  0
ARC
  5
309
330
1F
100
AcDbEntity
  8
1
  6
Continuous
 62
     1
100
AcDbCircle
 10
2265.01813065262
 20
-1930.13439460177
 30
0.0
 40
5202.652882148013
100
AcDbArc
 50
265.9163738476457
 51
274.2824593136282
  0
ARC
  5
30A
330
1F
100
AcDbEntity
  8
1
  6
Continuous
 62
     1
100
AcDbCircle
 10
1897.22298822132
 20
-7140.40458384277
 30
0.0
 40
20.9999999995135
100
AcDbArc
 50
97.38218120449852
 51
170.3826865934626
  0
ARC
  5
30B
330
1F
100
AcDbEntity
  8
1
  6
Continuous
 62
     1
100
AcDbCircle
 10
1900.29927072792
 20
-7096.50491607091
 30
0.0
 40
23.78533516903538
100
AcDbArc
 50
178.9238812680046
 51
255.9495477396817
  0
ARC
  5
30C
330
1F
100
AcDbEntity
  8
1
  6
Continuous
 62
     1
100
AcDbCircle
 10
1889.51635956805
 20
-7031.7117826758
 30
0.0
 40
13.0000000003314
100
AcDbArc
 50
102.7272363883502
 51
180.9457808532288
  0
ARC
  5
30D
330
1F
100
AcDbEntity
  8
1
  6
Continuous
 62
     1
100
AcDbCircle
 10
1886.57570262185
 20
-7051.71339726801
 30
0.0
 40
10.05758568058344
100
AcDbArc
 50
180.0946074008044
 51
272.3274826859937
  0
ARC
  5
30E
330
1F
100
AcDbEntity
  8
1
  6
Continuous
 62
     1
100
AcDbCircle
 10
1886.51813065225
 20
-7071.75182105476
 30
0.0
 40
10.00000000074448
100
AcDbArc
 50
92.34184280519963
 51
180.0
  0
ARC
  5
30F
330
1F
100
AcDbEntity
  8
1
  6
Continuous
 62
     1
100
AcDbCircle
 10
1886.59245323582
 20
-7008.95687104592
 30
0.0
 40
10.07450052493112
100
AcDbArc
 50
180.3405375144027
 51
270.3405375056429
  0
ARC
  5
310
330
1F
100
AcDbEntity
  8
1
  6
Continuous
 62
     1
100
AcDbCircle
 10
2742.17231294493
 20
-7409.21981676893
 30
0.0
 40
382.5729394129075
100
AcDbArc
 50
91.98102814883012
 51
103.3990309512051
  0
ARC
  5
311
330
1F
100
AcDbEntity
  8
1
  6
Continuous
 62
     1
100
AcDbCircle
 10
2564.86394836104
 20
-7409.21981676893
 30
0.0
 40
382.5729394129066
100
AcDbArc
 50
76.60096904879641
 51
88.0189718511699
  0
ARC
  5
312
330
1F
100
AcDbEntity
  8
1
  6
Continuous
 62
     7
100
AcDbCircle
 10
2564.86394836104
 20
-7391.73504856437
 30
0.0
 40
382.5729394128991
100
AcDbArc
 50
76.6009690487946
 51
88.01897185116982
  0
ARC
  5
313
330
1F
100
AcDbEntity
  8
1
  6
Continuous
 62
     7
100
AcDbCircle
 10
2742.17231294493
 20
-7391.73504856437
 30
0.0
 40
382.5729394129066
100
AcDbArc
 50
91.98102814883012
 51
103.399030951204
  0
ARC
  5
314
330
1F
100
AcDbEntity
  8
1
  6
Continuous
 62
     7
100
AcDbCircle
 10
5370.27048586736
 20
-7391.73504856437
 30
0.0
 40
382.5729394129069
100
AcDbArc
 50
91.98102814883156
 51
103.3990309512054
  0
ARC
  5
315
330
1F
100
AcDbEntity
  8
1
  6
Continuous
 62
     7
100
AcDbCircle
 10
5192.96212128346
 20
-7391.73504856437
 30
0.0
 40
382.5729394128991
100
AcDbArc
 50
76.6009690487946
 51
88.01897185116991
  0
ARC
  5
316
330
1F
100
AcDbEntity
  8
1
  6
Continuous
 62
     1
100
AcDbCircle
 10
5192.96212128346
 20
-7409.21981676893
 30
0.0
 40
382.5729394129089
100
AcDbArc
 50
76.60096904879494
 51
88.01897185116995
  0
ARC
  5
317
330
1F
100
AcDbEntity
  8
1
  6
Continuous
 62
     1
100
AcDbCircle
 10
5370.27048586736
 20
-7409.21981676893
 30
0.0
 40
382.5729394129079
100
AcDbArc
 50
91.98102814883156
 51
103.399030951205
  0
ARC
  5
318
330
1F
100
AcDbEntity
  8
0
  6
Continuous
 62
     1
100
AcDbCircle
 10
4486.85736713345
 20
-7437.69170663435
 30
0.0
 40
411.0745946970048
100
AcDbArc
 50
91.11342526853437
 51
105.0883226347732
  0
ARC
  5
319
330
1F
100
AcDbEntity
  8
0
  6
Continuous
 62
     7
100
AcDbCircle
 10
4491.36670271443
 20
-7311.72048826403
 30
0.0
 40
302.5105280668495
100
AcDbArc
 50
90.0
 51
106.1847758763905
  0
ARC
  5
31A
330
1F
100
AcDbEntity
  8
1
  6
Continuous
 62
     1
100
AcDbCircle
 10
4381.05726702901
 20
-7008.95687104592
 30
0.0
 40
10.07450052494158
100
AcDbArc
 50
180.3405375144023
 51
270.3405375143975
  0
ARC
  5
31B
330
1F
100
AcDbEntity
  8
1
  6
Continuous
 62
     1
100
AcDbCircle
 10
4380.98294444543
 20
-7071.75182105476
 30
0.0
 40
10.00000000074446
100
AcDbArc
 50
92.34184280519702
 51
180.0
  0
ARC
  5
31C
330
1F
100
AcDbEntity
  8
1
  6
Continuous
 62
     1
100
AcDbCircle
 10
4381.04051641503
 20
-7051.71339726801
 30
0.0
 40
10.05758568058321
100
AcDbArc
 50
180.0946074008044
 51
272.3274826861102
  0
ARC
  5
31D
330
1F
100
AcDbEntity
  8
1
  6
Continuous
 62
     1
100
AcDbCircle
 10
4383.98117336123
 20
-7031.7117826758
 30
0.0
 40
12.99999999999968
100
AcDbArc
 50
102.7272363816769
 51
180.9457808532288
  0
ARC
  5
31E
330
1F
100
AcDbEntity
  8
1
  6
Continuous
 62
     1
100
AcDbCircle
 10
4394.76408452111
 20
-7096.50491607091
 30
0.0
 40
23.78533516904538
100
AcDbArc
 50
178.9238812680051
 51
255.9495477396881
  0
ARC
  5
31F
330
1F
100
AcDbEntity
  8
1
  6
Continuous
 62
     1
100
AcDbCircle
 10
4391.687802014511
 20
-7140.40458384277
 30
0.0
 40
20.99999999950372
100
AcDbArc
 50
97.38218120450512
 51
170.3826865934541
  0
ARC
  5
320
330
1F
100
AcDbEntity
  8
1
  6
Continuous
 62
     1
100
AcDbCircle
 10
4826.29962401042
 20
-1016.56268652088
 30
0.0
 40
6118.663573370339
100
AcDbArc
 50
265.9014904141069
 51
274.2675758800891
  0
ARC
  5
321
330
1F
100
AcDbEntity
  8
1
  6
Continuous
 62
     1
100
AcDbCircle
 10
4826.2996240104
 20
2430.35636567443
 30
0.0
 40
9502.537355599452
100
AcDbArc
 50
267.316781491234
 51
272.7463945453661
  0
ARC
  5
322
330
1F
100
AcDbEntity
  8
1
  6
Continuous
 62
     1
100
AcDbCircle
 10
4827.46375933211
 20
-13472.5416358365
 30
0.0
 40
6468.927448060134
100
AcDbArc
 50
85.97422492504457
 51
93.95646928678755
  0
ARC
  5
323
330
1F
100
AcDbEntity
  8
1
  6
Continuous
 62
     1
100
AcDbCircle
 10
6171.54480513631
 20
-7140.40458384277
 30
0.0
 40
20.99999999949792
100
AcDbArc
 50
9.61731340654668
 51
82.61781879549385
  0
ARC
  5
324
330
1F
100
AcDbEntity
  8
1
  6
Continuous
 62
     1
100
AcDbCircle
 10
6168.46852262971
 20
-7096.50491607091
 30
0.0
 40
23.78533516905298
100
AcDbArc
 50
284.0504522603081
 51
1.07611873199494
  0
ARC
  5
325
330
1F
100
AcDbEntity
  8
1
  6
Continuous
 62
     1
100
AcDbCircle
 10
6179.25143378959
 20
-7031.7117826758
 30
0.0
 40
13.00000000023289
100
AcDbArc
 50
359.0542191467712
 51
77.27276361155367
  0
ARC
  5
326
330
1F
100
AcDbEntity
  8
1
  6
Continuous
 62
     1
100
AcDbCircle
 10
6182.19209073579
 20
-7051.71339726801
 30
0.0
 40
10.05758568058508
100
AcDbArc
 50
267.672517313895
 51
359.9053925991956
  0
ARC
  5
327
330
1F
100
AcDbEntity
  8
1
  6
Continuous
 62
     1
100
AcDbCircle
 10
6182.24966270539
 20
-7071.75182105476
 30
0.0
 40
10.0
100
AcDbArc
 50
0.0
 51
87.65815719479649
  0
ARC
  5
328
330
1F
100
AcDbEntity
  8
1
  6
Continuous
 62
     1
100
AcDbCircle
 10
6182.17534012181
 20
-7008.95687104592
 30
0.0
 40
10.07450052503241
100
AcDbArc
 50
269.6594624944148
 51
359.6594624856007
  0
ARC
  5
329
330
1F
100
AcDbEntity
  8
1
  6
Continuous
 62
     1
100
AcDbCircle
 10
5736.9329831404
 20
-1016.56268652087
 30
0.0
 40
6118.663573370353
100
AcDbArc
 50
265.7324241199107
 51
274.0985095858931
  0
ARC
  5
32A
330
1F
100
AcDbEntity
  8
1
  6
Continuous
 62
     1
100
AcDbCircle
 10
5736.93298314042
 20
2430.35636567445
 30
0.0
 40
9502.537355599476
100
AcDbArc
 50
267.253605454634
 51
272.683218508766
  0
ARC
  5
32B
330
1F
100
AcDbEntity
  8
1
  6
Continuous
 62
     1
100
AcDbCircle
 10
5735.76884781869
 20
-13472.5416358253
 30
0.0
 40
6468.92744804896
100
AcDbArc
 50
86.04353071319169
 51
94.02577507496224
  0
ARC
  5
32C
330
1F
100
AcDbEntity
  8
1
  6
Continuous
 62
     7
100
AcDbCircle
 10
5370.27048586736
 20
-7391.73504856437
 30
0.0
 40
382.5729394129069
100
AcDbArc
 50
91.98102814883156
 51
103.3990309512054
  0
ARC
  5
32D
330
1F
100
AcDbEntity
  8
1
  6
Continuous
 62
     7
100
AcDbCircle
 10
5192.96212128346
 20
-7391.73504856437
 30
0.0
 40
382.5729394128991
100
AcDbArc
 50
76.6009690487946
 51
88.01897185116991
  0
ARC
  5
32E
330
1F
100
AcDbEntity
  8
1
  6
Continuous
 62
     1
100
AcDbCircle
 10
5192.96212128346
 20
-7409.21981676893
 30
0.0
 40
382.5729394129089
100
AcDbArc
 50
76.60096904879494
 51
88.01897185116995
  0
ARC
  5
32F
330
1F
100
AcDbEntity
  8
1
  6
Continuous
 62
     1
100
AcDbCircle
 10
5370.27048586736
 20
-7409.21981676893
 30
0.0
 40
382.5729394129079
100
AcDbArc
 50
91.98102814883156
 51
103.399030951205
  0
ARC
  5
330
330
1F
100
AcDbEntity
  8
1
  6
Continuous
 62
     1
100
AcDbCircle
 10
8354.03720412732
 20
-7409.21981676893
 30
0.0
 40
382.5729394129075
100
AcDbArc
 50
91.98102814883019
 51
103.399030951205
  0
ARC
  5
331
330
1F
100
AcDbEntity
  8
1
  6
Continuous
 62
     1
100
AcDbCircle
 10
8176.72883954342
 20
-7409.21981676893
 30
0.0
 40
382.5729394129091
100
AcDbArc
 50
76.60096904879482
 51
88.01897185116833
  0
ARC
  5
332
330
1F
100
AcDbEntity
  8
1
  6
Continuous
 62
     7
100
AcDbCircle
 10
8176.72883954342
 20
-7391.73504856437
 30
0.0
 40
382.5729394128994
100
AcDbArc
 50
76.60096904879447
 51
88.01897185116826
  0
ARC
  5
333
330
1F
100
AcDbEntity
  8
1
  6
Continuous
 62
     7
100
AcDbCircle
 10
8354.03720412732
 20
-7391.73504856437
 30
0.0
 40
382.5729394129066
100
AcDbArc
 50
91.98102814883019
 51
103.3990309512054
  0
ARC
  5
334
330
1F
100
AcDbEntity
  8
1
  6
Continuous
 62
     1
100
AcDbCircle
 10
8800.78556607866
 20
-14637.0637624819
 30
0.0
 40
7636.280403973136
100
AcDbArc
 50
86.03823334851212
 51
94.02047771026916
  0
ARC
  5
335
330
1F
100
AcDbEntity
  8
1
  6
Continuous
 62
     1
100
AcDbCircle
 10
8801.94970140038
 20
4143.84780056373
 30
0.0
 40
11217.95383631074
100
AcDbArc
 50
267.2584358017962
 51
272.6880488559283
  0
ARC
  5
336
330
1F
100
AcDbEntity
  8
1
  6
Continuous
 62
     1
100
AcDbCircle
 10
8801.94970140036
 20
94.3530573509288
 30
0.0
 40
7232.545554397354
100
AcDbArc
 50
265.7454430496904
 51
274.1115285156727
  0
ARC
  5
337
330
1F
100
AcDbEntity
  8
1
  6
Continuous
 62
     1
100
AcDbCircle
 10
9328.44205838178
 20
-7008.95687104592
 30
0.0
 40
10.07450052470123
100
AcDbArc
 50
269.6594624858275
 51
359.6594624855895
  0
ARC
  5
338
330
1F
100
AcDbEntity
  8
1
  6
Continuous
 62
     1
100
AcDbCircle
 10
9328.51638096535
 20
-7071.75182105476
 30
0.0
 40
10.0
100
AcDbArc
 50
0.0
 51
87.65815719479649
  0
ARC
  5
339
330
1F
100
AcDbEntity
  8
1
  6
Continuous
 62
     1
100
AcDbCircle
 10
9328.45880899575
 20
-7051.71339726801
 30
0.0
 40
10.05758568058512
100
AcDbArc
 50
267.6725173138898
 51
359.9053925991956
  0
ARC
  5
33A
330
1F
100
AcDbEntity
  8
1
  6
Continuous
 62
     1
100
AcDbCircle
 10
9325.51815204955
 20
-7031.7117826758
 30
0.0
 40
13.00000000023289
100
AcDbArc
 50
359.0542191467712
 51
77.27276361832762
  0
ARC
  5
33B
330
1F
100
AcDbEntity
  8
1
  6
Continuous
 62
     1
100
AcDbCircle
 10
9314.73524088968
 20
-7096.50491607091
 30
0.0
 40
23.78533516906247
100
AcDbArc
 50
284.0504522603002
 51
1.07611873199543
  0
ARC
  5
33C
330
1F
100
AcDbEntity
  8
1
  6
Continuous
 62
     1
100
AcDbCircle
 10
9317.81152339628
 20
-7140.40458384277
 30
0.0
 40
20.99999999948806
100
AcDbArc
 50
9.61731340655124
 51
82.61781879549034
  0
ARC
  5
33D
330
1F
100
AcDbEntity
  8
1
  6
Continuous
 62
     1
100
AcDbCircle
 10
7729.98047759209
 20
-14637.0637624819
 30
0.0
 40
7636.280403972903
100
AcDbArc
 50
85.97952228973094
 51
93.96176665148772
  0
ARC
  5
33E
330
1F
100
AcDbEntity
  8
1
  6
Continuous
 62
     1
100
AcDbCircle
 10
7728.81634227036
 20
4143.84780056372
 30
0.0
 40
11217.95383631073
100
AcDbArc
 50
267.3119511440717
 51
272.7415641982038
  0
ARC
  5
33F
330
1F
100
AcDbEntity
  8
1
  6
Continuous
 62
     1
100
AcDbCircle
 10
7728.81634227039
 20
94.3530573509261
 30
0.0
 40
7232.545554397348
100
AcDbArc
 50
265.8884714843273
 51
274.2545569503095
  0
ARC
  5
340
330
1F
100
AcDbEntity
  8
1
  6
Continuous
 62
     1
100
AcDbCircle
 10
7212.95452027447
 20
-7140.40458384277
 30
0.0
 40
20.99999999950361
100
AcDbArc
 50
97.38218120450266
 51
170.3826865934537
  0
ARC
  5
341
330
1F
100
AcDbEntity
  8
1
  6
Continuous
 62
     1
100
AcDbCircle
 10
7216.03080278107
 20
-7096.50491607091
 30
0.0
 40
23.78533516904538
100
AcDbArc
 50
178.9238812680051
 51
255.9495477396881
  0
ARC
  5
342
330
1F
100
AcDbEntity
  8
1
  6
Continuous
 62
     1
100
AcDbCircle
 10
7205.24789162119
 20
-7031.7117826758
 30
0.0
 40
12.99999999999012
100
AcDbArc
 50
102.7272363816905
 51
180.9457808532287
  0
ARC
  5
343
330
1F
100
AcDbEntity
  8
1
  6
Continuous
 62
     1
100
AcDbCircle
 10
7202.30723467499
 20
-7051.71339726801
 30
0.0
 40
10.05758568058321
100
AcDbArc
 50
180.0946074008044
 51
272.3274826860532
  0
ARC
  5
344
330
1F
100
AcDbEntity
  8
1
  6
Continuous
 62
     1
100
AcDbCircle
 10
7202.24966270539
 20
-7071.75182105476
 30
0.0
 40
10.00000000074446
100
AcDbArc
 50
92.34184280519702
 51
180.0
  0
ARC
  5
345
330
1F
100
AcDbEntity
  8
1
  6
Continuous
 62
     1
100
AcDbCircle
 10
7202.32398528897
 20
-7008.95687104592
 30
0.0
 40
10.07450052494158
100
AcDbArc
 50
180.3405375144023
 51
270.3405375143972
  0
ARC
  5
346
330
1F
100
AcDbEntity
  8
1
  6
Continuous
 62
     1
100
AcDbCircle
 10
8354.03720412732
 20
-7409.21981676893
 30
0.0
 40
382.5729394129075
100
AcDbArc
 50
91.98102814883019
 51
103.399030951205
  0
ARC
  5
347
330
1F
100
AcDbEntity
  8
1
  6
Continuous
 62
     1
100
AcDbCircle
 10
8176.72883954342
 20
-7409.21981676893
 30
0.0
 40
382.5729394129091
100
AcDbArc
 50
76.60096904879482
 51
88.01897185116833
  0
ARC
  5
348
330
1F
100
AcDbEntity
  8
1
  6
Continuous
 62
     7
100
AcDbCircle
 10
8176.72883954342
 20
-7391.73504856437
 30
0.0
 40
382.5729394128994
100
AcDbArc
 50
76.60096904879447
 51
88.01897185116826
  0
ARC
  5
349
330
1F
100
AcDbEntity
  8
1
  6
Continuous
 62
     7
100
AcDbCircle
 10
8354.03720412732
 20
-7391.73504856437
 30
0.0
 40
382.5729394129066
100
AcDbArc
 50
91.98102814883019
 51
103.3990309512054
  0
ARC
  5
34A
330
1F
100
AcDbEntity
  8
1
  6
Continuous
 62
     7
100
AcDbCircle
 10
8354.03720412732
 20
-7391.73504856437
 30
0.0
 40
382.5729394129066
100
AcDbArc
 50
91.98102814883019
 51
103.3990309512054
  0
ARC
  5
34B
330
1F
100
AcDbEntity
  8
1
  6
Continuous
 62
     7
100
AcDbCircle
 10
8176.72883954342
 20
-7391.73504856437
 30
0.0
 40
382.5729394128994
100
AcDbArc
 50
76.60096904879447
 51
88.01897185116826
  0
ARC
  5
34C
330
1F
100
AcDbEntity
  8
1
  6
Continuous
 62
     1
100
AcDbCircle
 10
8176.72883954342
 20
-7409.21981676893
 30
0.0
 40
382.5729394129091
100
AcDbArc
 50
76.60096904879482
 51
88.01897185116833
  0
ARC
  5
34D
330
1F
100
AcDbEntity
  8
1
  6
Continuous
 62
     1
100
AcDbCircle
 10
8354.03720412732
 20
-7409.21981676893
 30
0.0
 40
382.5729394129075
100
AcDbArc
 50
91.98102814883019
 51
103.399030951205
  0
ARC
  5
34E
330
1F
100
AcDbEntity
  8
1
  6
Continuous
 62
     7
100
AcDbCircle
 10
-2781.55285795084
 20
-7037.70341914063
 30
0.0
 40
10.00000000000132
100
AcDbArc
 50
110.4837265486759
 51
227.8170880270377
  0
ARC
  5
34F
330
1F
100
AcDbEntity
  8
1
  6
DASHED
 62
     3
100
AcDbCircle
 10
-2919.26559002736
 20
-7173.84602818244
 30
0.0
 40
9.999999999991488
100
AcDbArc
 50
125.4837265486514
 51
242.8170880270398
  0
ARC
  5
350
330
1F
100
AcDbEntity
  8
1
  6
DASHED
 62
     3
100
AcDbCircle
 10
-2489.64846687295
 20
-6883.77626164708
 30
0.0
 40
10.00000000000433
100
AcDbArc
 50
10.48387952751838
 51
127.817157018403
  0
ARC
  5
351
330
1F
100
AcDbEntity
  8
1
  6
DASHED
 62
     3
100
AcDbCircle
 10
-2677.14646192551
 20
-6949.61495514518
 30
0.0
 40
10.00000000000351
100
AcDbArc
 50
25.48387952752839
 51
142.8171570184152
  0
ARC
  5
352
330
1F
100
AcDbEntity
  8
1
  6
Continuous
 62
     7
100
AcDbCircle
 10
-1824.27235543957
 20
-7361.73889453181
 30
0.0
 40
50.0
100
AcDbArc
 50
270.0
 51
0.0
  0
ARC
  5
353
330
1F
100
AcDbEntity
  8
1
  6
Continuous
 62
     7
100
AcDbCircle
 10
-1854.27235543957
 20
-7491.73889453181
 30
0.0
 40
80.0
100
AcDbArc
 50
0.0
 51
90.0
  0
ARC
  5
354
330
1F
100
AcDbEntity
  8
1
  6
Continuous
 62
     7
100
AcDbCircle
 10
-394.748587607716
 20
-9054.68235260357
 30
0.0
 40
50.0
100
AcDbArc
 50
90.0
 51
180.0
  0
ARC
  5
355
330
1F
100
AcDbEntity
  8
1
  6
Continuous
 62
     7
100
AcDbCircle
 10
-270.248927227826
 20
-9514.52901073588
 30
0.0
 40
50.00000000000003
100
AcDbArc
 50
0.0
 51
69.0837688036893
  0
ARC
  5
356
330
1F
100
AcDbEntity
  8
1
  6
Continuous
 62
     7
100
AcDbCircle
 10
-534.120484285678
 20
-9448.70215476756
 30
0.0
 40
49.99999999999724
100
AcDbArc
 50
82.90139532739532
 51
180.8307611443244
  0
ARC
  5
357
330
1F
100
AcDbEntity
  8
1
  6
Continuous
 62
     7
100
AcDbCircle
 10
-526.532924992921
 20
-9971.96285511484
 30
0.0
 40
49.99999999999854
100
AcDbArc
 50
180.8307611443119
 51
270.0
  0
ARC
  5
358
330
1F
100
AcDbEntity
  8
1
  6
Continuous
 62
     7
100
AcDbCircle
 10
-270.248927227826
 20
-9971.96285511484
 30
0.0
 40
49.99999999995998
100
AcDbArc
 50
270.0
 51
0.0
  0
ARC
  5
359
330
1F
100
AcDbEntity
  8
1
  6
Continuous
 62
     7
100
AcDbCircle
 10
165.884771522265
 20
-9054.68235260357
 30
0.0
 40
50.0
100
AcDbArc
 50
0.0
 51
90.0
  0
ARC
  5
35A
330
1F
100
AcDbEntity
  8
1
  6
DASHED
 62
     3
100
AcDbCircle
 10
165.884771522265
 20
-8916.96962052705
 30
0.0
 40
50.0
100
AcDbArc
 50
0.0
 51
90.0
  0
ARC
  5
35B
330
1F
100
AcDbEntity
  8
1
  6
DASHED
 62
     3
100
AcDbCircle
 10
-394.748587607716
 20
-8916.96962052705
 30
0.0
 40
50.0
100
AcDbArc
 50
90.0
 51
180.0
  0
ARC
  5
35C
330
1F
100
AcDbEntity
  8
1
  6
Continuous
 62
     7
100
AcDbCircle
 10
702.018470272356
 20
-9971.96285511484
 30
0.0
 40
50.0
100
AcDbArc
 50
180.0
 51
270.0
  0
ARC
  5
35D
330
1F
100
AcDbEntity
  8
1
  6
Continuous
 62
     7
100
AcDbCircle
 10
958.302468037449
 20
-9971.96285511484
 30
0.0
 40
49.99999999995998
100
AcDbArc
 50
270.0
 51
359.1692388556882
  0
ARC
  5
35E
330
1F
100
AcDbEntity
  8
1
  6
Continuous
 62
     7
100
AcDbCircle
 10
965.890027330207
 20
-9448.70215476756
 30
0.0
 40
50.00000000000574
100
AcDbArc
 50
359.1692388556757
 51
97.09860467260458
  0
ARC
  5
35F
330
1F
100
AcDbEntity
  8
1
  6
Continuous
 62
     7
100
AcDbCircle
 10
702.018470272356
 20
-9514.52901073588
 30
0.0
 40
50.00000000001283
100
AcDbArc
 50
110.9162311963155
 51
180.0
  0
ARC
  5
360
330
1F
100
AcDbEntity
  8
1
  6
Continuous
 62
     7
100
AcDbCircle
 10
826.518130652245
 20
-9054.68235260357
 30
0.0
 40
50.0
100
AcDbArc
 50
0.0
 51
90.0
  0
ARC
  5
361
330
1F
100
AcDbEntity
  8
1
  6
Continuous
 62
     7
100
AcDbCircle
 10
265.884771522265
 20
-9054.68235260357
 30
0.0
 40
50.0
100
AcDbArc
 50
90.0
 51
180.0
  0
ARC
  5
362
330
1F
100
AcDbEntity
  8
1
  6
DASHED
 62
     3
100
AcDbCircle
 10
265.884771522265
 20
-8916.96962052705
 30
0.0
 40
50.0
100
AcDbArc
 50
90.0
 51
180.0
  0
ARC
  5
363
330
1F
100
AcDbEntity
  8
1
  6
DASHED
 62
     3
100
AcDbCircle
 10
826.518130652245
 20
-8916.96962052705
 30
0.0
 40
50.0
100
AcDbArc
 50
0.0
 51
90.0
  0
ARC
  5
364
330
1F
100
AcDbEntity
  8
1
  6
DASHED
 62
     3
100
AcDbCircle
 10
3380.51813065373
 20
-8916.96962052705
 30
0.0
 40
50.0
100
AcDbArc
 50
0.0
 51
90.0
  0
ARC
  5
365
330
1F
100
AcDbEntity
  8
1
  6
DASHED
 62
     3
100
AcDbCircle
 10
2703.51813065299
 20
-8916.96962052705
 30
0.0
 40
50.0
100
AcDbArc
 50
90.0
 51
180.0
  0
ARC
  5
366
330
1F
100
AcDbEntity
  8
1
  6
Continuous
 62
     7
100
AcDbCircle
 10
2703.51813065299
 20
-9054.68235260357
 30
0.0
 40
50.0
100
AcDbArc
 50
90.0
 51
180.0
  0
ARC
  5
367
330
1F
100
AcDbEntity
  8
1
  6
Continuous
 62
     7
100
AcDbCircle
 10
3380.51813065373
 20
-9054.68235260357
 30
0.0
 40
50.0
100
AcDbArc
 50
0.0
 51
90.0
  0
ARC
  5
368
330
1F
100
AcDbEntity
  8
1
  6
Continuous
 62
     7
100
AcDbCircle
 10
3256.01847027384
 20
-9514.52901073588
 30
0.0
 40
50.00000000001117
100
AcDbArc
 50
110.9162311963105
 51
180.0
  0
ARC
  5
369
330
1F
100
AcDbEntity
  8
1
  6
Continuous
 62
     7
100
AcDbCircle
 10
3519.89002733169
 20
-9448.70215476756
 30
0.0
 40
50.00000000000267
100
AcDbArc
 50
359.1692388556756
 51
97.0986046726034
  0
ARC
  5
36A
330
1F
100
AcDbEntity
  8
1
  6
Continuous
 62
     7
100
AcDbCircle
 10
3512.30246803893
 20
-9971.96285511484
 30
0.0
 40
49.99999999995998
100
AcDbArc
 50
270.0
 51
359.1692388556882
  0
ARC
  5
36B
330
1F
100
AcDbEntity
  8
1
  6
Continuous
 62
     7
100
AcDbCircle
 10
3256.01847027384
 20
-9971.96285511484
 30
0.0
 40
50.0
100
AcDbArc
 50
180.0
 51
270.0
  0
ARC
  5
36C
330
1F
100
AcDbEntity
  8
1
  6
DASHED
 62
     3
100
AcDbCircle
 10
1926.51813065225
 20
-8916.96962052705
 30
0.0
 40
50.0
100
AcDbArc
 50
90.0
 51
180.0
  0
ARC
  5
36D
330
1F
100
AcDbEntity
  8
1
  6
DASHED
 62
     3
100
AcDbCircle
 10
2603.51813065299
 20
-8916.96962052705
 30
0.0
 40
50.0
100
AcDbArc
 50
0.0
 51
90.0
  0
ARC
  5
36E
330
1F
100
AcDbEntity
  8
1
  6
Continuous
 62
     7
100
AcDbCircle
 10
2603.51813065299
 20
-9054.68235260357
 30
0.0
 40
50.0
100
AcDbArc
 50
0.0
 51
90.0
  0
ARC
  5
36F
330
1F
100
AcDbEntity
  8
1
  6
Continuous
 62
     7
100
AcDbCircle
 10
2051.01779103213
 20
-9971.96285511484
 30
0.0
 40
49.99999999995998
100
AcDbArc
 50
270.0
 51
0.0
  0
ARC
  5
370
330
1F
100
AcDbEntity
  8
1
  6
Continuous
 62
     7
100
AcDbCircle
 10
1794.73379326704
 20
-9971.96285511484
 30
0.0
 40
50.00000000000274
100
AcDbArc
 50
180.8307611443118
 51
270.0
  0
ARC
  5
371
330
1F
100
AcDbEntity
  8
1
  6
Continuous
 62
     7
100
AcDbCircle
 10
1787.14623397428
 20
-9448.70215476756
 30
0.0
 40
49.99999999999724
100
AcDbArc
 50
82.90139532739532
 51
180.8307611443245
  0
ARC
  5
372
330
1F
100
AcDbEntity
  8
1
  6
Continuous
 62
     7
100
AcDbCircle
 10
2051.01779103213
 20
-9514.52901073588
 30
0.0
 40
50.0
100
AcDbArc
 50
0.0
 51
69.08376880368624
  0
ARC
  5
373
330
1F
100
AcDbEntity
  8
1
  6
Continuous
 62
     7
100
AcDbCircle
 10
1926.51813065225
 20
-9054.68235260357
 30
0.0
 40
50.0
100
AcDbArc
 50
90.0
 51
180.0
  0
ARC
  5
374
330
1F
100
AcDbEntity
  8
1
  6
Continuous
 62
     7
100
AcDbCircle
 10
4420.98294444543
 20
-9054.68235260357
 30
0.0
 40
50.0
100
AcDbArc
 50
90.0
 51
180.0
  0
ARC
  5
375
330
1F
100
AcDbEntity
  8
1
  6
Continuous
 62
     7
100
AcDbCircle
 10
4545.48260482532
 20
-9514.52901073588
 30
0.0
 40
50.0
100
AcDbArc
 50
0.0
 51
69.08376880368624
  0
ARC
  5
376
330
1F
100
AcDbEntity
  8
1
  6
Continuous
 62
     7
100
AcDbCircle
 10
4281.61104776747
 20
-9448.70215476756
 30
0.0
 40
49.99999999999718
100
AcDbArc
 50
82.90139532739583
 51
180.8307611443243
  0
ARC
  5
377
330
1F
100
AcDbEntity
  8
1
  6
Continuous
 62
     7
100
AcDbCircle
 10
4289.19860706023
 20
-9971.96285511484
 30
0.0
 40
50.00000000000206
100
AcDbArc
 50
180.8307611443119
 51
270.0
  0
ARC
  5
378
330
1F
100
AcDbEntity
  8
1
  6
Continuous
 62
     7
100
AcDbCircle
 10
4545.48260482532
 20
-9971.96285511484
 30
0.0
 40
49.99999999995998
100
AcDbArc
 50
270.0
 51
0.0
  0
ARC
  5
379
330
1F
100
AcDbEntity
  8
1
  6
Continuous
 62
     7
100
AcDbCircle
 10
5231.61630357541
 20
-9054.68235260357
 30
0.0
 40
50.0
100
AcDbArc
 50
0.0
 51
90.0
  0
ARC
  5
37A
330
1F
100
AcDbEntity
  8
1
  6
DASHED
 62
     3
100
AcDbCircle
 10
5231.61630357541
 20
-8916.96962052705
 30
0.0
 40
50.0
100
AcDbArc
 50
0.0
 51
90.0
  0
ARC
  5
37B
330
1F
100
AcDbEntity
  8
1
  6
DASHED
 62
     3
100
AcDbCircle
 10
4420.98294444543
 20
-8916.96962052705
 30
0.0
 40
50.0
100
AcDbArc
 50
90.0
 51
180.0
  0
ARC
  5
37C
330
1F
100
AcDbEntity
  8
1
  6
Continuous
 62
     7
100
AcDbCircle
 10
6017.7500023255
 20
-9971.96285511484
 30
0.0
 40
50.0
100
AcDbArc
 50
180.0
 51
270.0
  0
ARC
  5
37D
330
1F
100
AcDbEntity
  8
1
  6
Continuous
 62
     7
100
AcDbCircle
 10
6274.0340000906
 20
-9971.96285511484
 30
0.0
 40
49.99999999995998
100
AcDbArc
 50
270.0
 51
359.169238855688
  0
ARC
  5
37E
330
1F
100
AcDbEntity
  8
1
  6
Continuous
 62
     7
100
AcDbCircle
 10
6281.62155938335
 20
-9448.70215476756
 30
0.0
 40
50.00000000000222
100
AcDbArc
 50
359.1692388556756
 51
97.09860467260393
  0
ARC
  5
37F
330
1F
100
AcDbEntity
  8
1
  6
Continuous
 62
     7
100
AcDbCircle
 10
6017.7500023255
 20
-9514.52901073588
 30
0.0
 40
50.00000000001101
100
AcDbArc
 50
110.9162311963101
 51
180.0
  0
ARC
  5
380
330
1F
100
AcDbEntity
  8
1
  6
Continuous
 62
     7
100
AcDbCircle
 10
6142.24966270539
 20
-9054.68235260357
 30
0.0
 40
50.0
100
AcDbArc
 50
0.0
 51
90.0
  0
ARC
  5
381
330
1F
100
AcDbEntity
  8
1
  6
Continuous
 62
     7
100
AcDbCircle
 10
5331.61630357541
 20
-9054.68235260357
 30
0.0
 40
50.0
100
AcDbArc
 50
90.0
 51
180.0
  0
ARC
  5
382
330
1F
100
AcDbEntity
  8
1
  6
DASHED
 62
     3
100
AcDbCircle
 10
5331.61630357541
 20
-8916.96962052705
 30
0.0
 40
50.0
100
AcDbArc
 50
90.0
 51
180.0
  0
ARC
  5
383
330
1F
100
AcDbEntity
  8
1
  6
DASHED
 62
     3
100
AcDbCircle
 10
6142.24966270539
 20
-8916.96962052705
 30
0.0
 40
50.0
100
AcDbArc
 50
0.0
 51
90.0
  0
ARC
  5
384
330
1F
100
AcDbEntity
  8
1
  6
DASHED
 62
     3
100
AcDbCircle
 10
9288.51638096535
 20
-8916.96962052705
 30
0.0
 40
50.0
100
AcDbArc
 50
0.0
 51
90.0
  0
ARC
  5
385
330
1F
100
AcDbEntity
  8
1
  6
DASHED
 62
     3
100
AcDbCircle
 10
8315.38302183537
 20
-8916.96962052705
 30
0.0
 40
50.0
100
AcDbArc
 50
90.0
 51
180.0
  0
ARC
  5
386
330
1F
100
AcDbEntity
  8
1
  6
Continuous
 62
     7
100
AcDbCircle
 10
8315.38302183537
 20
-9054.68235260357
 30
0.0
 40
50.0
100
AcDbArc
 50
90.0
 51
180.0
  0
ARC
  5
387
330
1F
100
AcDbEntity
  8
1
  6
Continuous
 62
     7
100
AcDbCircle
 10
9288.51638096535
 20
-9054.68235260357
 30
0.0
 40
50.0
100
AcDbArc
 50
0.0
 51
90.0
  0
ARC
  5
388
330
1F
100
AcDbEntity
  8
1
  6
Continuous
 62
     7
100
AcDbCircle
 10
9164.01672058547
 20
-9514.52901073588
 30
0.0
 40
50.00000000000608
100
AcDbArc
 50
110.9162311963245
 51
180.0
  0
ARC
  5
389
330
1F
100
AcDbEntity
  8
1
  6
Continuous
 62
     7
100
AcDbCircle
 10
9427.88827764332
 20
-9448.70215476756
 30
0.0
 40
49.99999999999312
100
AcDbArc
 50
359.1692388556755
 51
97.0986046726052
  0
ARC
  5
38A
330
1F
100
AcDbEntity
  8
1
  6
Continuous
 62
     7
100
AcDbCircle
 10
9420.30071835056
 20
-9971.96285511484
 30
0.0
 40
49.99999999995998
100
AcDbArc
 50
270.0
 51
359.1692388556881
  0
ARC
  5
38B
330
1F
100
AcDbEntity
  8
1
  6
Continuous
 62
     7
100
AcDbCircle
 10
9164.01672058547
 20
-9971.96285511484
 30
0.0
 40
50.0
100
AcDbArc
 50
180.0
 51
270.0
  0
ARC
  5
38C
330
1F
100
AcDbEntity
  8
1
  6
DASHED
 62
     3
100
AcDbCircle
 10
7242.24966270539
 20
-8916.96962052705
 30
0.0
 40
50.0
100
AcDbArc
 50
90.0
 51
180.0
  0
ARC
  5
38D
330
1F
100
AcDbEntity
  8
1
  6
DASHED
 62
     3
100
AcDbCircle
 10
8215.38302183537
 20
-8916.96962052705
 30
0.0
 40
50.0
100
AcDbArc
 50
0.0
 51
90.0
  0
ARC
  5
38E
330
1F
100
AcDbEntity
  8
1
  6
Continuous
 62
     7
100
AcDbCircle
 10
8215.38302183537
 20
-9054.68235260357
 30
0.0
 40
50.0
100
AcDbArc
 50
0.0
 51
90.0
  0
ARC
  5
38F
330
1F
100
AcDbEntity
  8
1
  6
Continuous
 62
     7
100
AcDbCircle
 10
7366.74932308528
 20
-9971.96285511484
 30
0.0
 40
49.99999999995998
100
AcDbArc
 50
270.0
 51
0.0
  0
ARC
  5
390
330
1F
100
AcDbEntity
  8
1
  6
Continuous
 62
     7
100
AcDbCircle
 10
7110.46532532019
 20
-9971.96285511484
 30
0.0
 40
50.00000000000206
100
AcDbArc
 50
180.8307611443119
 51
270.0
  0
ARC
  5
391
330
1F
100
AcDbEntity
  8
1
  6
Continuous
 62
     7
100
AcDbCircle
 10
7102.87776602743
 20
-9448.70215476756
 30
0.0
 40
49.99999999999729
100
AcDbArc
 50
82.90139532739478
 51
180.8307611443243
  0
ARC
  5
392
330
1F
100
AcDbEntity
  8
1
  6
Continuous
 62
     7
100
AcDbCircle
 10
7366.74932308528
 20
-9514.52901073588
 30
0.0
 40
50.0
100
AcDbArc
 50
0.0
 51
69.08376880368624
  0
ARC
  5
393
330
1F
100
AcDbEntity
  8
1
  6
Continuous
 62
     7
100
AcDbCircle
 10
7242.24966270539
 20
-9054.68235260357
 30
0.0
 40
50.0
100
AcDbArc
 50
90.0
 51
180.0
  0
ARC
  5
394
330
1F
100
AcDbEntity
  8
1
  6
DASHED
 62
     3
100
AcDbCircle
 10
165.884771522264
 20
-6923.84550109108
 30
0.0
 40
50.0
100
AcDbArc
 50
0.0
 51
90.0
  0
ARC
  5
395
330
1F
100
AcDbEntity
  8
1
  6
DASHED
 62
     3
100
AcDbCircle
 10
-394.748587607717
 20
-6923.84550109108
 30
0.0
 40
50.0
100
AcDbArc
 50
90.0
 51
180.0
  0
ARC
  5
396
330
1F
100
AcDbEntity
  8
1
  6
DASHED
 62
     3
100
AcDbCircle
 10
265.884771522264
 20
-6923.84550109108
 30
0.0
 40
50.0
100
AcDbArc
 50
90.0
 51
180.0
  0
ARC
  5
397
330
1F
100
AcDbEntity
  8
1
  6
DASHED
 62
     3
100
AcDbCircle
 10
165.884771522264
 20
-6923.84550109108
 30
0.0
 40
50.0
100
AcDbArc
 50
0.0
 51
90.0
  0
ARC
  5
398
330
1F
100
AcDbEntity
  8
1
  6
DASHED
 62
     3
100
AcDbCircle
 10
265.884771522264
 20
-6923.84550109108
 30
0.0
 40
50.0
100
AcDbArc
 50
90.0
 51
180.0
  0
ARC
  5
399
330
1F
100
AcDbEntity
  8
1
  6
Continuous
 62
     7
100
AcDbCircle
 10
-394.748587607717
 20
-7069.21751228945
 30
0.0
 40
50.00000000000874
100
AcDbArc
 50
106.1847758763895
 51
180.0
  0
ARC
  5
39A
330
1F
100
AcDbEntity
  8
1
  6
Continuous
 62
     7
100
AcDbCircle
 10
4420.98294444543
 20
-7069.21751228945
 30
0.0
 40
50.00000000000873
100
AcDbArc
 50
106.1847758763895
 51
180.0
  0
ARC
  5
39B
330
1F
100
AcDbEntity
  8
1
  6
DASHED
 62
     3
100
AcDbCircle
 10
6142.24966270539
 20
-6923.84550109108
 30
0.0
 40
50.0
100
AcDbArc
 50
0.0
 51
90.0
  0
ARC
  5
39C
330
1F
100
AcDbEntity
  8
1
  6
DASHED
 62
     3
100
AcDbCircle
 10
5331.61630357541
 20
-6923.84550109108
 30
0.0
 40
50.0
100
AcDbArc
 50
90.0
 51
180.0
  0
ARC
  5
39D
330
1F
100
AcDbEntity
  8
1
  6
DASHED
 62
     3
100
AcDbCircle
 10
5231.61630357541
 20
-6923.84550109108
 30
0.0
 40
50.0
100
AcDbArc
 50
0.0
 51
90.0
  0
ARC
  5
39E
330
1F
100
AcDbEntity
  8
1
  6
DASHED
 62
     3
100
AcDbCircle
 10
6142.24966270539
 20
-6923.84550109108
 30
0.0
 40
50.0
100
AcDbArc
 50
0.0
 51
90.0
  0
ARC
  5
39F
330
1F
100
AcDbEntity
  8
1
  6
DASHED
 62
     3
100
AcDbCircle
 10
5331.61630357541
 20
-6923.84550109108
 30
0.0
 40
50.0
100
AcDbArc
 50
90.0
 51
180.0
  0
ARC
  5
3A0
330
1F
100
AcDbEntity
  8
1
  6
DASHED
 62
     3
100
AcDbCircle
 10
4420.98294444543
 20
-6923.84550109108
 30
0.0
 40
50.0
100
AcDbArc
 50
90.0
 51
180.0
  0
ARC
  5
3A1
330
1F
100
AcDbEntity
  8
1
  6
DASHED
 62
     3
100
AcDbCircle
 10
5231.61630357541
 20
-6923.84550109108
 30
0.0
 40
50.0
100
AcDbArc
 50
0.0
 51
90.0
  0
ARC
  5
3A2
330
1F
100
AcDbEntity
  8
1
  6
Continuous
 62
     7
100
AcDbCircle
 10
6142.24966270539
 20
-7069.21751228945
 30
0.0
 40
50.0
100
AcDbArc
 50
0.0
 51
73.81522412360735
  0
ARC
  5
3A3
330
1F
100
AcDbEntity
  8
1
  6
Continuous
 62
     7
100
AcDbCircle
 10
9288.51638096535
 20
-7069.21751228945
 30
0.0
 40
50.0
100
AcDbArc
 50
0.0
 51
73.81522412360735
  0
ARC
  5
3A4
330
1F
100
AcDbEntity
  8
1
  6
DASHED
 62
     3
100
AcDbCircle
 10
8215.38302183537
 20
-6923.84550109108
 30
0.0
 40
50.0
100
AcDbArc
 50
0.0
 51
90.0
  0
ARC
  5
3A5
330
1F
100
AcDbEntity
  8
1
  6
DASHED
 62
     3
100
AcDbCircle
 10
7242.24966270539
 20
-6923.84550109108
 30
0.0
 40
50.0
100
AcDbArc
 50
90.0
 51
180.0
  0
ARC
  5
3A6
330
1F
100
AcDbEntity
  8
1
  6
DASHED
 62
     3
100
AcDbCircle
 10
8315.38302183537
 20
-6923.84550109108
 30
0.0
 40
50.0
100
AcDbArc
 50
90.0
 51
180.0
  0
ARC
  5
3A7
330
1F
100
AcDbEntity
  8
1
  6
DASHED
 62
     3
100
AcDbCircle
 10
9288.51638096535
 20
-6923.84550109108
 30
0.0
 40
50.0
100
AcDbArc
 50
0.0
 51
90.0
  0
ARC
  5
3A8
330
1F
100
AcDbEntity
  8
1
  6
DASHED
 62
     3
100
AcDbCircle
 10
8215.38302183537
 20
-6923.84550109108
 30
0.0
 40
50.0
100
AcDbArc
 50
0.0
 51
90.0
  0
ARC
  5
3A9
330
1F
100
AcDbEntity
  8
1
  6
DASHED
 62
     3
100
AcDbCircle
 10
8315.38302183537
 20
-6923.84550109108
 30
0.0
 40
50.0
100
AcDbArc
 50
90.0
 51
180.0
  0
ARC
  5
3AA
330
1F
100
AcDbEntity
  8
1
  6
DASHED
 62
     3
100
AcDbCircle
 10
9288.51638096535
 20
-6923.84550109108
 30
0.0
 40
50.0
100
AcDbArc
 50
0.0
 51
90.0
  0
ARC
  5
3AB
330
1F
100
AcDbEntity
  8
1
  6
Continuous
 62
     7
100
AcDbCircle
 10
7242.24966270539
 20
-7069.21751228945
 30
0.0
 40
50.00000000000873
100
AcDbArc
 50
106.1847758763895
 51
180.0
  0
ARC
  5
3AC
330
1F
100
AcDbEntity
  8
1
  6
Continuous
 62
     7
100
AcDbCircle
 10
1926.51813065225
 20
-7069.21751228945
 30
0.0
 40
50.00000000000873
100
AcDbArc
 50
106.1847758763895
 51
180.0
  0
ARC
  5
3AD
330
1F
100
AcDbEntity
  8
1
  6
DASHED
 62
     3
100
AcDbCircle
 10
3380.51813065373
 20
-6923.84550109108
 30
0.0
 40
50.0
100
AcDbArc
 50
0.0
 51
90.0
  0
ARC
  5
3AE
330
1F
100
AcDbEntity
  8
1
  6
DASHED
 62
     3
100
AcDbCircle
 10
2703.51813065299
 20
-6923.84550109108
 30
0.0
 40
50.0
100
AcDbArc
 50
90.0
 51
180.0
  0
ARC
  5
3AF
330
1F
100
AcDbEntity
  8
1
  6
DASHED
 62
     3
100
AcDbCircle
 10
2603.51813065299
 20
-6923.84550109108
 30
0.0
 40
50.0
100
AcDbArc
 50
0.0
 51
90.0
  0
ARC
  5
3B0
330
1F
100
AcDbEntity
  8
1
  6
DASHED
 62
     3
100
AcDbCircle
 10
3380.51813065373
 20
-6923.84550109108
 30
0.0
 40
50.0
100
AcDbArc
 50
0.0
 51
90.0
  0
ARC
  5
3B1
330
1F
100
AcDbEntity
  8
1
  6
DASHED
 62
     3
100
AcDbCircle
 10
2703.51813065299
 20
-6923.84550109108
 30
0.0
 40
50.0
100
AcDbArc
 50
90.0
 51
180.0
  0
ARC
  5
3B2
330
1F
100
AcDbEntity
  8
1
  6
DASHED
 62
     3
100
AcDbCircle
 10
1926.51813065225
 20
-6923.84550109108
 30
0.0
 40
50.0
100
AcDbArc
 50
90.0
 51
180.0
  0
ARC
  5
3B3
330
1F
100
AcDbEntity
  8
1
  6
DASHED
 62
     3
100
AcDbCircle
 10
2603.51813065299
 20
-6923.84550109108
 30
0.0
 40
50.0
100
AcDbArc
 50
0.0
 51
90.0
  0
ARC
  5
3B4
330
1F
100
AcDbEntity
  8
1
  6
Continuous
 62
     7
100
AcDbCircle
 10
3380.51813065373
 20
-7069.21751228945
 30
0.0
 40
50.0
100
AcDbArc
 50
0.0
 51
73.81522412360735
  0
ARC
  5
3B5
330
1F
100
AcDbEntity
  8
1
  6
Continuous
 62
     7
100
AcDbCircle
 10
1926.51813065225
 20
-7069.21751228945
 30
0.0
 40
50.00000000000873
100
AcDbArc
 50
106.1847758763895
 51
180.0
  0
ARC
  5
3B6
330
1F
100
AcDbEntity
  8
1
  6
Continuous
 62
     7
100
AcDbCircle
 10
6142.24966270539
 20
-7069.21751228945
 30
0.0
 40
50.0
100
AcDbArc
 50
0.0
 51
73.81522412360735
  0
ARC
  5
3B7
330
1F
100
AcDbEntity
  8
1
  6
Continuous
 62
     7
100
AcDbCircle
 10
4420.98294444543
 20
-7069.21751228945
 30
0.0
 40
50.00000000000873
100
AcDbArc
 50
106.1847758763895
 51
180.0
  0
ARC
  5
3B8
330
1F
100
AcDbEntity
  8
1
  6
Continuous
 62
     7
100
AcDbCircle
 10
7242.24966270539
 20
-7069.21751228945
 30
0.0
 40
50.00000000000873
100
AcDbArc
 50
106.1847758763895
 51
180.0
  0
ARC
  5
3B9
330
1F
100
AcDbEntity
  8
1
  6
Continuous
 62
     7
100
AcDbCircle
 10
9288.51638096535
 20
-7069.21751228945
 30
0.0
 40
50.0
100
AcDbArc
 50
0.0
 51
73.81522412360735
  0
ARC
  5
3BA
330
1F
100
AcDbEntity
  8
1
  6
Continuous
 62
     7
100
AcDbCircle
 10
10388.5163809654
 20
-7069.21751228945
 30
0.0
 40
50.00000000000928
100
AcDbArc
 50
106.1847758764739
 51
180.0
  0
ARC
  5
3BB
330
1F
100
AcDbEntity
  8
1
  6
DASHED
 62
     3
100
AcDbCircle
 10
10388.5163809654
 20
-6923.84550109108
 30
0.0
 40
50.0
100
AcDbArc
 50
90.0
 51
180.0
  0
ARC
  5
3BC
330
1F
100
AcDbEntity
  8
1
  6
DASHED
 62
     3
100
AcDbCircle
 10
11209.7771256601
 20
-8916.96962052705
 30
0.0
 40
50.0
100
AcDbArc
 50
0.0
 51
90.0
  0
ARC
  5
3BD
330
1F
100
AcDbEntity
  8
1
  6
Continuous
 62
     7
100
AcDbCircle
 10
11209.7771256601
 20
-9054.68235260357
 30
0.0
 40
50.0
100
AcDbArc
 50
0.0
 51
90.0
  0
ARC
  5
3BE
330
1F
100
AcDbEntity
  8
1
  6
Continuous
 62
     7
100
AcDbCircle
 10
11085.2774652803
 20
-9514.52901073588
 30
0.0
 40
50.0000000000589
100
AcDbArc
 50
110.9162311962902
 51
180.0
  0
ARC
  5
3BF
330
1F
100
AcDbEntity
  8
1
  6
Continuous
 62
     7
100
AcDbCircle
 10
11349.1490223381
 20
-9448.70215476756
 30
0.0
 40
50.00000000004223
100
AcDbArc
 50
359.1692388556763
 51
97.09860467263472
  0
ARC
  5
3C0
330
1F
100
AcDbEntity
  8
1
  6
Continuous
 62
     7
100
AcDbCircle
 10
11341.5614630453
 20
-9971.96285511484
 30
0.0
 40
49.99999999995998
100
AcDbArc
 50
270.0
 51
359.1692388556888
  0
ARC
  5
3C1
330
1F
100
AcDbEntity
  8
1
  6
Continuous
 62
     7
100
AcDbCircle
 10
11085.2774652803
 20
-9971.96285511484
 30
0.0
 40
50.0
100
AcDbArc
 50
180.0
 51
270.0
  0
ARC
  5
3C2
330
1F
100
AcDbEntity
  8
1
  6
DASHED
 62
     3
100
AcDbCircle
 10
10388.5163809654
 20
-8916.96962052705
 30
0.0
 40
50.0
100
AcDbArc
 50
90.0
 51
180.0
  0
ARC
  5
3C3
330
1F
100
AcDbEntity
  8
1
  6
Continuous
 62
     7
100
AcDbCircle
 10
10513.0160413452
 20
-9971.96285511484
 30
0.0
 40
49.99999999995998
100
AcDbArc
 50
270.0
 51
0.0
  0
ARC
  5
3C4
330
1F
100
AcDbEntity
  8
1
  6
Continuous
 62
     7
100
AcDbCircle
 10
10256.7320435802
 20
-9971.96285511484
 30
0.0
 40
50.00000000004207
100
AcDbArc
 50
180.8307611443112
 51
270.0
  0
ARC
  5
3C5
330
1F
100
AcDbEntity
  8
1
  6
Continuous
 62
     7
100
AcDbCircle
 10
10249.1444842874
 20
-9448.70215476756
 30
0.0
 40
49.9999999999702
100
AcDbArc
 50
82.90139532735732
 51
180.8307611443236
  0
ARC
  5
3C6
330
1F
100
AcDbEntity
  8
1
  6
Continuous
 62
     7
100
AcDbCircle
 10
10513.0160413452
 20
-9514.52901073588
 30
0.0
 40
50.0
100
AcDbArc
 50
0.0
 51
69.08376880368526
  0
ARC
  5
3C7
330
1F
100
AcDbEntity
  8
1
  6
Continuous
 62
     7
100
AcDbCircle
 10
10388.5163809654
 20
-9054.68235260357
 30
0.0
 40
50.0
100
AcDbArc
 50
90.0
 51
180.0
  0
ARC
  5
3C8
330
1F
100
AcDbEntity
  8
1
  6
Continuous
 62
     1
100
AcDbCircle
 10
10799.1467533128
 20
-13475.803632197
 30
0.0
 40
6472.469167536791
100
AcDbArc
 50
86.00887781912233
 51
93.99112218087852
  0
ARC
  5
3C9
330
1F
100
AcDbEntity
  8
1
  6
Continuous
 62
     1
100
AcDbCircle
 10
10799.1467533127
 20
2431.80974410787
 30
0.0
 40
9504.23933957377
100
AcDbArc
 50
267.285193472934
 51
272.7148065270666
  0
ARC
  5
3CA
330
1F
100
AcDbEntity
  8
1
  6
Continuous
 62
     1
100
AcDbCircle
 10
10799.1467533127
 20
-1067.66864751069
 30
0.0
 40
6068.074690524549
100
AcDbArc
 50
265.8169572670097
 51
274.1830427329912
  0
ARC
  5
3CB
330
1F
100
AcDbEntity
  8
1
  6
Continuous
 62
     1
100
AcDbCircle
 10
10359.2212385344
 20
-7140.40458384277
 30
0.0
 40
20.99999999955402
100
AcDbArc
 50
97.38218120428968
 51
170.382686593462
  0
ARC
  5
3CC
330
1F
100
AcDbEntity
  8
1
  6
Continuous
 62
     1
100
AcDbCircle
 10
10362.297521041
 20
-7096.50491607091
 30
0.0
 40
23.78533516896536
100
AcDbArc
 50
178.9238812680015
 51
255.9495477398145
  0
ARC
  5
3CD
330
1F
100
AcDbEntity
  8
1
  6
Continuous
 62
     1
100
AcDbCircle
 10
10351.5146098811
 20
-7031.7117826758
 30
0.0
 40
13.00000000004836
100
AcDbArc
 50
102.7272363812257
 51
180.9457808532361
  0
ARC
  5
3CE
330
1F
100
AcDbEntity
  8
1
  6
Continuous
 62
     1
100
AcDbCircle
 10
10348.573952935
 20
-7051.71339726801
 30
0.0
 40
10.05758568058231
100
AcDbArc
 50
180.0946074008044
 51
272.3274826856028
  0
ARC
  5
3CF
330
1F
100
AcDbEntity
  8
1
  6
Continuous
 62
     1
100
AcDbCircle
 10
10348.5163809654
 20
-7071.75182105476
 30
0.0
 40
10.00000000074491
100
AcDbArc
 50
92.34184280525952
 51
180.0
  0
ARC
  5
3D0
330
1F
100
AcDbEntity
  8
1
  6
Continuous
 62
     1
100
AcDbCircle
 10
10348.5907035489
 20
-7008.95687104592
 30
0.0
 40
10.07450052486064
100
AcDbArc
 50
180.340537514405
 51
270.3405375147981
  0
ARC
  5
3D1
330
1F
100
AcDbEntity
  8
0
  6
Continuous
 62
     7
100
AcDbCircle
 10
10458.9001392344
 20
-7311.72048826403
 30
0.0
 40
302.5105280668495
100
AcDbArc
 50
90.0
 51
106.1847758764043
  0
ARC
  5
3D2
330
1F
100
AcDbEntity
  8
0
  6
Continuous
 62
     1
100
AcDbCircle
 10
10454.3908036534
 20
-7437.69170663435
 30
0.0
 40
411.0745946970046
100
AcDbArc
 50
91.11342526853285
 51
105.088322634782
  0
ARC
  5
3D3
330
1F
100
AcDbEntity
  8
1
  6
Continuous
 62
     7
100
AcDbCircle
 10
11488.8448224316
 20
-10570.4697676104
 30
0.0
 40
1180.432436630771
100
AcDbArc
 50
97.09860467260552
 51
110.9162311963125
  0
ARC
  5
3D4
330
1F
100
AcDbEntity
  8
1
  6
Continuous
 62
     7
100
AcDbCircle
 10
10109.4486841939
 20
-10570.4697676104
 30
0.0
 40
1180.432436630703
100
AcDbArc
 50
69.08376880368652
 51
82.90139532739404
  0
ARC
  5
3D5
330
1F
100
AcDbEntity
  8
0
  6
Continuous
 62
     7
100
AcDbCircle
 10
11139.3933673911
 20
-7311.72048826403
 30
0.0
 40
302.5105280668445
100
AcDbArc
 50
73.81522412359517
 51
90.0
  0
ARC
  5
3D6
330
1F
100
AcDbEntity
  8
0
  6
Continuous
 62
     1
100
AcDbCircle
 10
11143.9027029721
 20
-7437.69170663435
 30
0.0
 40
411.0745946970146
100
AcDbArc
 50
74.91167736521837
 51
88.88657473146691
  0
ARC
  5
3D7
330
1F
100
AcDbEntity
  8
1
  6
Continuous
 62
     1
100
AcDbCircle
 10
11239.0722680911
 20
-7140.40458384277
 30
0.0
 40
20.99999999941991
100
AcDbArc
 50
9.61731340658274
 51
82.61781879569281
  0
ARC
  5
3D8
330
1F
100
AcDbEntity
  8
1
  6
Continuous
 62
     1
100
AcDbCircle
 10
11235.9959855845
 20
-7096.50491607091
 30
0.0
 40
23.78533516901613
100
AcDbArc
 50
284.050452260152
 51
1.07611873199856
  0
ARC
  5
3D9
330
1F
100
AcDbEntity
  8
1
  6
Continuous
 62
     1
100
AcDbCircle
 10
11246.7788967443
 20
-7031.7117826758
 30
0.0
 40
13.00000000023471
100
AcDbArc
 50
359.0542191467713
 51
77.27276361827623
  0
ARC
  5
3DA
330
1F
100
AcDbEntity
  8
1
  6
Continuous
 62
     1
100
AcDbCircle
 10
11249.7195536905
 20
-7051.71339726801
 30
0.0
 40
10.05758568057143
100
AcDbArc
 50
267.6725173144052
 51
359.9053925991956
  0
ARC
  5
3DB
330
1F
100
AcDbEntity
  8
1
  6
Continuous
 62
     1
100
AcDbCircle
 10
11249.7771256601
 20
-7071.75182105476
 30
0.0
 40
10.0
100
AcDbArc
 50
0.0
 51
87.65815719457547
  0
ARC
  5
3DC
330
1F
100
AcDbEntity
  8
1
  6
Continuous
 62
     1
100
AcDbCircle
 10
11249.7028030766
 20
-7008.95687104592
 30
0.0
 40
10.07450052493199
100
AcDbArc
 50
269.6594624852042
 51
359.6594624855984
  0
ARC
  5
3DD
330
1F
100
AcDbEntity
  8
1
  6
Continuous
 62
     7
100
AcDbCircle
 10
11209.7771256601
 20
-7069.21751228945
 30
0.0
 40
50.0
100
AcDbArc
 50
0.0
 51
73.8152241235249
  0
ARC
  5
3DE
330
1F
100
AcDbEntity
  8
1
  6
DASHED
 62
     3
100
AcDbCircle
 10
11209.7771256601
 20
-6923.84550109108
 30
0.0
 40
50.0
100
AcDbArc
 50
0.0
 51
90.0
  0
ARC
  5
3DF
330
1F
100
AcDbEntity
  8
1
  6
DASHED
 62
     3
100
AcDbCircle
 10
11209.7771256601
 20
-6923.84550109108
 30
0.0
 40
50.0
100
AcDbArc
 50
0.0
 51
90.0
  0
SPLINE
  5
3E0
330
1F
100
AcDbEntity
  8
0
  6
Continuous
 62
     7
100
AcDbSpline
210
0.0
220
0.0
230
1.0
 70
     8
 71
     3
 72
    43
 73
    39
 74
    37
 42
0.0000000001
 43
0.0000000001
 44
0.00000001
 40
0.0
 40
0.0
 40
0.0
 40
0.0
 40
0.5703285155506355
 40
1.140657031095566
 40
1.155589391520457
 40
1.170521751827939
 40
1.185454111954679
 40
1.20038647211227
 40
1.21531883194355
 40
1.230251191767648
 40
1.245183551654221
 40
1.260115911543397
 40
1.275048271095858
 40
1.289980630648346
 40
1.304912990179259
 40
1.319845349711082
 40
1.334777709346957
 40
1.349710068984493
 40
1.364642428628508
 40
1.379574788274285
 40
1.394415186480342
 40
1.409255584687053
 40
1.424095982896464
 40
1.438936381102694
 40
1.453776779301297
 40
1.468617177500084
 40
1.483457575700178
 40
1.498297973901234
 40
1.51313837185914
 40
1.527978769815972
 40
1.542819167773314
 40
1.557659565727642
 40
1.572499963611566
 40
1.58734036149538
 40
1.602180759365775
 40
1.617021157234388
 40
1.645724463079024
 40
1.674427768924976
 40
1.674427768924976
 40
1.674427768924976
 40
1.674427768924976
 10
-2519.93107529567
 20
-7517.87811750362
 30
0.0
 10
-2520.028098430596
 20
-7518.041605036913
 30
0.0
 10
-2520.222144700448
 20
-7518.368580103496
 30
0.0
 10
-2520.417612111141
 20
-7518.700497910075
 30
0.0
 10
-2520.518934181922
 20
-7518.873007636573
 30
0.0
 10
-2520.526495715968
 20
-7518.885883916659
 30
0.0
 10
-2520.534056372932
 20
-7518.898760711567
 30
0.0
 10
-2520.541616141568
 20
-7518.911638027865
 30
0.0
 10
-2520.549175024858
 20
-7518.924515863751
 30
0.0
 10
-2520.556733021976
 20
-7518.93739421964
 30
0.0
 10
-2520.564290133153
 20
-7518.950273095455
 30
0.0
 10
-2520.571846358243
 20
-7518.963152491061
 30
0.0
 10
-2520.579401697209
 20
-7518.976032406382
 30
0.0
 10
-2520.586956150013
 20
-7518.988912841342
 30
0.0
 10
-2520.594509716679
 20
-7519.001793795977
 30
0.0
 10
-2520.602062397187
 20
-7519.01467527026
 30
0.0
 10
-2520.609614191503
 20
-7519.02755726414
 30
0.0
 10
-2520.617165099589
 20
-7519.040439777549
 30
0.0
 10
-2520.6247151214
 20
-7519.053322810405
 30
0.0
 10
-2520.632248759693
 20
-7519.066179914709
 30
0.0
 10
-2520.639766020788
 20
-7519.07901108668
 30
0.0
 10
-2520.647266910992
 20
-7519.091816322541
 30
0.0
 10
-2520.65476692566
 20
-7519.10462207122
 30
0.0
 10
-2520.662266064755
 20
-7519.117428332662
 30
0.0
 10
-2520.669764328235
 20
-7519.130235106804
 30
0.0
 10
-2520.677261716073
 20
-7519.143042393581
 30
0.0
 10
-2520.684758228233
 20
-7519.155850192947
 30
0.0
 10
-2520.692253864637
 20
-7519.168658504764
 30
0.0
 10
-2520.699748625257
 20
-7519.181467328966
 30
0.0
 10
-2520.707242510045
 20
-7519.19427666551
 30
0.0
 10
-2520.714735519046
 20
-7519.207086514375
 30
0.0
 10
-2520.722227652068
 20
-7519.219896875569
 30
0.0
 10
-2520.729718909611
 20
-7519.232707748716
 30
0.0
 10
-2520.737209289623
 20
-7519.245519134936
 30
0.0
 10
-2520.744698799617
 20
-7519.25833102978
 30
0.0
 10
-2520.754519198337
 20
-7519.27513295176
 30
0.0
 10
-2520.766669495545
 20
-7519.295925479639
 30
0.0
 10
-2520.776321193915
 20
-7519.312448599947
 30
0.0
 10
-2520.7811470431
 20
-7519.3207101601
 30
0.0
 11
-2519.93107529567
 21
-7517.87811750362
 31
0.0
 11
-2520.221868535196
 21
-7518.368743539921
 31
0.0
 11
-2520.511371601941
 21
-7518.860131970787
 31
0.0
 11
-2520.518934028822
 21
-7518.873007726591
 31
0.0
 11
-2520.526495569826
 21
-7518.885884002528
 31
0.0
 11
-2520.534056224886
 21
-7518.898760798481
 31
0.0
 11
-2520.541615994074
 21
-7518.911638114571
 31
0.0
 11
-2520.549174877172
 21
-7518.924515950432
 31
0.0
 11
-2520.556732874307
 21
-7518.937394306275
 31
0.0
 11
-2520.56428998548
 21
-7518.950273182099
 31
0.0
 11
-2520.571846210622
 21
-7518.963152577794
 31
0.0
 11
-2520.579401549525
 21
-7518.976032493006
 31
0.0
 11
-2520.586956002328
 21
-7518.988912927962
 31
0.0
 11
-2520.594509568984
 21
-7519.001793882582
 31
0.0
 11
-2520.602062249468
 21
-7519.014675356826
 31
0.0
 11
-2520.609614043794
 21
-7519.027557350722
 31
0.0
 11
-2520.617164951876
 21
-7519.040439864122
 31
0.0
 11
-2520.624714973681
 21
-7519.053322896967
 31
0.0
 11
-2520.632264109169
 21
-7519.066206449193
 31
0.0
 11
-2520.639765874871
 21
-7519.079011172161
 31
0.0
 11
-2520.647266765069
 21
-7519.09181640801
 31
0.0
 11
-2520.654766779732
 21
-7519.104622156683
 31
0.0
 11
-2520.662265918821
 21
-7519.117428418114
 31
0.0
 11
-2520.669764182295
 21
-7519.130235192242
 31
0.0
 11
-2520.677261570126
 21
-7519.143042479012
 31
0.0
 11
-2520.68475808228
 21
-7519.155850278366
 31
0.0
 11
-2520.69225371872
 21
-7519.168658590242
 31
0.0
 11
-2520.699748479292
 21
-7519.181467414369
 31
0.0
 11
-2520.70724236408
 21
-7519.194276750897
 31
0.0
 11
-2520.714735373052
 21
-7519.207086599768
 31
0.0
 11
-2520.722227506169
 21
-7519.219896960918
 31
0.0
 11
-2520.729718763358
 21
-7519.232707834232
 31
0.0
 11
-2520.737209144622
 21
-7519.24551921971
 31
0.0
 11
-2520.74469864992
 21
-7519.25833111728
 31
0.0
 11
-2520.752187279225
 21
-7519.271143526891
 31
0.0
 11
-2520.766668799844
 21
-7519.29592588608
 31
0.0
 11
-2520.7811470431
 21
-7519.3207101601
 31
0.0
  0
SPLINE
  5
3E1
330
1F
100
AcDbEntity
  8
0
  6
Continuous
 62
     7
100
AcDbSpline
210
0.0
220
0.0
230
1.0
 70
     8
 71
     3
 72
    11
 73
     7
 74
     5
 42
0.0000000001
 43
0.0000000001
 44
0.00000001
 40
0.0
 40
0.0
 40
0.0
 40
0.0
 40
31.07607462118601
 40
62.15214924237138
 40
85.13188887302113
 40
108.111628503673
 40
108.111628503673
 40
108.111628503673
 40
108.111628503673
 10
-2679.1913627008
 20
-7009.20846470557
 30
0.0
 10
-2689.555388329698
 20
-7009.513157708416
 30
0.0
 10
-2710.283439587494
 20
-7010.122543714109
 30
0.0
 10
-2738.362928200718
 20
-7014.694420660121
 30
0.0
 10
-2763.343255875771
 20
-7020.759466070499
 30
0.0
 10
-2777.815932782697
 20
-7025.810290655752
 30
0.0
 10
-2785.05227123616
 20
-7028.33570294838
 30
0.0
 11
-2679.1913627008
 21
-7009.20846470557
 31
0.0
 11
-2710.226417508131
 21
-7010.804643570061
 31
0.0
 11
-2740.933963169118
 21
-7015.576336491857
 31
0.0
 11
-2763.235603732172
 21
-7021.117569359078
 31
0.0
 11
-2785.05227123616
 21
-7028.33570294838
 31
0.0
  0
SPLINE
  5
3E2
330
1F
100
AcDbEntity
  8
0
  6
DASHED
 62
     3
100
AcDbSpline
210
0.0
220
0.0
230
1.0
 70
     8
 71
     3
 72
     9
 73
     5
 74
     3
 42
0.0000000001
 43
0.0000000001
 44
0.00000001
 40
0.0
 40
0.0
 40
0.0
 40
0.0
 40
0.0002035773689906
 40
0.000407154733534
 40
0.000407154733534
 40
0.000407154733534
 40
0.000407154733534
 10
-2806.84826031761
 20
-7201.18868409979
 30
0.0
 10
-2806.848194770736
 20
-7201.188666536535
 30
0.0
 10
-2806.848063676991
 20
-7201.188631410025
 30
0.0
 10
-2806.847932583316
 20
-7201.188596283248
 30
0.0
 10
-2806.84786703648
 20
-7201.18857871986
 30
0.0
 11
-2806.84826031761
 21
-7201.18868409979
 31
0.0
 11
-2806.848063677007
 21
-7201.188631409957
 31
0.0
 11
-2806.84786703648
 21
-7201.18857871986
 31
0.0
  0
SPLINE
  5
3E3
330
1F
100
AcDbEntity
  8
0
  6
DASHED
 62
     3
100
AcDbSpline
210
0.0
220
0.0
230
1.0
 70
     8
 71
     3
 72
    11
 73
     7
 74
     5
 42
0.0000000001
 43
0.0000000001
 44
0.00000001
 40
0.0
 40
0.0
 40
0.0
 40
0.0
 40
31.07607462118417
 40
62.15214924236761
 40
85.1318888730161
 40
108.1116285036721
 40
108.1116285036721
 40
108.1116285036721
 40
108.1116285036721
 10
-2827.7670150449
 20
-7119.8289113188
 30
0.0
 10
-2837.699034712129
 20
-7122.805629376027
 30
0.0
 10
-2857.563074046585
 20
-7128.759065490478
 30
0.0
 10
-2883.502488461589
 20
-7140.442665937106
 30
0.0
 10
-2906.061882850473
 20
-7152.766434491796
 30
0.0
 10
-2918.734165654271
 20
-7161.390960819886
 30
0.0
 10
-2925.07030705617
 20
-7165.70322398393
 30
0.0
 11
-2827.7670150449
 21
-7119.8289113188
 31
0.0
 11
-2857.331454514077
 21
-7129.403164957324
 31
0.0
 11
-2885.757660924429
 21
-7141.95996403103
 31
0.0
 11
-2905.865214913515
 21
-7153.084473281707
 31
0.0
 11
-2925.07030705617
 21
-7165.70322398393
 31
0.0
  0
SPLINE
  5
3E4
330
1F
100
AcDbEntity
  8
0
  6
DASHED
 62
     3
100
AcDbSpline
210
0.0
220
0.0
230
1.0
 70
     8
 71
     3
 72
     9
 73
     5
 74
     3
 42
0.0000000001
 43
0.0000000001
 44
0.00000001
 40
0.0
 40
0.0
 40
0.0
 40
0.0
 40
0.0000766021490017
 40
0.0001532042943486
 40
0.0001532042943486
 40
0.0001532042943486
 40
0.0001532042943486
 10
-2626.68548214542
 20
-7415.97190700673
 30
0.0
 10
-2626.685492479761
 20
-7415.971883657427
 30
0.0
 10
-2626.68551314844
 20
-7415.971836958814
 30
0.0
 10
-2626.685533663874
 20
-7415.971790192678
 30
0.0
 10
-2626.68554392159
 20
-7415.97176680961
 30
0.0
 11
-2626.68548214542
 21
-7415.97190700673
 31
0.0
 11
-2626.685513110129
 21
-7415.971836941932
 31
0.0
 11
-2626.68554392159
 21
-7415.97176680961
 31
0.0
  0
SPLINE
  5
3E5
330
1F
100
AcDbEntity
  8
0
  6
Continuous
 62
     7
100
AcDbSpline
210
0.0
220
0.0
230
1.0
 70
     8
 71
     3
 72
     9
 73
     5
 74
     3
 42
0.0000000001
 43
0.0000000001
 44
0.00000001
 40
0.0
 40
0.0
 40
0.0
 40
0.0
 40
0.0000766021496352
 40
0.0001532042965708
 40
0.0001532042965708
 40
0.0001532042965708
 40
0.0001532042965708
 10
-2561.60896424116
 20
-7347.30436284795
 30
0.0
 10
-2561.608968180122
 20
-7347.304337619527
 30
0.0
 10
-2561.608976058047
 20
-7347.304287162687
 30
0.0
 10
-2561.608983770469
 20
-7347.304236680282
 30
0.0
 10
-2561.60898762668
 20
-7347.30421143908
 30
0.0
 11
-2561.60896424116
 21
-7347.30436284795
 31
0.0
 11
-2561.608976016671
 21
-7347.304287156295
 31
0.0
 11
-2561.60898762668
 21
-7347.30421143908
 31
0.0
  0
SPLINE
  5
3E6
330
1F
100
AcDbEntity
  8
0
  6
Continuous
 62
     7
100
AcDbSpline
210
0.0
220
0.0
230
1.0
 70
     8
 71
     3
 72
     9
 73
     5
 74
     3
 42
0.0000000001
 43
0.0000000001
 44
0.00000001
 40
0.0
 40
0.0
 40
0.0
 40
0.0
 40
0.0002035773650278
 40
0.0004071547300559
 40
0.0004071547300559
 40
0.0004071547300559
 40
0.0004071547300559
 10
-2680.04285595684
 20
-7093.21014257899
 30
0.0
 10
-2680.042788097718
 20
-7093.210142578967
 30
0.0
 10
-2680.042652379475
 20
-7093.210142578922
 30
0.0
 10
-2680.042516661231
 20
-7093.2101425786
 30
0.0
 10
-2680.04244880211
 20
-7093.21014257844
 30
0.0
 11
-2680.04285595684
 21
-7093.21014257899
 31
0.0
 11
-2680.042652379475
 21
-7093.210142578854
 31
0.0
 11
-2680.04244880211
 21
-7093.21014257844
 31
0.0
  0
ENDSEC
  0
SECTION
  2
OBJECTS
  0
DICTIONARY
  5
C
330
0
100
AcDbDictionary
281
     1
  3
ACAD_GROUP
350
D
  3
ACAD_LAYOUT
350
1A
  3
ACAD_MATERIAL
350
3B
  3
ACAD_MLEADERSTYLE
350
3E9
  3
ACAD_MLINESTYLE
350
17
  3
ACAD_PLOTSETTINGS
350
19
  3
ACAD_PLOTSTYLENAME
350
E
  3
ACAD_VISUALSTYLE
350
2A
  3
AcDbVariableDictionary
350
3E7
  0
DICTIONARY
  5
D
102
{ACAD_REACTORS
330
C
102
}
330
C
100
AcDbDictionary
281
     1
  0
DICTIONARY
  5
1A
102
{ACAD_REACTORS
330
C
102
}
330
C
100
AcDbDictionary
281
     1
  3
Layout1
350
1E
  3
Layout2
350
26
  3
Model
350
22
  0
DICTIONARY
  5
3B
102
{ACAD_REACTORS
330
C
102
}
330
C
100
AcDbDictionary
281
     1
  3
ByBlock
350
3D
  3
ByLayer
350
3C
  3
Global
350
3E
  0
DICTIONARY
  5
3E9
102
{ACAD_REACTORS
330
C
102
}
330
C
100
AcDbDictionary
281
     1
  0
DICTIONARY
  5
17
102
{ACAD_REACTORS
330
C
102
}
330
C
100
AcDbDictionary
281
     1
  3
Standard
350
18
  0
DICTIONARY
  5
19
102
{ACAD_REACTORS
330
C
102
}
330
C
100
AcDbDictionary
281
     1
  0
ACDBDICTIONARYWDFLT
  5
E
102
{ACAD_REACTORS
330
C
102
}
330
C
100
AcDbDictionary
281
     1
  3
Normal
350
F
100
AcDbDictionaryWithDefault
340
F
  0
DICTIONARY
  5
2A
102
{ACAD_REACTORS
330
C
102
}
330
C
100
AcDbDictionary
281
     1
  3
2dWireframe
350
2F
  3
3D Hidden
350
31
  3
3dWireframe
350
30
  3
Basic
350
32
  3
Brighten
350
36
  3
ColorChange
350
3A
  3
Conceptual
350
34
  3
Dim
350
35
  3
Facepattern
350
39
  3
Flat
350
2B
  3
FlatWithEdges
350
2C
  3
Gouraud
350
2D
  3
GouraudWithEdges
350
2E
  3
Linepattern
350
38
  3
Realistic
350
33
  3
Thicken
350
37
  0
DICTIONARY
  5
3E7
102
{ACAD_REACTORS
330
C
102
}
330
C
100
AcDbDictionary
281
     1
  3
DIMASSOC
350
3EA
  3
HIDETEXT
350
3EB
  0
LAYOUT
  5
1E
102
{ACAD_REACTORS
330
1A
102
}
330
1A
100
AcDbPlotSettings
  1

  2
none_device
  4

  6

 40
0.0
 41
0.0
 42
0.0
 43
0.0
 44
0.0
 45
0.0
 46
0.0
 47
0.0
 48
0.0
 49
0.0
140
0.0
141
0.0
142
1.0
143
1.0
 70
   688
 72
     0
 73
     0
 74
     5
  7

 75
    16
147
1.0
148
0.0
149
0.0
100
AcDbLayout
  1
Layout1
 70
     1
 71
     1
 10
0.0
 20
0.0
 11
12.0
 21
9.0
 12
0.0
 22
0.0
 32
0.0
 14
1.00000000000000E+20
 24
1.00000000000000E+20
 34
1.00000000000000E+20
 15
-1.00000000000000E+20
 25
-1.00000000000000E+20
 35
-1.00000000000000E+20
146
0.0
 13
0.0
 23
0.0
 33
0.0
 16
1.0
 26
0.0
 36
0.0
 17
0.0
 27
1.0
 37
0.0
 76
     0
330
1B
  0
LAYOUT
  5
26
102
{ACAD_REACTORS
330
1A
102
}
330
1A
100
AcDbPlotSettings
  1

  2
none_device
  4

  6

 40
0.0
 41
0.0
 42
0.0
 43
0.0
 44
0.0
 45
0.0
 46
0.0
 47
0.0
 48
0.0
 49
0.0
140
0.0
141
0.0
142
1.0
143
1.0
 70
   688
 72
     0
 73
     0
 74
     5
  7

 75
    16
147
1.0
148
0.0
149
0.0
100
AcDbLayout
  1
Layout2
 70
     1
 71
     2
 10
0.0
 20
0.0
 11
0.0
 21
0.0
 12
0.0
 22
0.0
 32
0.0
 14
0.0
 24
0.0
 34
0.0
 15
0.0
 25
0.0
 35
0.0
146
0.0
 13
0.0
 23
0.0
 33
0.0
 16
1.0
 26
0.0
 36
0.0
 17
0.0
 27
1.0
 37
0.0
 76
     0
330
23
  0
LAYOUT
  5
22
102
{ACAD_REACTORS
330
1A
102
}
330
1A
100
AcDbPlotSettings
  1

  2
none_device
  4

  6

 40
0.0
 41
0.0
 42
0.0
 43
0.0
 44
0.0
 45
0.0
 46
0.0
 47
0.0
 48
0.0
 49
0.0
140
0.0
141
0.0
142
1.0
143
1.0
 70
  1712
 72
     0
 73
     0
 74
     0
  7

 75
     0
147
1.0
148
0.0
149
0.0
100
AcDbLayout
  1
Model
 70
     1
 71
     0
 10
0.0
 20
0.0
 11
12.0
 21
9.0
 12
0.0
 22
0.0
 32
0.0
 14
-2938.01060500359
 24
-10021.9628551148
 34
0.0
 15
11399.14902233814
 25
-6873.776261647086
 35
0.0
146
0.0
 13
0.0
 23
0.0
 33
0.0
 16
1.0
 26
0.0
 36
0.0
 17
0.0
 27
1.0
 37
0.0
 76
     0
330
1F
331
29
  0
MATERIAL
  5
3D
102
{ACAD_REACTORS
330
3B
102
}
102
{ACAD_XDICTIONARY
360
40E
102
}
330
3B
100
AcDbMaterial
  1
ByBlock
  0
MATERIAL
  5
3C
102
{ACAD_REACTORS
330
3B
102
}
102
{ACAD_XDICTIONARY
360
40C
102
}
330
3B
100
AcDbMaterial
  1
ByLayer
  0
MATERIAL
  5
3E
102
{ACAD_REACTORS
330
3B
102
}
102
{ACAD_XDICTIONARY
360
410
102
}
330
3B
100
AcDbMaterial
  1
Global
  0
MLINESTYLE
  5
18
102
{ACAD_REACTORS
330
17
102
}
330
17
100
AcDbMlineStyle
  2
Standard
 70
     0
  3

 62
   256
 51
90.0
 52
90.0
 71
     2
 49
0.5
 62
   256
  6
BYLAYER
 49
-0.5
 62
   256
  6
BYLAYER
  0
ACDBPLACEHOLDER
  5
F
102
{ACAD_REACTORS
330
E
102
}
330
E
  0
VISUALSTYLE
  5
2F
102
{ACAD_REACTORS
330
2A
102
}
102
{ACAD_XDICTIONARY
360
3F4
102
}
330
2A
100
AcDbVisualStyle
  2
2dWireframe
 70
     4
 71
     0
 72
     2
 73
     0
 90
        0
 40
-0.6
 41
-30.0
 62
     5
 63
     7
 74
     1
 91
        4
 64
     7
 65
   257
 75
     1
175
     1
 42
1.0
 92
        0
 66
   257
 43
1.0
 76
     1
 77
     6
 78
     2
 67
     7
 79
     5
170
     0
171
     0
290
     0
174
     0
 93
        1
 44
0.0
173
     0
291
     0
 45
0.0
1001
ACAD
1000
AcDbSavedByObjectVersion
1070
     0
  0
VISUALSTYLE
  5
31
102
{ACAD_REACTORS
330
2A
102
}
102
{ACAD_XDICTIONARY
360
3F8
102
}
330
2A
100
AcDbVisualStyle
  2
3D Hidden
 70
     6
 71
     1
 72
     2
 73
     2
 90
        0
 40
-0.6
 41
-30.0
 62
     5
 63
     7
 74
     2
 91
        2
 64
     7
 65
   257
 75
     2
175
     1
 42
40.0
 92
        0
 66
   257
 43
1.0
 76
     1
 77
     6
 78
     2
 67
     7
 79
     3
170
     0
171
     0
290
     0
174
     0
 93
        1
 44
0.0
173
     0
291
     0
 45
0.0
1001
ACAD
1000
AcDbSavedByObjectVersion
1070
     0
  0
VISUALSTYLE
  5
30
102
{ACAD_REACTORS
330
2A
102
}
102
{ACAD_XDICTIONARY
360
3F6
102
}
330
2A
100
AcDbVisualStyle
  2
3dWireframe
 70
     5
 71
     0
 72
     2
 73
     0
 90
        0
 40
-0.6
 41
-30.0
 62
     5
 63
     7
 74
     1
 91
        4
 64
     7
 65
   257
 75
     1
175
     1
 42
1.0
 92
        0
 66
   257
 43
1.0
 76
     1
 77
     6
 78
     2
 67
     7
 79
     5
170
     0
171
     0
290
     0
174
     0
 93
        1
 44
0.0
173
     0
291
     0
 45
0.0
1001
ACAD
1000
AcDbSavedByObjectVersion
1070
     0
  0
VISUALSTYLE
  5
32
102
{ACAD_REACTORS
330
2A
102
}
102
{ACAD_XDICTIONARY
360
3FA
102
}
330
2A
100
AcDbVisualStyle
  2
Basic
 70
     7
 71
     1
 72
     0
 73
     1
 90
        0
 40
-0.6
 41
-30.0
 62
     5
 63
     7
 74
     0
 91
        4
 64
     7
 65
   257
 75
     1
175
     1
 42
1.0
 92
        8
 66
     7
 43
1.0
 76
     1
 77
     6
 78
     2
 67
     7
 79
     5
170
     0
171
     0
290
     0
174
     0
 93
        1
 44
0.0
173
     0
291
     1
 45
0.0
1001
ACAD
1000
AcDbSavedByObjectVersion
1070
     0
  0
VISUALSTYLE
  5
36
102
{ACAD_REACTORS
330
2A
102
}
102
{ACAD_XDICTIONARY
360
402
102
}
330
2A
100
AcDbVisualStyle
  2
Brighten
 70
    12
 71
     2
 72
     2
 73
     0
 90
        0
 40
-0.6
 41
-30.0
 62
     5
 63
     7
 74
     1
 91
        4
 64
     7
 65
   257
 75
     1
175
     1
 42
1.0
 92
        8
 66
     7
 43
1.0
 76
     1
 77
     6
 78
     2
 67
     7
 79
     5
170
     0
171
     0
290
     0
174
     0
 93
        1
 44
50.0
173
     0
291
     1
 45
0.0
1001
ACAD
1000
AcDbSavedByObjectVersion
1070
     0
  0
VISUALSTYLE
  5
3A
102
{ACAD_REACTORS
330
2A
102
}
102
{ACAD_XDICTIONARY
360
40A
102
}
330
2A
100
AcDbVisualStyle
  2
ColorChange
 70
    16
 71
     2
 72
     2
 73
     3
 90
        0
 40
-0.6
 41
-30.0
 62
     5
 63
     8
 74
     1
 91
        4
 64
     7
 65
   257
 75
     1
175
     1
 42
1.0
 92
        8
 66
     8
 43
1.0
 76
     1
 77
     6
 78
     2
 67
     7
 79
     5
170
     0
171
     0
290
     0
174
     0
 93
        1
 44
0.0
173
     0
291
     1
 45
0.0
1001
ACAD
1000
AcDbSavedByObjectVersion
1070
     0
  0
VISUALSTYLE
  5
34
102
{ACAD_REACTORS
330
2A
102
}
102
{ACAD_XDICTIONARY
360
3FE
102
}
330
2A
100
AcDbVisualStyle
  2
Conceptual
 70
     9
 71
     3
 72
     2
 73
     0
 90
        0
 40
-0.6
 41
-30.0
 62
     5
 63
     7
 74
     2
 91
        2
 64
     7
 65
   257
 75
     1
175
     1
 42
40.0
 92
        8
 66
     7
 43
1.0
 76
     1
 77
     6
 78
     2
 67
     7
 79
     3
170
     0
171
     0
290
     0
174
     0
 93
        1
 44
0.0
173
     0
291
     0
 45
0.0
1001
ACAD
1000
AcDbSavedByObjectVersion
1070
     0
  0
VISUALSTYLE
  5
35
102
{ACAD_REACTORS
330
2A
102
}
102
{ACAD_XDICTIONARY
360
400
102
}
330
2A
100
AcDbVisualStyle
  2
Dim
 70
    11
 71
     2
 72
     2
 73
     0
 90
        0
 40
-0.6
 41
-30.0
 62
     5
 63
     7
 74
     1
 91
        4
 64
     7
 65
   257
 75
     1
175
     1
 42
1.0
 92
        8
 66
     7
 43
1.0
 76
     1
 77
     6
 78
     2
 67
     7
 79
     5
170
     0
171
     0
290
     0
174
     0
 93
        1
 44
-50.0
173
     0
291
     1
 45
0.0
1001
ACAD
1000
AcDbSavedByObjectVersion
1070
     0
  0
VISUALSTYLE
  5
39
102
{ACAD_REACTORS
330
2A
102
}
102
{ACAD_XDICTIONARY
360
408
102
}
330
2A
100
AcDbVisualStyle
  2
Facepattern
 70
    15
 71
     2
 72
     2
 73
     0
 90
        0
 40
-0.6
 41
-30.0
 62
     5
 63
     7
 74
     1
 91
        4
 64
     7
 65
   257
 75
     1
175
     1
 42
1.0
 92
        8
 66
     7
 43
1.0
 76
     1
 77
     6
 78
     2
 67
     7
 79
     5
170
     0
171
     0
290
     0
174
     0
 93
        1
 44
0.0
173
     0
291
     1
 45
0.0
1001
ACAD
1000
AcDbSavedByObjectVersion
1070
     0
  0
VISUALSTYLE
  5
2B
102
{ACAD_REACTORS
330
2A
102
}
102
{ACAD_XDICTIONARY
360
3EC
102
}
330
2A
100
AcDbVisualStyle
  2
Flat
 70
     0
 71
     2
 72
     1
 73
     1
 90
        2
 40
-0.6
 41
30.0
 62
     5
 63
     7
 74
     0
 91
        4
 64
     7
 65
   257
 75
     1
175
     1
 42
1.0
 92
        8
 66
     7
 43
1.0
 76
     1
 77
     6
 78
     2
 67
     7
 79
     5
170
     0
171
     0
290
     0
174
     0
 93
       13
 44
0.0
173
     0
291
     1
 45
0.0
1001
ACAD
1000
AcDbSavedByObjectVersion
1070
     0
  0
VISUALSTYLE
  5
2C
102
{ACAD_REACTORS
330
2A
102
}
102
{ACAD_XDICTIONARY
360
3EE
102
}
330
2A
100
AcDbVisualStyle
  2
FlatWithEdges
 70
     1
 71
     2
 72
     1
 73
     1
 90
        2
 40
-0.6
 41
30.0
 62
     5
 63
     7
 74
     1
 91
        4
 64
     7
 65
   257
 75
     1
175
     1
 42
1.0
 92
        0
 66
   257
 43
1.0
 76
     1
 77
     6
 78
     2
 67
     7
 79
     5
170
     0
171
     0
290
     0
174
     0
 93
       13
 44
0.0
173
     0
291
     1
 45
0.0
1001
ACAD
1000
AcDbSavedByObjectVersion
1070
     0
  0
VISUALSTYLE
  5
2D
102
{ACAD_REACTORS
330
2A
102
}
102
{ACAD_XDICTIONARY
360
3F0
102
}
330
2A
100
AcDbVisualStyle
  2
Gouraud
 70
     2
 71
     2
 72
     2
 73
     1
 90
        2
 40
-0.6
 41
30.0
 62
     5
 63
     7
 74
     0
 91
        4
 64
     7
 65
   257
 75
     1
175
     1
 42
1.0
 92
        0
 66
     7
 43
1.0
 76
     1
 77
     6
 78
     2
 67
     7
 79
     5
170
     0
171
     0
290
     0
174
     0
 93
       13
 44
0.0
173
     0
291
     1
 45
0.0
1001
ACAD
1000
AcDbSavedByObjectVersion
1070
     0
  0
VISUALSTYLE
  5
2E
102
{ACAD_REACTORS
330
2A
102
}
102
{ACAD_XDICTIONARY
360
3F2
102
}
330
2A
100
AcDbVisualStyle
  2
GouraudWithEdges
 70
     3
 71
     2
 72
     2
 73
     1
 90
        2
 40
-0.6
 41
30.0
 62
     5
 63
     7
 74
     1
 91
        4
 64
     7
 65
   257
 75
     1
175
     1
 42
1.0
 92
        0
 66
   257
 43
1.0
 76
     1
 77
     6
 78
     2
 67
     7
 79
     5
170
     0
171
     0
290
     0
174
     0
 93
       13
 44
0.0
173
     0
291
     1
 45
0.0
1001
ACAD
1000
AcDbSavedByObjectVersion
1070
     0
  0
VISUALSTYLE
  5
38
102
{ACAD_REACTORS
330
2A
102
}
102
{ACAD_XDICTIONARY
360
406
102
}
330
2A
100
AcDbVisualStyle
  2
Linepattern
 70
    14
 71
     2
 72
     2
 73
     0
 90
        0
 40
-0.6
 41
-30.0
 62
     5
 63
     7
 74
     1
 91
        4
 64
     7
 65
   257
 75
     7
175
     7
 42
1.0
 92
        8
 66
     7
 43
1.0
 76
     1
 77
     6
 78
     2
 67
     7
 79
     5
170
     0
171
     0
290
     0
174
     0
 93
        1
 44
0.0
173
     0
291
     1
 45
0.0
1001
ACAD
1000
AcDbSavedByObjectVersion
1070
     0
  0
VISUALSTYLE
  5
33
102
{ACAD_REACTORS
330
2A
102
}
102
{ACAD_XDICTIONARY
360
3FC
102
}
330
2A
100
AcDbVisualStyle
  2
Realistic
 70
     8
 71
     2
 72
     2
 73
     0
 90
        0
 40
-0.6
 41
-30.0
 62
     5
 63
     7
 74
     1
 91
        0
 64
     7
 65
   257
 75
     1
175
     1
 42
1.0
 92
        8
 66
     8
 43
1.0
 76
     1
 77
     6
 78
     2
 67
     7
 79
     5
170
     0
171
     0
290
     0
174
     0
 93
       13
 44
0.0
173
     0
291
     0
 45
0.0
1001
ACAD
1000
AcDbSavedByObjectVersion
1070
     0
  0
VISUALSTYLE
  5
37
102
{ACAD_REACTORS
330
2A
102
}
102
{ACAD_XDICTIONARY
360
404
102
}
330
2A
100
AcDbVisualStyle
  2
Thicken
 70
    13
 71
     2
 72
     2
 73
     0
 90
        0
 40
-0.6
 41
-30.0
 62
     5
 63
     7
 74
     1
 91
        4
 64
     7
 65
   257
 75
     1
175
     1
 42
1.0
 92
       12
 66
     7
 43
1.0
 76
     1
 77
     6
 78
     2
 67
     7
 79
     5
170
     0
171
     0
290
     0
174
     0
 93
        1
 44
0.0
173
     0
291
     1
 45
0.0
1001
ACAD
1000
AcDbSavedByObjectVersion
1070
     0
  0
DICTIONARYVAR
  5
3EA
102
{ACAD_REACTORS
330
3E7
102
}
330
3E7
100
DictionaryVariables
280
     0
  1
2
  0
DICTIONARYVAR
  5
3EB
102
{ACAD_REACTORS
330
3E7
102
}
330
3E7
100
DictionaryVariables
280
     0
  1
1
  0
DICTIONARY
  5
40E
330
3D
100
AcDbDictionary
280
     1
281
     1
  3
ACAD_XREC_ROUNDTRIP
360
40F
  0
DICTIONARY
  5
40C
330
3C
100
AcDbDictionary
280
     1
281
     1
  3
ACAD_XREC_ROUNDTRIP
360
40D
  0
DICTIONARY
  5
410
330
3E
100
AcDbDictionary
280
     1
281
     1
  3
ACAD_XREC_ROUNDTRIP
360
411
  0
DICTIONARY
  5
3F4
330
2F
100
AcDbDictionary
280
     1
281
     1
  3
ACAD_XREC_ROUNDTRIP
360
3F5
  0
DICTIONARY
  5
3F8
330
31
100
AcDbDictionary
280
     1
281
     1
  3
ACAD_XREC_ROUNDTRIP
360
3F9
  0
DICTIONARY
  5
3F6
330
30
100
AcDbDictionary
280
     1
281
     1
  3
ACAD_XREC_ROUNDTRIP
360
3F7
  0
DICTIONARY
  5
3FA
330
32
100
AcDbDictionary
280
     1
281
     1
  3
ACAD_XREC_ROUNDTRIP
360
3FB
  0
DICTIONARY
  5
402
330
36
100
AcDbDictionary
280
     1
281
     1
  3
ACAD_XREC_ROUNDTRIP
360
403
  0
DICTIONARY
  5
40A
330
3A
100
AcDbDictionary
280
     1
281
     1
  3
ACAD_XREC_ROUNDTRIP
360
40B
  0
DICTIONARY
  5
3FE
330
34
100
AcDbDictionary
280
     1
281
     1
  3
ACAD_XREC_ROUNDTRIP
360
3FF
  0
DICTIONARY
  5
400
330
35
100
AcDbDictionary
280
     1
281
     1
  3
ACAD_XREC_ROUNDTRIP
360
401
  0
DICTIONARY
  5
408
330
39
100
AcDbDictionary
280
     1
281
     1
  3
ACAD_XREC_ROUNDTRIP
360
409
  0
DICTIONARY
  5
3EC
330
2B
100
AcDbDictionary
280
     1
281
     1
  3
ACAD_XREC_ROUNDTRIP
360
3ED
  0
DICTIONARY
  5
3EE
330
2C
100
AcDbDictionary
280
     1
281
     1
  3
ACAD_XREC_ROUNDTRIP
360
3EF
  0
DICTIONARY
  5
3F0
330
2D
100
AcDbDictionary
280
     1
281
     1
  3
ACAD_XREC_ROUNDTRIP
360
3F1
  0
DICTIONARY
  5
3F2
330
2E
100
AcDbDictionary
280
     1
281
     1
  3
ACAD_XREC_ROUNDTRIP
360
3F3
  0
DICTIONARY
  5
406
330
38
100
AcDbDictionary
280
     1
281
     1
  3
ACAD_XREC_ROUNDTRIP
360
407
  0
DICTIONARY
  5
3FC
330
33
100
AcDbDictionary
280
     1
281
     1
  3
ACAD_XREC_ROUNDTRIP
360
3FD
  0
DICTIONARY
  5
404
330
37
100
AcDbDictionary
280
     1
281
     1
  3
ACAD_XREC_ROUNDTRIP
360
405
  0
XRECORD
  5
40F
102
{ACAD_REACTORS
330
40E
102
}
330
40E
100
AcDbXrecord
280
     1
102
MATERIAL
148
0.0
149
0.0
149
0.0
 93
        0
 94
      127
282
     0
 72
     1
 77
     1
171
     1
175
     1
179
     1
273
     0
  0
XRECORD
  5
40D
102
{ACAD_REACTORS
330
40C
102
}
330
40C
100
AcDbXrecord
280
     1
102
MATERIAL
148
0.0
149
0.0
149
0.0
 93
        0
 94
      127
282
     0
 72
     1
 77
     1
171
     1
175
     1
179
     1
273
     0
  0
XRECORD
  5
411
102
{ACAD_REACTORS
330
410
102
}
330
410
100
AcDbXrecord
280
     1
102
MATERIAL
148
0.0
149
0.0
149
0.0
 93
        0
 94
      127
282
     0
 72
     1
 77
     1
171
     1
175
     1
179
     1
273
     0
  0
XRECORD
  5
3F5
102
{ACAD_REACTORS
330
3F4
102
}
330
3F4
100
AcDbXrecord
280
     1
102
RTVSPropertyOp0
 70
     1
102
RTVSPropertyOp1
 70
     1
102
RTVSPropertyOp2
 70
     1
102
RTVSPropertyOp3
 70
     1
102
RTVSPropertyOp4
 70
     1
102
RTVSPropertyOp5
 70
     1
102
RTVSPropertyOp6
 70
     1
102
RTVSPropertyOp7
 70
     1
102
RTVSPropertyOp8
 70
     1
102
RTVSPropertyOp9
 70
     1
102
RTVSPropertyOp10
 70
     1
102
RTVSPropertyOp11
 70
     1
102
RTVSPropertyOp12
 70
     1
102
RTVSPropertyOp13
 70
     1
102
RTVSPropertyOp14
 70
     1
102
RTVSPropertyOp15
 70
     1
102
RTVSPropertyOp16
 70
     1
102
RTVSPropertyOp17
 70
     1
102
RTVSPropertyOp18
 70
     1
102
RTVSPropertyOp19
 70
     1
102
RTVSPropertyOp20
 70
     1
102
RTVSPropertyOp21
 70
     1
102
RTVSPropertyOp22
 70
     1
102
RTVSPropertyOp23
 70
     1
102
RTVSPropertyOp24
 70
     1
102
RTVSPropertyOp25
 70
     1
102
RTVSPropertyOp26
 70
     1
102
RTVSPropertyOp27
 70
     1
  0
XRECORD
  5
3F9
102
{ACAD_REACTORS
330
3F8
102
}
330
3F8
100
AcDbXrecord
280
     1
102
RTVSPropertyOp0
 70
     1
102
RTVSPropertyOp1
 70
     1
102
RTVSPropertyOp2
 70
     1
102
RTVSPropertyOp3
 70
     1
102
RTVSPropertyOp4
 70
     1
102
RTVSPropertyOp5
 70
     1
102
RTVSPropertyOp6
 70
     1
102
RTVSPropertyOp7
 70
     1
102
RTVSPropertyOp8
 70
     1
102
RTVSPropertyOp9
 70
     1
102
RTVSPropertyOp10
 70
     1
102
RTVSPropertyOp11
 70
     1
102
RTVSPropertyOp12
 70
     1
102
RTVSPropertyOp13
 70
     1
102
RTVSPropertyOp14
 70
     1
102
RTVSPropertyOp15
 70
     1
102
RTVSPropertyOp16
 70
     1
102
RTVSPropertyOp17
 70
     1
102
RTVSPropertyOp18
 70
     1
102
RTVSPropertyOp19
 70
     1
102
RTVSPropertyOp20
 70
     1
102
RTVSPropertyOp21
 70
     1
102
RTVSPropertyOp22
 70
     1
102
RTVSPropertyOp23
 70
     1
102
RTVSPropertyOp24
 70
     1
102
RTVSPropertyOp25
 70
     1
102
RTVSPropertyOp26
 70
     1
102
RTVSPropertyOp27
 70
     1
  0
XRECORD
  5
3F7
102
{ACAD_REACTORS
330
3F6
102
}
330
3F6
100
AcDbXrecord
280
     1
102
RTVSPropertyOp0
 70
     1
102
RTVSPropertyOp1
 70
     1
102
RTVSPropertyOp2
 70
     1
102
RTVSPropertyOp3
 70
     1
102
RTVSPropertyOp4
 70
     1
102
RTVSPropertyOp5
 70
     1
102
RTVSPropertyOp6
 70
     1
102
RTVSPropertyOp7
 70
     1
102
RTVSPropertyOp8
 70
     1
102
RTVSPropertyOp9
 70
     1
102
RTVSPropertyOp10
 70
     1
102
RTVSPropertyOp11
 70
     1
102
RTVSPropertyOp12
 70
     1
102
RTVSPropertyOp13
 70
     1
102
RTVSPropertyOp14
 70
     1
102
RTVSPropertyOp15
 70
     1
102
RTVSPropertyOp16
 70
     1
102
RTVSPropertyOp17
 70
     1
102
RTVSPropertyOp18
 70
     1
102
RTVSPropertyOp19
 70
     1
102
RTVSPropertyOp20
 70
     1
102
RTVSPropertyOp21
 70
     1
102
RTVSPropertyOp22
 70
     1
102
RTVSPropertyOp23
 70
     1
102
RTVSPropertyOp24
 70
     1
102
RTVSPropertyOp25
 70
     1
102
RTVSPropertyOp26
 70
     1
102
RTVSPropertyOp27
 70
     1
  0
XRECORD
  5
3FB
102
{ACAD_REACTORS
330
3FA
102
}
330
3FA
100
AcDbXrecord
280
     1
102
RTVSPropertyOp0
 70
     1
102
RTVSPropertyOp1
 70
     1
102
RTVSPropertyOp2
 70
     1
102
RTVSPropertyOp3
 70
     1
102
RTVSPropertyOp4
 70
     1
102
RTVSPropertyOp5
 70
     1
102
RTVSPropertyOp6
 70
     1
102
RTVSPropertyOp7
 70
     1
102
RTVSPropertyOp8
 70
     1
102
RTVSPropertyOp9
 70
     1
102
RTVSPropertyOp10
 70
     1
102
RTVSPropertyOp11
 70
     1
102
RTVSPropertyOp12
 70
     1
102
RTVSPropertyOp13
 70
     1
102
RTVSPropertyOp14
 70
     1
102
RTVSPropertyOp15
 70
     1
102
RTVSPropertyOp16
 70
     1
102
RTVSPropertyOp17
 70
     1
102
RTVSPropertyOp18
 70
     1
102
RTVSPropertyOp19
 70
     1
102
RTVSPropertyOp20
 70
     1
102
RTVSPropertyOp21
 70
     1
102
RTVSPropertyOp22
 70
     1
102
RTVSPropertyOp23
 70
     1
102
RTVSPropertyOp24
 70
     1
102
RTVSPropertyOp25
 70
     1
102
RTVSPropertyOp26
 70
     1
102
RTVSPropertyOp27
 70
     1
  0
XRECORD
  5
403
102
{ACAD_REACTORS
330
402
102
}
330
402
100
AcDbXrecord
280
     1
102
RTVSPropertyOp0
 70
     1
102
RTVSPropertyOp1
 70
     1
102
RTVSPropertyOp2
 70
     1
102
RTVSPropertyOp3
 70
     1
102
RTVSPropertyOp4
 70
     1
102
RTVSPropertyOp5
 70
     1
102
RTVSPropertyOp6
 70
     1
102
RTVSPropertyOp7
 70
     1
102
RTVSPropertyOp8
 70
     1
102
RTVSPropertyOp9
 70
     1
102
RTVSPropertyOp10
 70
     1
102
RTVSPropertyOp11
 70
     1
102
RTVSPropertyOp12
 70
     1
102
RTVSPropertyOp13
 70
     1
102
RTVSPropertyOp14
 70
     1
102
RTVSPropertyOp15
 70
     1
102
RTVSPropertyOp16
 70
     1
102
RTVSPropertyOp17
 70
     1
102
RTVSPropertyOp18
 70
     1
102
RTVSPropertyOp19
 70
     1
102
RTVSPropertyOp20
 70
     1
102
RTVSPropertyOp21
 70
     1
102
RTVSPropertyOp22
 70
     1
102
RTVSPropertyOp23
 70
     1
102
RTVSPropertyOp24
 70
     1
102
RTVSPropertyOp25
 70
     1
102
RTVSPropertyOp26
 70
     1
102
RTVSPropertyOp27
 70
     1
  0
XRECORD
  5
40B
102
{ACAD_REACTORS
330
40A
102
}
330
40A
100
AcDbXrecord
280
     1
102
RTVSPropertyOp0
 70
     1
102
RTVSPropertyOp1
 70
     1
102
RTVSPropertyOp2
 70
     1
102
RTVSPropertyOp3
 70
     1
102
RTVSPropertyOp4
 70
     1
102
RTVSPropertyOp5
 70
     1
102
RTVSPropertyOp6
 70
     1
102
RTVSPropertyOp7
 70
     1
102
RTVSPropertyOp8
 70
     1
102
RTVSPropertyOp9
 70
     1
102
RTVSPropertyOp10
 70
     1
102
RTVSPropertyOp11
 70
     1
102
RTVSPropertyOp12
 70
     1
102
RTVSPropertyOp13
 70
     1
102
RTVSPropertyOp14
 70
     1
102
RTVSPropertyOp15
 70
     1
102
RTVSPropertyOp16
 70
     1
102
RTVSPropertyOp17
 70
     1
102
RTVSPropertyOp18
 70
     1
102
RTVSPropertyOp19
 70
     1
102
RTVSPropertyOp20
 70
     1
102
RTVSPropertyOp21
 70
     1
102
RTVSPropertyOp22
 70
     1
102
RTVSPropertyOp23
 70
     1
102
RTVSPropertyOp24
 70
     1
102
RTVSPropertyOp25
 70
     1
102
RTVSPropertyOp26
 70
     1
102
RTVSPropertyOp27
 70
     1
  0
XRECORD
  5
3FF
102
{ACAD_REACTORS
330
3FE
102
}
330
3FE
100
AcDbXrecord
280
     1
102
RTVSPropertyOp0
 70
     1
102
RTVSPropertyOp1
 70
     1
102
RTVSPropertyOp2
 70
     1
102
RTVSPropertyOp3
 70
     1
102
RTVSPropertyOp4
 70
     1
102
RTVSPropertyOp5
 70
     1
102
RTVSPropertyOp6
 70
     1
102
RTVSPropertyOp7
 70
     1
102
RTVSPropertyOp8
 70
     1
102
RTVSPropertyOp9
 70
     1
102
RTVSPropertyOp10
 70
     1
102
RTVSPropertyOp11
 70
     1
102
RTVSPropertyOp12
 70
     1
102
RTVSPropertyOp13
 70
     1
102
RTVSPropertyOp14
 70
     1
102
RTVSPropertyOp15
 70
     1
102
RTVSPropertyOp16
 70
     1
102
RTVSPropertyOp17
 70
     1
102
RTVSPropertyOp18
 70
     1
102
RTVSPropertyOp19
 70
     1
102
RTVSPropertyOp20
 70
     1
102
RTVSPropertyOp21
 70
     1
102
RTVSPropertyOp22
 70
     1
102
RTVSPropertyOp23
 70
     1
102
RTVSPropertyOp24
 70
     1
102
RTVSPropertyOp25
 70
     1
102
RTVSPropertyOp26
 70
     1
102
RTVSPropertyOp27
 70
     1
  0
XRECORD
  5
401
102
{ACAD_REACTORS
330
400
102
}
330
400
100
AcDbXrecord
280
     1
102
RTVSPropertyOp0
 70
     1
102
RTVSPropertyOp1
 70
     1
102
RTVSPropertyOp2
 70
     1
102
RTVSPropertyOp3
 70
     1
102
RTVSPropertyOp4
 70
     1
102
RTVSPropertyOp5
 70
     1
102
RTVSPropertyOp6
 70
     1
102
RTVSPropertyOp7
 70
     1
102
RTVSPropertyOp8
 70
     1
102
RTVSPropertyOp9
 70
     1
102
RTVSPropertyOp10
 70
     1
102
RTVSPropertyOp11
 70
     1
102
RTVSPropertyOp12
 70
     1
102
RTVSPropertyOp13
 70
     1
102
RTVSPropertyOp14
 70
     1
102
RTVSPropertyOp15
 70
     1
102
RTVSPropertyOp16
 70
     1
102
RTVSPropertyOp17
 70
     1
102
RTVSPropertyOp18
 70
     1
102
RTVSPropertyOp19
 70
     1
102
RTVSPropertyOp20
 70
     1
102
RTVSPropertyOp21
 70
     1
102
RTVSPropertyOp22
 70
     1
102
RTVSPropertyOp23
 70
     1
102
RTVSPropertyOp24
 70
     1
102
RTVSPropertyOp25
 70
     1
102
RTVSPropertyOp26
 70
     1
102
RTVSPropertyOp27
 70
     1
  0
XRECORD
  5
409
102
{ACAD_REACTORS
330
408
102
}
330
408
100
AcDbXrecord
280
     1
102
RTVSPropertyOp0
 70
     1
102
RTVSPropertyOp1
 70
     1
102
RTVSPropertyOp2
 70
     1
102
RTVSPropertyOp3
 70
     1
102
RTVSPropertyOp4
 70
     1
102
RTVSPropertyOp5
 70
     1
102
RTVSPropertyOp6
 70
     1
102
RTVSPropertyOp7
 70
     1
102
RTVSPropertyOp8
 70
     1
102
RTVSPropertyOp9
 70
     1
102
RTVSPropertyOp10
 70
     1
102
RTVSPropertyOp11
 70
     1
102
RTVSPropertyOp12
 70
     1
102
RTVSPropertyOp13
 70
     1
102
RTVSPropertyOp14
 70
     1
102
RTVSPropertyOp15
 70
     1
102
RTVSPropertyOp16
 70
     1
102
RTVSPropertyOp17
 70
     1
102
RTVSPropertyOp18
 70
     1
102
RTVSPropertyOp19
 70
     1
102
RTVSPropertyOp20
 70
     1
102
RTVSPropertyOp21
 70
     1
102
RTVSPropertyOp22
 70
     1
102
RTVSPropertyOp23
 70
     1
102
RTVSPropertyOp24
 70
     1
102
RTVSPropertyOp25
 70
     1
102
RTVSPropertyOp26
 70
     1
102
RTVSPropertyOp27
 70
     1
  0
XRECORD
  5
3ED
102
{ACAD_REACTORS
330
3EC
102
}
330
3EC
100
AcDbXrecord
280
     1
102
RTVSPropertyOp0
 70
     1
102
RTVSPropertyOp1
 70
     1
102
RTVSPropertyOp2
 70
     1
102
RTVSPropertyOp3
 70
     1
102
RTVSPropertyOp4
 70
     1
102
RTVSPropertyOp5
 70
     1
102
RTVSPropertyOp6
 70
     1
102
RTVSPropertyOp7
 70
     1
102
RTVSPropertyOp8
 70
     1
102
RTVSPropertyOp9
 70
     1
102
RTVSPropertyOp10
 70
     1
102
RTVSPropertyOp11
 70
     1
102
RTVSPropertyOp12
 70
     1
102
RTVSPropertyOp13
 70
     1
102
RTVSPropertyOp14
 70
     1
102
RTVSPropertyOp15
 70
     1
102
RTVSPropertyOp16
 70
     1
102
RTVSPropertyOp17
 70
     1
102
RTVSPropertyOp18
 70
     1
102
RTVSPropertyOp19
 70
     1
102
RTVSPropertyOp20
 70
     1
102
RTVSPropertyOp21
 70
     1
102
RTVSPropertyOp22
 70
     1
102
RTVSPropertyOp23
 70
     1
102
RTVSPropertyOp24
 70
     1
102
RTVSPropertyOp25
 70
     1
102
RTVSPropertyOp26
 70
     1
102
RTVSPropertyOp27
 70
     1
  0
XRECORD
  5
3EF
102
{ACAD_REACTORS
330
3EE
102
}
330
3EE
100
AcDbXrecord
280
     1
102
RTVSPropertyOp0
 70
     1
102
RTVSPropertyOp1
 70
     1
102
RTVSPropertyOp2
 70
     1
102
RTVSPropertyOp3
 70
     1
102
RTVSPropertyOp4
 70
     1
102
RTVSPropertyOp5
 70
     1
102
RTVSPropertyOp6
 70
     1
102
RTVSPropertyOp7
 70
     1
102
RTVSPropertyOp8
 70
     1
102
RTVSPropertyOp9
 70
     1
102
RTVSPropertyOp10
 70
     1
102
RTVSPropertyOp11
 70
     1
102
RTVSPropertyOp12
 70
     1
102
RTVSPropertyOp13
 70
     1
102
RTVSPropertyOp14
 70
     1
102
RTVSPropertyOp15
 70
     1
102
RTVSPropertyOp16
 70
     1
102
RTVSPropertyOp17
 70
     1
102
RTVSPropertyOp18
 70
     1
102
RTVSPropertyOp19
 70
     1
102
RTVSPropertyOp20
 70
     1
102
RTVSPropertyOp21
 70
     1
102
RTVSPropertyOp22
 70
     1
102
RTVSPropertyOp23
 70
     1
102
RTVSPropertyOp24
 70
     1
102
RTVSPropertyOp25
 70
     1
102
RTVSPropertyOp26
 70
     1
102
RTVSPropertyOp27
 70
     1
  0
XRECORD
  5
3F1
102
{ACAD_REACTORS
330
3F0
102
}
330
3F0
100
AcDbXrecord
280
     1
102
RTVSPropertyOp0
 70
     1
102
RTVSPropertyOp1
 70
     1
102
RTVSPropertyOp2
 70
     1
102
RTVSPropertyOp3
 70
     1
102
RTVSPropertyOp4
 70
     1
102
RTVSPropertyOp5
 70
     1
102
RTVSPropertyOp6
 70
     1
102
RTVSPropertyOp7
 70
     1
102
RTVSPropertyOp8
 70
     1
102
RTVSPropertyOp9
 70
     1
102
RTVSPropertyOp10
 70
     1
102
RTVSPropertyOp11
 70
     1
102
RTVSPropertyOp12
 70
     1
102
RTVSPropertyOp13
 70
     1
102
RTVSPropertyOp14
 70
     1
102
RTVSPropertyOp15
 70
     1
102
RTVSPropertyOp16
 70
     1
102
RTVSPropertyOp17
 70
     1
102
RTVSPropertyOp18
 70
     1
102
RTVSPropertyOp19
 70
     1
102
RTVSPropertyOp20
 70
     1
102
RTVSPropertyOp21
 70
     1
102
RTVSPropertyOp22
 70
     1
102
RTVSPropertyOp23
 70
     1
102
RTVSPropertyOp24
 70
     1
102
RTVSPropertyOp25
 70
     1
102
RTVSPropertyOp26
 70
     1
102
RTVSPropertyOp27
 70
     1
  0
XRECORD
  5
3F3
102
{ACAD_REACTORS
330
3F2
102
}
330
3F2
100
AcDbXrecord
280
     1
102
RTVSPropertyOp0
 70
     1
102
RTVSPropertyOp1
 70
     1
102
RTVSPropertyOp2
 70
     1
102
RTVSPropertyOp3
 70
     1
102
RTVSPropertyOp4
 70
     1
102
RTVSPropertyOp5
 70
     1
102
RTVSPropertyOp6
 70
     1
102
RTVSPropertyOp7
 70
     1
102
RTVSPropertyOp8
 70
     1
102
RTVSPropertyOp9
 70
     1
102
RTVSPropertyOp10
 70
     1
102
RTVSPropertyOp11
 70
     1
102
RTVSPropertyOp12
 70
     1
102
RTVSPropertyOp13
 70
     1
102
RTVSPropertyOp14
 70
     1
102
RTVSPropertyOp15
 70
     1
102
RTVSPropertyOp16
 70
     1
102
RTVSPropertyOp17
 70
     1
102
RTVSPropertyOp18
 70
     1
102
RTVSPropertyOp19
 70
     1
102
RTVSPropertyOp20
 70
     1
102
RTVSPropertyOp21
 70
     1
102
RTVSPropertyOp22
 70
     1
102
RTVSPropertyOp23
 70
     1
102
RTVSPropertyOp24
 70
     1
102
RTVSPropertyOp25
 70
     1
102
RTVSPropertyOp26
 70
     1
102
RTVSPropertyOp27
 70
     1
  0
XRECORD
  5
407
102
{ACAD_REACTORS
330
406
102
}
330
406
100
AcDbXrecord
280
     1
102
RTVSPropertyOp0
 70
     1
102
RTVSPropertyOp1
 70
     1
102
RTVSPropertyOp2
 70
     1
102
RTVSPropertyOp3
 70
     1
102
RTVSPropertyOp4
 70
     1
102
RTVSPropertyOp5
 70
     1
102
RTVSPropertyOp6
 70
     1
102
RTVSPropertyOp7
 70
     1
102
RTVSPropertyOp8
 70
     1
102
RTVSPropertyOp9
 70
     1
102
RTVSPropertyOp10
 70
     1
102
RTVSPropertyOp11
 70
     1
102
RTVSPropertyOp12
 70
     1
102
RTVSPropertyOp13
 70
     1
102
RTVSPropertyOp14
 70
     1
102
RTVSPropertyOp15
 70
     1
102
RTVSPropertyOp16
 70
     1
102
RTVSPropertyOp17
 70
     1
102
RTVSPropertyOp18
 70
     1
102
RTVSPropertyOp19
 70
     1
102
RTVSPropertyOp20
 70
     1
102
RTVSPropertyOp21
 70
     1
102
RTVSPropertyOp22
 70
     1
102
RTVSPropertyOp23
 70
     1
102
RTVSPropertyOp24
 70
     1
102
RTVSPropertyOp25
 70
     1
102
RTVSPropertyOp26
 70
     1
102
RTVSPropertyOp27
 70
     1
  0
XRECORD
  5
3FD
102
{ACAD_REACTORS
330
3FC
102
}
330
3FC
100
AcDbXrecord
280
     1
102
RTVSPropertyOp0
 70
     1
102
RTVSPropertyOp1
 70
     1
102
RTVSPropertyOp2
 70
     1
102
RTVSPropertyOp3
 70
     1
102
RTVSPropertyOp4
 70
     1
102
RTVSPropertyOp5
 70
     1
102
RTVSPropertyOp6
 70
     1
102
RTVSPropertyOp7
 70
     1
102
RTVSPropertyOp8
 70
     1
102
RTVSPropertyOp9
 70
     1
102
RTVSPropertyOp10
 70
     1
102
RTVSPropertyOp11
 70
     1
102
RTVSPropertyOp12
 70
     1
102
RTVSPropertyOp13
 70
     1
102
RTVSPropertyOp14
 70
     1
102
RTVSPropertyOp15
 70
     1
102
RTVSPropertyOp16
 70
     1
102
RTVSPropertyOp17
 70
     1
102
RTVSPropertyOp18
 70
     1
102
RTVSPropertyOp19
 70
     1
102
RTVSPropertyOp20
 70
     1
102
RTVSPropertyOp21
 70
     1
102
RTVSPropertyOp22
 70
     1
102
RTVSPropertyOp23
 70
     1
102
RTVSPropertyOp24
 70
     1
102
RTVSPropertyOp25
 70
     1
102
RTVSPropertyOp26
 70
     1
102
RTVSPropertyOp27
 70
     1
  0
XRECORD
  5
405
102
{ACAD_REACTORS
330
404
102
}
330
404
100
AcDbXrecord
280
     1
102
RTVSPropertyOp0
 70
     1
102
RTVSPropertyOp1
 70
     1
102
RTVSPropertyOp2
 70
     1
102
RTVSPropertyOp3
 70
     1
102
RTVSPropertyOp4
 70
     1
102
RTVSPropertyOp5
 70
     1
102
RTVSPropertyOp6
 70
     1
102
RTVSPropertyOp7
 70
     1
102
RTVSPropertyOp8
 70
     1
102
RTVSPropertyOp9
 70
     1
102
RTVSPropertyOp10
 70
     1
102
RTVSPropertyOp11
 70
     1
102
RTVSPropertyOp12
 70
     1
102
RTVSPropertyOp13
 70
     1
102
RTVSPropertyOp14
 70
     1
102
RTVSPropertyOp15
 70
     1
102
RTVSPropertyOp16
 70
     1
102
RTVSPropertyOp17
 70
     1
102
RTVSPropertyOp18
 70
     1
102
RTVSPropertyOp19
 70
     1
102
RTVSPropertyOp20
 70
     1
102
RTVSPropertyOp21
 70
     1
102
RTVSPropertyOp22
 70
     1
102
RTVSPropertyOp23
 70
     1
102
RTVSPropertyOp24
 70
     1
102
RTVSPropertyOp25
 70
     1
102
RTVSPropertyOp26
 70
     1
102
RTVSPropertyOp27
 70
     1
  0
ENDSEC
  0
EOF
