  0
SECTION
  2
HEADER
  9
$ACADVER
  1
AC1015
  9
$ACADMAINTVER
 70
     6
  9
$DWGCODEPAGE
  3
ANSI_1252
  9
$INSBASE
 10
0.0
 20
0.0
 30
0.0
  9
$EXTMIN
 10
-173.9195303357825
 20
0.0
 30
0.0
  9
$EXTMAX
 10
5218.919530335783
 20
5490.79708070069
 30
0.0
  9
$LIMMIN
 10
0.0
 20
0.0
  9
$LIMMAX
 10
12.0
 20
9.0
  9
$ORTHOMODE
 70
     0
  9
$REGENMODE
 70
     1
  9
$FILLMODE
 70
     1
  9
$QTEXTMODE
 70
     0
  9
$MIRRTEXT
 70
     1
  9
$LTSCALE
 40
1.0
  9
$ATTMODE
 70
     1
  9
$TEXTSIZE
 40
0.2
  9
$TRACEWID
 40
0.05
  9
$TEXTSTYLE
  7
Standard
  9
$CLAYER
  8
0
  9
$CELTYPE
  6
ByLayer
  9
$CECOLOR
 62
   256
  9
$CELTSCALE
 40
1.0
  9
$DISPSILH
 70
     0
  9
$DIMSCALE
 40
1.0
  9
$DIMASZ
 40
0.18
  9
$DIMEXO
 40
0.0625
  9
$DIMDLI
 40
0.38
  9
$DIMRND
 40
0.0
  9
$DIMDLE
 40
0.0
  9
$DIMEXE
 40
0.18
  9
$DIMTP
 40
0.0
  9
$DIMTM
 40
0.0
  9
$DIMTXT
 40
0.18
  9
$DIMCEN
 40
0.09
  9
$DIMTSZ
 40
0.0
  9
$DIMTOL
 70
     0
  9
$DIMLIM
 70
     0
  9
$DIMTIH
 70
     1
  9
$DIMTOH
 70
     1
  9
$DIMSE1
 70
     0
  9
$DIMSE2
 70
     0
  9
$DIMTAD
 70
     0
  9
$DIMZIN
 70
     0
  9
$DIMBLK
  1

  9
$DIMASO
 70
     1
  9
$DIMSHO
 70
     1
  9
$DIMPOST
  1

  9
$DIMAPOST
  1

  9
$DIMALT
 70
     0
  9
$DIMALTD
 70
     2
  9
$DIMALTF
 40
25.4
  9
$DIMLFAC
 40
1.0
  9
$DIMTOFL
 70
     0
  9
$DIMTVP
 40
0.0
  9
$DIMTIX
 70
     0
  9
$DIMSOXD
 70
     0
  9
$DIMSAH
 70
     0
  9
$DIMBLK1
  1

  9
$DIMBLK2
  1

  9
$DIMSTYLE
  2
Standard
  9
$DIMCLRD
 70
     0
  9
$DIMCLRE
 70
     0
  9
$DIMCLRT
 70
     0
  9
$DIMTFAC
 40
1.0
  9
$DIMGAP
 40
0.09
  9
$DIMJUST
 70
     0
  9
$DIMSD1
 70
     0
  9
$DIMSD2
 70
     0
  9
$DIMTOLJ
 70
     1
  9
$DIMTZIN
 70
     0
  9
$DIMALTZ
 70
     0
  9
$DIMALTTZ
 70
     0
  9
$DIMUPT
 70
     0
  9
$DIMDEC
 70
     4
  9
$DIMTDEC
 70
     4
  9
$DIMALTU
 70
     2
  9
$DIMALTTD
 70
     2
  9
$DIMTXSTY
  7
Standard
  9
$DIMAUNIT
 70
     0
  9
$DIMADEC
 70
     0
  9
$DIMALTRND
 40
0.0
  9
$DIMAZIN
 70
     0
  9
$DIMDSEP
 70
    46
  9
$DIMATFIT
 70
     3
  9
$DIMFRAC
 70
     0
  9
$DIMLDRBLK
  1

  9
$DIMLUNIT
 70
     2
  9
$DIMLWD
 70
    -2
  9
$DIMLWE
 70
    -2
  9
$DIMTMOVE
 70
     0
  9
$LUNITS
 70
     2
  9
$LUPREC
 70
     4
  9
$SKETCHINC
 40
0.1
  9
$FILLETRAD
 40
0.5
  9
$AUNITS
 70
     0
  9
$AUPREC
 70
     0
  9
$MENU
  1
.
  9
$ELEVATION
 40
0.0
  9
$PELEVATION
 40
0.0
  9
$THICKNESS
 40
0.0
  9
$LIMCHECK
 70
     0
  9
$CHAMFERA
 40
0.5
  9
$CHAMFERB
 40
0.5
  9
$CHAMFERC
 40
1.0
  9
$CHAMFERD
 40
0.0
  9
$SKPOLY
 70
     0
  9
$TDCREATE
 40
2457289.65539706
  9
$TDUCREATE
 40
2457289.572063727
  9
$TDUPDATE
 40
2457289.655397072
  9
$TDUUPDATE
 40
2457289.572063738
  9
$TDINDWG
 40
0.0000000116
  9
$TDUSRTIMER
 40
0.0000000116
  9
$USRTIMER
 70
     1
  9
$ANGBASE
 50
0.0
  9
$ANGDIR
 70
     0
  9
$PDMODE
 70
     0
  9
$PDSIZE
 40
0.0
  9
$PLINEWID
 40
0.0
  9
$SPLFRAME
 70
     0
  9
$SPLINETYPE
 70
     6
  9
$SPLINESEGS
 70
     8
  9
$HANDSEED
  5
4D3
  9
$SURFTAB1
 70
     6
  9
$SURFTAB2
 70
     6
  9
$SURFTYPE
 70
     6
  9
$SURFU
 70
     6
  9
$SURFV
 70
     6
  9
$UCSBASE
  2

  9
$UCSNAME
  2

  9
$UCSORG
 10
0.0
 20
0.0
 30
0.0
  9
$UCSXDIR
 10
1.0
 20
0.0
 30
0.0
  9
$UCSYDIR
 10
0.0
 20
1.0
 30
0.0
  9
$UCSORTHOREF
  2

  9
$UCSORTHOVIEW
 70
     0
  9
$UCSORGTOP
 10
0.0
 20
0.0
 30
0.0
  9
$UCSORGBOTTOM
 10
0.0
 20
0.0
 30
0.0
  9
$UCSORGLEFT
 10
0.0
 20
0.0
 30
0.0
  9
$UCSORGRIGHT
 10
0.0
 20
0.0
 30
0.0
  9
$UCSORGFRONT
 10
0.0
 20
0.0
 30
0.0
  9
$UCSORGBACK
 10
0.0
 20
0.0
 30
0.0
  9
$PUCSBASE
  2

  9
$PUCSNAME
  2

  9
$PUCSORG
 10
0.0
 20
0.0
 30
0.0
  9
$PUCSXDIR
 10
1.0
 20
0.0
 30
0.0
  9
$PUCSYDIR
 10
0.0
 20
1.0
 30
0.0
  9
$PUCSORTHOREF
  2

  9
$PUCSORTHOVIEW
 70
     0
  9
$PUCSORGTOP
 10
0.0
 20
0.0
 30
0.0
  9
$PUCSORGBOTTOM
 10
0.0
 20
0.0
 30
0.0
  9
$PUCSORGLEFT
 10
0.0
 20
0.0
 30
0.0
  9
$PUCSORGRIGHT
 10
0.0
 20
0.0
 30
0.0
  9
$PUCSORGFRONT
 10
0.0
 20
0.0
 30
0.0
  9
$PUCSORGBACK
 10
0.0
 20
0.0
 30
0.0
  9
$USERI1
 70
     0
  9
$USERI2
 70
     0
  9
$USERI3
 70
     0
  9
$USERI4
 70
     0
  9
$USERI5
 70
     0
  9
$USERR1
 40
17.0
  9
$USERR2
 40
0.0
  9
$USERR3
 40
0.0
  9
$USERR4
 40
0.0
  9
$USERR5
 40
0.0
  9
$WORLDVIEW
 70
     1
  9
$SHADEDGE
 70
     3
  9
$SHADEDIF
 70
    70
  9
$TILEMODE
 70
     1
  9
$MAXACTVP
 70
    64
  9
$PINSBASE
 10
0.0
 20
0.0
 30
0.0
  9
$PLIMCHECK
 70
     0
  9
$PEXTMIN
 10
1.00000000000000E+20
 20
1.00000000000000E+20
 30
1.00000000000000E+20
  9
$PEXTMAX
 10
-1.00000000000000E+20
 20
-1.00000000000000E+20
 30
-1.00000000000000E+20
  9
$PLIMMIN
 10
0.0
 20
0.0
  9
$PLIMMAX
 10
12.0
 20
9.0
  9
$UNITMODE
 70
     0
  9
$VISRETAIN
 70
     1
  9
$PLINEGEN
 70
     0
  9
$PSLTSCALE
 70
     1
  9
$TREEDEPTH
 70
  3020
  9
$CMLSTYLE
  2
Standard
  9
$CMLJUST
 70
     0
  9
$CMLSCALE
 40
1.0
  9
$PROXYGRAPHICS
 70
     1
  9
$MEASUREMENT
 70
     1
  9
$CELWEIGHT
370
    -1
  9
$ENDCAPS
280
     0
  9
$JOINSTYLE
280
     0
  9
$LWDISPLAY
290
     0
  9
$INSUNITS
 70
     1
  9
$HYPERLINKBASE
  1

  9
$STYLESHEET
  1

  9
$XEDIT
290
     1
  9
$CEPSNTYPE
380
     0
  9
$PSTYLEMODE
290
     1
  9
$FINGERPRINTGUID
  2
{E4218FE3-EB01-4546-B53C-241D7BE5D11F}
  9
$VERSIONGUID
  2
{FAEB1C32-E019-11D5-929B-00C0DF256EC4}
  9
$EXTNAMES
290
     1
  9
$PSVPSCALE
 40
0.0
  9
$OLESTARTUP
290
     0
  0
ENDSEC
  0
SECTION
  2
CLASSES
  0
CLASS
  1
ACDBDICTIONARYWDFLT
  2
AcDbDictionaryWithDefault
  3
ObjectDBX Classes
 90
        0
280
     0
281
     0
  0
CLASS
  1
VISUALSTYLE
  2
AcDbVisualStyle
  3
ObjectDBX Classes
 90
     4095
280
     0
281
     0
  0
CLASS
  1
MATERIAL
  2
AcDbMaterial
  3
ObjectDBX Classes
 90
     1153
280
     0
281
     0
  0
CLASS
  1

  2
exOdDbSpline
  3

 90
        0
280
     0
281
     1
  0
CLASS
  1

  2
exOdDbPolyline
  3

 90
        0
280
     0
281
     1
  0
CLASS
  1
SCALE
  2
AcDbScale
  3
ObjectDBX Classes
 90
     1153
280
     0
281
     0
  0
CLASS
  1
DICTIONARYVAR
  2
AcDbDictionaryVar
  3
ObjectDBX Classes
 90
        0
280
     0
281
     0
  0
CLASS
  1
ACDBPLACEHOLDER
  2
AcDbPlaceHolder
  3
ObjectDBX Classes
 90
        0
280
     0
281
     0
  0
CLASS
  1
LAYOUT
  2
AcDbLayout
  3
ObjectDBX Classes
 90
        0
280
     0
281
     0
  0
ENDSEC
  0
SECTION
  2
TABLES
  0
TABLE
  2
VPORT
  5
8
330
0
100
AcDbSymbolTable
 70
     1
  0
VPORT
  5
29
330
8
100
AcDbSymbolTableRecord
100
AcDbViewportTableRecord
  2
*Active
 70
     0
 10
0.0
 20
0.0
 11
1.0
 21
1.0
 12
2522.5
 22
2745.398540350345
 13
0.0
 23
0.0
 14
0.5
 24
0.5
 15
0.5
 25
0.5
 16
0.0
 26
0.0
 36
1.0
 17
0.0
 27
0.0
 37
0.0
 40
6039.876788770759
 41
1.60267857142857
 42
50.0
 43
0.0
 44
0.0
 50
0.0
 51
0.0
 71
     0
 72
   100
 73
     1
 74
     3
 75
     0
 76
     0
 77
     0
 78
     0
281
     0
 65
     1
110
0.0
120
0.0
130
0.0
111
1.0
121
0.0
131
0.0
112
0.0
122
1.0
132
0.0
 79
     0
146
0.0
  0
ENDTAB
  0
TABLE
  2
LTYPE
  5
5
330
0
100
AcDbSymbolTable
 70
     8
  0
LTYPE
  5
14
330
5
100
AcDbSymbolTableRecord
100
AcDbLinetypeTableRecord
  2
ByBlock
 70
     0
  3

 72
    65
 73
     0
 40
0.0
  0
LTYPE
  5
15
330
5
100
AcDbSymbolTableRecord
100
AcDbLinetypeTableRecord
  2
ByLayer
 70
     0
  3

 72
    65
 73
     0
 40
0.0
  0
LTYPE
  5
16
330
5
100
AcDbSymbolTableRecord
100
AcDbLinetypeTableRecord
  2
Continuous
 70
     0
  3
Solid line
 72
    65
 73
     0
 40
0.0
  0
LTYPE
  5
3F
330
5
100
AcDbSymbolTableRecord
100
AcDbLinetypeTableRecord
  2
DASHED
 70
     0
  3
Dashed
 72
    65
 73
     2
 40
15.0
 49
7.0
 74
     0
 49
-8.0
 74
     0
  0
LTYPE
  5
40
330
5
100
AcDbSymbolTableRecord
100
AcDbLinetypeTableRecord
  2
DOTTED
 70
     0
  3
Dotted
 72
    65
 73
     2
 40
1.0
 49
0.0
 74
     0
 49
-1.0
 74
     0
  0
LTYPE
  5
41
330
5
100
AcDbSymbolTableRecord
100
AcDbLinetypeTableRecord
  2
DOT_CENTER
 70
     0
  3
Dot_Center
 72
    65
 73
     4
 40
14.0
 49
12.0
 74
     0
 49
-1.0
 74
     0
 49
0.0
 74
     0
 49
-1.0
 74
     0
  0
LTYPE
  5
42
330
5
100
AcDbSymbolTableRecord
100
AcDbLinetypeTableRecord
  2
LONG_DASHED
 70
     0
  3
Long_Dashed
 72
    65
 73
     2
 40
15.0
 49
10.0
 74
     0
 49
-5.0
 74
     0
  0
LTYPE
  5
43
330
5
100
AcDbSymbolTableRecord
100
AcDbLinetypeTableRecord
  2
DASH_CENTER
 70
     0
  3
Dash_Center
 72
    65
 73
     4
 40
14.0
 49
11.0
 74
     0
 49
-1.0
 74
     0
 49
1.0
 74
     0
 49
-1.0
 74
     0
  0
LTYPE
  5
44
330
5
100
AcDbSymbolTableRecord
100
AcDbLinetypeTableRecord
  2
PHANTOM
 70
     0
  3
Phantom
 72
    65
 73
     6
 40
13.0
 49
10.0
 74
     0
 49
-1.0
 74
     0
 49
0.0
 74
     0
 49
-1.0
 74
     0
 49
0.0
 74
     0
 49
-1.0
 74
     0
  0
LTYPE
  5
45
330
5
100
AcDbSymbolTableRecord
100
AcDbLinetypeTableRecord
  2
CENTER_DASH_DASH
 70
     0
  3
Center_Dash_Dash
 72
    65
 73
     6
 40
14.0
 49
9.0
 74
     0
 49
-1.0
 74
     0
 49
1.0
 74
     0
 49
-1.0
 74
     0
 49
1.0
 74
     0
 49
-1.0
 74
     0
  0
ENDTAB
  0
TABLE
  2
LAYER
  5
2
330
0
100
AcDbSymbolTable
 70
     4
  0
LAYER
  5
10
330
2
100
AcDbSymbolTableRecord
100
AcDbLayerTableRecord
  2
0
 70
     0
 62
     7
  6
Continuous
370
    -3
390
F
  0
LAYER
  5
46
330
2
100
AcDbSymbolTableRecord
100
AcDbLayerTableRecord
  2
1
 70
     0
 62
     7
  6
Continuous
370
    -3
390
F
  0
LAYER
  5
47
330
2
100
AcDbSymbolTableRecord
100
AcDbLayerTableRecord
  2
Layer_1
 70
     0
 62
     7
  6
Continuous
370
    -3
390
F
  0
LAYER
  5
48
330
2
100
AcDbSymbolTableRecord
100
AcDbLayerTableRecord
  2
Layer_0
 70
     0
 62
     7
  6
Continuous
370
    -3
390
F
  0
ENDTAB
  0
TABLE
  2
STYLE
  5
3
330
0
100
AcDbSymbolTable
 70
     3
  0
STYLE
  5
11
330
3
100
AcDbSymbolTableRecord
100
AcDbTextStyleTableRecord
  2
Standard
 70
     0
 40
0.0
 41
1.0
 50
0.0
 71
     0
 42
0.2
  3
txt
  4

  0
STYLE
  5
480
330
3
100
AcDbSymbolTableRecord
100
AcDbTextStyleTableRecord
  2
CONVERTER_11
 70
     0
 40
0.0
 41
1.0
 50
0.0
 71
     0
 42
0.2
  3
txt.shx
  4

  0
STYLE
  5
4A4
330
3
100
AcDbSymbolTableRecord
100
AcDbTextStyleTableRecord
  2
CONVERTER_12
 70
     0
 40
0.0
 41
0.9
 50
0.0
 71
     0
 42
0.2
  3
txt.shx
  4

  0
ENDTAB
  0
TABLE
  2
VIEW
  5
6
330
0
100
AcDbSymbolTable
 70
     0
  0
ENDTAB
  0
TABLE
  2
UCS
  5
7
330
0
100
AcDbSymbolTable
 70
     0
  0
ENDTAB
  0
TABLE
  2
APPID
  5
9
330
0
100
AcDbSymbolTable
 70
     1
  0
APPID
  5
12
330
9
100
AcDbSymbolTableRecord
100
AcDbRegAppTableRecord
  2
ACAD
 70
     0
  0
ENDTAB
  0
TABLE
  2
DIMSTYLE
  5
A
330
0
100
AcDbSymbolTable
 70
     1
100
AcDbDimStyleTable
  0
DIMSTYLE
105
27
330
A
100
AcDbSymbolTableRecord
100
AcDbDimStyleTableRecord
  2
Standard
 70
     0
340
11
  0
ENDTAB
  0
TABLE
  2
BLOCK_RECORD
  5
1
330
0
100
AcDbSymbolTable
 70
     1
  0
BLOCK_RECORD
  5
1F
330
1
100
AcDbSymbolTableRecord
100
AcDbBlockTableRecord
  2
*Model_Space
340
22
  0
BLOCK_RECORD
  5
1B
330
1
100
AcDbSymbolTableRecord
100
AcDbBlockTableRecord
  2
*Paper_Space
340
1E
  0
BLOCK_RECORD
  5
23
330
1
100
AcDbSymbolTableRecord
100
AcDbBlockTableRecord
  2
*Paper_Space0
340
26
  0
ENDTAB
  0
ENDSEC
  0
SECTION
  2
BLOCKS
  0
BLOCK
  5
20
330
1F
100
AcDbEntity
  8
0
100
AcDbBlockBegin
  2
*Model_Space
 70
     0
 10
0.0
 20
0.0
 30
0.0
  3
*Model_Space
  1

  0
ENDBLK
  5
21
330
1F
100
AcDbEntity
  8
0
100
AcDbBlockEnd
  0
BLOCK
  5
1C
330
1B
100
AcDbEntity
 67
     1
  8
0
100
AcDbBlockBegin
  2
*Paper_Space
 70
     0
 10
0.0
 20
0.0
 30
0.0
  3
*Paper_Space
  1

  0
ENDBLK
  5
1D
330
1B
100
AcDbEntity
 67
     1
  8
0
100
AcDbBlockEnd
  0
BLOCK
  5
24
330
23
100
AcDbEntity
  8
0
100
AcDbBlockBegin
  2
*Paper_Space0
 70
     0
 10
0.0
 20
0.0
 30
0.0
  3
*Paper_Space0
  1

  0
ENDBLK
  5
25
330
23
100
AcDbEntity
  8
0
100
AcDbBlockEnd
  0
ENDSEC
  0
SECTION
  2
ENTITIES
  0
LINE
  5
49
330
1F
100
AcDbEntity
  8
1
  6
DASHED
 62
     3
100
AcDbLine
 10
3017.870768166766
 20
4546.173630501802
 30
0.0
 11
3067.016529684007
 21
4561.646780478911
 31
0.0
  0
LINE
  5
4A
330
1F
100
AcDbEntity
  8
1
  6
DASHED
 62
     3
100
AcDbLine
 10
3127.733626608675
 20
4534.236740888574
 30
0.0
 11
3155.859359698798
 21
4470.860920134354
 31
0.0
  0
LINE
  5
4B
330
1F
100
AcDbEntity
  8
1
  6
DASHED
 62
     3
100
AcDbLine
 10
3125.556551071895
 20
4403.009167081771
 30
0.0
 11
3066.538577947284
 21
4383.904425826544
 31
0.0
  0
LINE
  5
4C
330
1F
100
AcDbEntity
  8
1
  6
DASHED
 62
     3
100
AcDbLine
 10
3012.606246237703
 20
4536.258788550043
 30
0.0
 11
3056.407769890578
 21
4389.231470697651
 31
0.0
  0
LINE
  5
4D
330
1F
100
AcDbEntity
  8
1
  6
Continuous
 62
     7
100
AcDbLine
 10
3012.461980701149
 20
4487.441689747657
 30
0.0
 11
3056.263504354024
 21
4340.414371895266
 31
0.0
  0
LINE
  5
4E
330
1F
100
AcDbEntity
  8
1
  6
Continuous
 62
     7
100
AcDbLine
 10
3125.412285535341
 20
4354.192068279385
 30
0.0
 11
3066.39431241073
 21
4335.087327024158
 31
0.0
  0
LINE
  5
4F
330
1F
100
AcDbEntity
  8
1
  6
Continuous
 62
     7
100
AcDbLine
 10
3127.589361072121
 20
4485.419642086188
 30
0.0
 11
3155.715094162244
 21
4422.043821331969
 31
0.0
  0
LINE
  5
50
330
1F
100
AcDbEntity
  8
1
  6
Continuous
 62
     7
100
AcDbLine
 10
3017.726502630212
 20
4497.356531699416
 30
0.0
 11
3066.872264147453
 21
4512.829681676525
 31
0.0
  0
LINE
  5
6A
330
1F
100
AcDbEntity
  8
1
  6
Continuous
 62
     7
100
AcDbLine
 10
-8.32098062571959
 20
3602.593528843543
 30
0.0
 11
21.58801866963268
 21
3600.0
 31
0.0
  0
LINE
  5
6B
330
1F
100
AcDbEntity
  8
1
  6
Continuous
 62
     7
100
AcDbLine
 10
735.0511200145725
 20
3967.082915793697
 30
0.0
 11
764.1788849658274
 21
3996.210680744952
 31
0.0
  0
LINE
  5
6C
330
1F
100
AcDbEntity
  8
1
  6
Continuous
 62
     7
100
AcDbLine
 10
51.26951543480618
 20
3997.052582430362
 30
0.0
 11
-6.78548623916231
 21
4317.701008680198
 31
0.0
  0
LINE
  5
6D
330
1F
100
AcDbEntity
  8
1
  6
Continuous
 62
     7
100
AcDbLine
 10
15.57145583708052
 20
4247.123363556981
 30
0.0
 11
819.4476689007129
 21
4247.123363556981
 31
0.0
  0
LINE
  5
6E
330
1F
100
AcDbEntity
  8
1
  6
Continuous
 62
     7
100
AcDbLine
 10
827.568258362357
 20
3885.194656503133
 30
0.0
 11
827.4476684363649
 21
4239.126089280843
 31
0.0
  0
LINE
  5
6F
330
1F
100
AcDbEntity
  8
1
  6
Continuous
 62
     7
100
AcDbLine
 10
821.145842868912
 20
3877.34902133253
 30
0.0
 11
765.0814539926382
 21
3866.07179241284
 31
0.0
  0
LINE
  5
70
330
1F
100
AcDbEntity
  8
1
  6
Continuous
 62
     7
100
AcDbLine
 10
735.0511200145725
 20
3860.065725617227
 30
0.0
 11
99.15776524724879
 21
3732.565343378326
 31
0.0
  0
LINE
  5
71
330
1F
100
AcDbEntity
  8
1
  6
Continuous
 62
     7
100
AcDbLine
 10
56.69924248740654
 20
3967.082915793697
 30
0.0
 11
99.15459531219267
 21
3732.564707787581
 31
0.0
  0
LINE
  5
72
330
1F
100
AcDbEntity
  8
1
  6
Continuous
 62
     7
100
AcDbLine
 10
1.08652825849776
 20
4327.126276286169
 30
0.0
 11
64.91742151818607
 21
4327.126276286169
 31
0.0
  0
LINE
  5
73
330
1F
100
AcDbEntity
  8
1
  6
Continuous
 62
     7
100
AcDbLine
 10
39.89438892796397
 20
3997.052582430362
 30
0.0
 11
762.0480869241314
 21
3997.052582430362
 31
0.0
  0
LINE
  5
74
330
1F
100
AcDbEntity
  8
1
  6
Continuous
 62
     7
100
AcDbLine
 10
39.89438892796397
 20
3967.082915793697
 30
0.0
 11
735.0511200145725
 21
3967.082915793697
 31
0.0
  0
LINE
  5
75
330
1F
100
AcDbEntity
  8
1
  6
Continuous
 62
     7
100
AcDbLine
 10
765.0814539926382
 20
3994.079882703256
 30
0.0
 11
765.0814539926382
 21
3599.984833164606
 31
0.0
  0
LINE
  5
76
330
1F
100
AcDbEntity
  8
1
  6
Continuous
 62
     7
100
AcDbLine
 10
735.0511200145725
 20
3967.082915793697
 30
0.0
 11
735.0511200145725
 21
3599.984833164606
 31
0.0
  0
LINE
  5
77
330
1F
100
AcDbEntity
  8
1
  6
Continuous
 62
     1
100
AcDbLine
 10
20.40401694859202
 20
4243.058658356312
 30
0.0
 11
817.5306764629736
 21
4243.178125807927
 31
0.0
  0
LINE
  5
78
330
1F
100
AcDbEntity
  8
1
  6
Continuous
 62
     1
100
AcDbLine
 10
823.5315753503523
 20
4237.18017016821
 30
0.0
 11
823.6538466684065
 21
3878.313851687857
 31
0.0
  0
LINE
  5
79
330
1F
100
AcDbEntity
  8
1
  6
Continuous
 62
     7
100
AcDbLine
 10
103.1977515380218
 20
3733.375384547104
 30
0.0
 11
60.84163141719637
 21
3967.082915793697
 31
0.0
  0
LINE
  5
7A
330
1F
100
AcDbEntity
  8
1
  6
Continuous
 62
     1
100
AcDbLine
 10
55.4100614833028
 20
3997.052582430362
 30
0.0
 11
12.53345074700701
 21
4233.632014512813
 31
0.0
  0
LINE
  5
7B
330
1F
100
AcDbEntity
  8
1
  6
Continuous
 62
     1
100
AcDbLine
 10
3108.507875002659
 20
3997.052582430362
 30
0.0
 11
3065.631264266363
 21
4233.632014512813
 31
0.0
  0
LINE
  5
7C
330
1F
100
AcDbEntity
  8
1
  6
Continuous
 62
     7
100
AcDbLine
 10
3156.295565057378
 20
3733.375384547104
 30
0.0
 11
3113.939444936552
 21
3967.082915793697
 31
0.0
  0
LINE
  5
7D
330
1F
100
AcDbEntity
  8
1
  6
Continuous
 62
     1
100
AcDbLine
 10
3876.629388869708
 20
4237.18017016821
 30
0.0
 11
3876.751660187762
 21
3878.313851687857
 31
0.0
  0
LINE
  5
7E
330
1F
100
AcDbEntity
  8
1
  6
Continuous
 62
     1
100
AcDbLine
 10
3073.501830467948
 20
4243.058658356312
 30
0.0
 11
3870.62848998233
 21
4243.178125807927
 31
0.0
  0
LINE
  5
7F
330
1F
100
AcDbEntity
  8
1
  6
Continuous
 62
     7
100
AcDbLine
 10
3788.148933533928
 20
3967.082915793697
 30
0.0
 11
3788.148933533928
 21
3599.984833164606
 31
0.0
  0
LINE
  5
80
330
1F
100
AcDbEntity
  8
1
  6
Continuous
 62
     7
100
AcDbLine
 10
3818.179267511994
 20
3994.079882703256
 30
0.0
 11
3818.179267511994
 21
3599.984833164606
 31
0.0
  0
LINE
  5
81
330
1F
100
AcDbEntity
  8
1
  6
Continuous
 62
     7
100
AcDbLine
 10
3092.99220244732
 20
3967.082915793697
 30
0.0
 11
3788.148933533928
 21
3967.082915793697
 31
0.0
  0
LINE
  5
82
330
1F
100
AcDbEntity
  8
1
  6
Continuous
 62
     7
100
AcDbLine
 10
3092.99220244732
 20
3997.052582430362
 30
0.0
 11
3815.145900443487
 21
3997.052582430362
 31
0.0
  0
LINE
  5
83
330
1F
100
AcDbEntity
  8
1
  6
Continuous
 62
     7
100
AcDbLine
 10
3054.184341777854
 20
4327.126276286169
 30
0.0
 11
3118.015235037542
 21
4327.126276286169
 31
0.0
  0
LINE
  5
84
330
1F
100
AcDbEntity
  8
1
  6
Continuous
 62
     7
100
AcDbLine
 10
3109.797056006762
 20
3967.082915793697
 30
0.0
 11
3152.252408831549
 21
3732.564707787581
 31
0.0
  0
LINE
  5
85
330
1F
100
AcDbEntity
  8
1
  6
Continuous
 62
     7
100
AcDbLine
 10
3788.148933533928
 20
3860.065725617227
 30
0.0
 11
3152.255578766605
 21
3732.565343378326
 31
0.0
  0
LINE
  5
86
330
1F
100
AcDbEntity
  8
1
  6
Continuous
 62
     7
100
AcDbLine
 10
3874.243656388268
 20
3877.34902133253
 30
0.0
 11
3818.179267511994
 21
3866.07179241284
 31
0.0
  0
LINE
  5
87
330
1F
100
AcDbEntity
  8
1
  6
Continuous
 62
     7
100
AcDbLine
 10
3880.666071881713
 20
3885.194656503133
 30
0.0
 11
3880.545481955721
 21
4239.126089280843
 31
0.0
  0
LINE
  5
88
330
1F
100
AcDbEntity
  8
1
  6
Continuous
 62
     7
100
AcDbLine
 10
3068.669269356436
 20
4247.123363556981
 30
0.0
 11
3872.545482420069
 21
4247.123363556981
 31
0.0
  0
LINE
  5
89
330
1F
100
AcDbEntity
  8
1
  6
Continuous
 62
     7
100
AcDbLine
 10
3104.367328954162
 20
3997.052582430362
 30
0.0
 11
3046.312327280194
 21
4317.701008680198
 31
0.0
  0
LINE
  5
8A
330
1F
100
AcDbEntity
  8
1
  6
Continuous
 62
     7
100
AcDbLine
 10
3788.148933533928
 20
3967.082915793697
 30
0.0
 11
3817.276698485183
 21
3996.210680744952
 31
0.0
  0
LINE
  5
8B
330
1F
100
AcDbEntity
  8
1
  6
Continuous
 62
     7
100
AcDbLine
 10
3044.776832893636
 20
3602.593528843543
 30
0.0
 11
3074.685832188989
 21
3600.0
 31
0.0
  0
LINE
  5
8C
330
1F
100
AcDbEntity
  8
1
  6
Continuous
 62
     7
100
AcDbLine
 10
1414.979775810934
 20
2532.997806863253
 30
0.0
 11
1414.979775810934
 21
2400.014994580561
 31
0.0
  0
LINE
  5
8D
330
1F
100
AcDbEntity
  8
1
  6
Continuous
 62
     7
100
AcDbLine
 10
1414.979775810934
 20
2400.014994580561
 30
0.0
 11
1384.97977550354
 21
2400.014994580561
 31
0.0
  0
LINE
  5
8E
330
1F
100
AcDbEntity
  8
1
  6
Continuous
 62
     7
100
AcDbLine
 10
1384.97977550354
 20
2400.014994580561
 30
0.0
 11
1384.97977550354
 21
2532.997806863253
 31
0.0
  0
LINE
  5
8F
330
1F
100
AcDbEntity
  8
1
  6
Continuous
 62
     7
100
AcDbLine
 10
1554.999999692576
 20
2400.014994580561
 30
0.0
 11
1585.0
 21
2400.014994580561
 31
0.0
  0
LINE
  5
90
330
1F
100
AcDbEntity
  8
1
  6
Continuous
 62
     7
100
AcDbLine
 10
1585.0
 20
2400.014994580561
 30
0.0
 11
1585.0
 21
2782.158577869259
 31
0.0
  0
LINE
  5
91
330
1F
100
AcDbEntity
  8
1
  6
Continuous
 62
     7
100
AcDbLine
 10
1570.015166681609
 20
2797.082743846306
 30
0.0
 11
1557.517694359412
 21
2797.082743846306
 31
0.0
  0
LINE
  5
92
330
1F
100
AcDbEntity
  8
1
  6
Continuous
 62
     7
100
AcDbLine
 10
1522.512638389017
 20
2661.430568543271
 30
0.0
 11
1523.058644461358
 21
2780.338557628207
 31
0.0
  0
LINE
  5
9F
330
1F
100
AcDbEntity
  8
1
  6
Continuous
 62
     7
100
AcDbLine
 10
1557.517694359412
 20
3043.495229073142
 30
0.0
 11
1557.517694359412
 21
2680.070748546727
 31
0.0
  0
LINE
  5
A0
330
1F
100
AcDbEntity
  8
1
  6
Continuous
 62
     7
100
AcDbLine
 10
1528.5187051846
 20
2672.993312678409
 30
0.0
 11
1528.518705184601
 21
2533.665147618362
 31
0.0
  0
LINE
  5
A1
330
1F
100
AcDbEntity
  8
1
  6
Continuous
 62
     7
100
AcDbLine
 10
802.513930554891
 20
3128.629764432599
 30
0.0
 11
1514.02932192327
 21
3128.629764432599
 31
0.0
  0
LINE
  5
A2
330
1F
100
AcDbEntity
  8
1
  6
Continuous
 62
     7
100
AcDbLine
 10
1524.02932192327
 20
3118.629764432599
 30
0.0
 11
1524.02932192327
 21
3044.266233823563
 31
0.0
  0
LINE
  5
A3
330
1F
100
AcDbEntity
  8
1
  6
Continuous
 62
     7
100
AcDbLine
 10
62.4873616109835
 20
2661.430568543271
 30
0.0
 11
1522.512638389017
 21
2661.430568543271
 31
0.0
  0
LINE
  5
A4
330
1F
100
AcDbEntity
  8
1
  6
Continuous
 62
     7
100
AcDbLine
 10
1520.510616123822
 20
2532.997806863253
 30
0.0
 11
64.48938387617818
 21
2532.997806863253
 31
0.0
  0
LINE
  5
A5
330
1F
100
AcDbEntity
  8
1
  6
Continuous
 62
     7
100
AcDbLine
 10
62.22800872662083
 20
2717.911863358655
 30
0.0
 11
1522.771991273379
 21
2717.911863358655
 31
0.0
  0
LINE
  5
A7
330
1F
100
AcDbEntity
  8
1
  6
Continuous
 62
     7
100
AcDbLine
 10
60.97067807673011
 20
3044.266233823563
 30
0.0
 11
60.97067807673011
 21
3118.629764432599
 31
0.0
  0
LINE
  5
A8
330
1F
100
AcDbEntity
  8
1
  6
Continuous
 62
     7
100
AcDbLine
 10
70.97067807673011
 20
3128.629764432599
 30
0.0
 11
782.5
 21
3128.629764432599
 31
0.0
  0
LINE
  5
A9
330
1F
100
AcDbEntity
  8
1
  6
Continuous
 62
     7
100
AcDbLine
 10
792.5
 20
3118.629764432599
 30
0.0
 11
792.5
 21
2717.911863358655
 31
0.0
  0
LINE
  5
AA
330
1F
100
AcDbEntity
  8
1
  6
Continuous
 62
     7
100
AcDbLine
 10
56.48129481539945
 20
2533.665147618362
 30
0.0
 11
56.48129481540036
 21
2672.993312678409
 31
0.0
  0
LINE
  5
AB
330
1F
100
AcDbEntity
  8
1
  6
Continuous
 62
     7
100
AcDbLine
 10
27.48230564058758
 20
2680.070748546727
 30
0.0
 11
27.48230564058758
 21
3043.495229073142
 31
0.0
  0
LINE
  5
B9
330
1F
100
AcDbEntity
  8
1
  6
Continuous
 62
     7
100
AcDbLine
 10
61.9413555386418
 20
2780.338557628207
 30
0.0
 11
62.4873616109835
 21
2661.430568543271
 31
0.0
  0
LINE
  5
BA
330
1F
100
AcDbEntity
  8
1
  6
Continuous
 62
     7
100
AcDbLine
 10
27.48230564058758
 20
2797.082743846306
 30
0.0
 11
14.98483331839088
 21
2797.082743846306
 31
0.0
  0
LINE
  5
BB
330
1F
100
AcDbEntity
  8
1
  6
Continuous
 62
     7
100
AcDbLine
 10
0.0
 20
2782.158577869259
 30
0.0
 11
0.0
 21
2400.014994580561
 31
0.0
  0
LINE
  5
BC
330
1F
100
AcDbEntity
  8
1
  6
Continuous
 62
     7
100
AcDbLine
 10
0.0
 20
2400.014994580561
 30
0.0
 11
30.00000030742376
 21
2400.014994580561
 31
0.0
  0
LINE
  5
BD
330
1F
100
AcDbEntity
  8
1
  6
Continuous
 62
     7
100
AcDbLine
 10
200.0202244964603
 20
2532.997806863253
 30
0.0
 11
200.0202244964603
 21
2400.014994580561
 31
0.0
  0
LINE
  5
BE
330
1F
100
AcDbEntity
  8
1
  6
Continuous
 62
     7
100
AcDbLine
 10
200.0202244964603
 20
2400.014994580561
 30
0.0
 11
170.0202241890656
 21
2400.014994580561
 31
0.0
  0
LINE
  5
BF
330
1F
100
AcDbEntity
  8
1
  6
Continuous
 62
     7
100
AcDbLine
 10
170.0202241890656
 20
2400.014994580561
 30
0.0
 11
170.0202241890656
 21
2532.997806863253
 31
0.0
  0
LINE
  5
C0
330
1F
100
AcDbEntity
  8
1
  6
Continuous
 62
     7
100
AcDbLine
 10
108.7158757348079
 20
2819.71166217721
 30
0.0
 11
764.4679192621879
 21
2819.71166217721
 31
0.0
  0
LINE
  5
C1
330
1F
100
AcDbEntity
  8
1
  6
Continuous
 62
     7
100
AcDbLine
 10
823.5756093362543
 20
2819.71166217721
 30
0.0
 11
1483.810969809252
 21
2819.71166217721
 31
0.0
  0
LINE
  5
C2
330
1F
100
AcDbEntity
  8
1
  6
Continuous
 62
     7
100
AcDbLine
 10
933.5756093362388
 20
1619.696667596649
 30
0.0
 11
1703.810969809252
 21
1619.696667596649
 31
0.0
  0
LINE
  5
C3
330
1F
100
AcDbEntity
  8
1
  6
Continuous
 62
     7
100
AcDbLine
 10
108.7158757348079
 20
1619.696667596649
 30
0.0
 11
874.4679192621879
 21
1619.696667596649
 31
0.0
  0
LINE
  5
C4
330
1F
100
AcDbEntity
  8
1
  6
Continuous
 62
     7
100
AcDbLine
 10
170.0202241890656
 20
1200.0
 30
0.0
 11
170.0202241890656
 21
1332.982812282693
 31
0.0
  0
LINE
  5
C5
330
1F
100
AcDbEntity
  8
1
  6
Continuous
 62
     7
100
AcDbLine
 10
200.0202244964603
 20
1200.0
 30
0.0
 11
170.0202241890656
 21
1200.0
 31
0.0
  0
LINE
  5
C6
330
1F
100
AcDbEntity
  8
1
  6
Continuous
 62
     7
100
AcDbLine
 10
200.0202244964603
 20
1332.982812282693
 30
0.0
 11
200.0202244964603
 21
1200.0
 31
0.0
  0
LINE
  5
C7
330
1F
100
AcDbEntity
  8
1
  6
Continuous
 62
     7
100
AcDbLine
 10
0.0
 20
1200.0
 30
0.0
 11
30.00000030742376
 21
1200.0
 31
0.0
  0
LINE
  5
C8
330
1F
100
AcDbEntity
  8
1
  6
Continuous
 62
     7
100
AcDbLine
 10
0.0
 20
1582.143583288698
 30
0.0
 11
0.0
 21
1200.0
 31
0.0
  0
LINE
  5
C9
330
1F
100
AcDbEntity
  8
1
  6
Continuous
 62
     7
100
AcDbLine
 10
27.48230564058758
 20
1597.067749265746
 30
0.0
 11
14.98483331839088
 21
1597.067749265746
 31
0.0
  0
LINE
  5
CA
330
1F
100
AcDbEntity
  8
1
  6
Continuous
 62
     7
100
AcDbLine
 10
61.9413555386418
 20
1580.323563047647
 30
0.0
 11
62.4873616109835
 21
1461.41557396271
 31
0.0
  0
LINE
  5
D8
330
1F
100
AcDbEntity
  8
1
  6
Continuous
 62
     7
100
AcDbLine
 10
27.48230564058758
 20
1480.055753966166
 30
0.0
 11
27.48230564058758
 21
1843.480234492581
 31
0.0
  0
LINE
  5
D9
330
1F
100
AcDbEntity
  8
1
  6
Continuous
 62
     7
100
AcDbLine
 10
56.48129481539945
 20
1333.650153037801
 30
0.0
 11
56.48129481540036
 21
1472.978318097849
 31
0.0
  0
LINE
  5
DA
330
1F
100
AcDbEntity
  8
1
  6
Continuous
 62
     7
100
AcDbLine
 10
902.5
 20
1918.614769852039
 30
0.0
 11
902.5
 21
1517.896868778095
 31
0.0
  0
LINE
  5
DB
330
1F
100
AcDbEntity
  8
1
  6
Continuous
 62
     7
100
AcDbLine
 10
70.97067807673011
 20
1928.614769852039
 30
0.0
 11
892.5
 21
1928.614769852039
 31
0.0
  0
LINE
  5
DC
330
1F
100
AcDbEntity
  8
1
  6
Continuous
 62
     7
100
AcDbLine
 10
60.97067807673011
 20
1844.251239243003
 30
0.0
 11
60.97067807673011
 21
1918.614769852039
 31
0.0
  0
LINE
  5
DE
330
1F
100
AcDbEntity
  8
1
  6
Continuous
 62
     7
100
AcDbLine
 10
62.22800872662083
 20
1517.896868778095
 30
0.0
 11
1742.771991273379
 21
1517.896868778095
 31
0.0
  0
LINE
  5
DF
330
1F
100
AcDbEntity
  8
1
  6
Continuous
 62
     7
100
AcDbLine
 10
1740.510616123822
 20
1332.982812282693
 30
0.0
 11
64.48938387617818
 21
1332.982812282693
 31
0.0
  0
LINE
  5
E0
330
1F
100
AcDbEntity
  8
1
  6
Continuous
 62
     7
100
AcDbLine
 10
62.4873616109835
 20
1461.41557396271
 30
0.0
 11
1742.512638389017
 21
1461.41557396271
 31
0.0
  0
LINE
  5
E1
330
1F
100
AcDbEntity
  8
1
  6
Continuous
 62
     7
100
AcDbLine
 10
1744.02932192327
 20
1918.614769852039
 30
0.0
 11
1744.02932192327
 21
1844.251239243003
 31
0.0
  0
LINE
  5
E2
330
1F
100
AcDbEntity
  8
1
  6
Continuous
 62
     7
100
AcDbLine
 10
912.513930554891
 20
1928.614769852039
 30
0.0
 11
1734.02932192327
 21
1928.614769852039
 31
0.0
  0
LINE
  5
E3
330
1F
100
AcDbEntity
  8
1
  6
Continuous
 62
     7
100
AcDbLine
 10
1748.5187051846
 20
1472.978318097849
 30
0.0
 11
1748.518705184601
 21
1333.650153037801
 31
0.0
  0
LINE
  5
E4
330
1F
100
AcDbEntity
  8
1
  6
Continuous
 62
     7
100
AcDbLine
 10
1777.517694359412
 20
1843.480234492581
 30
0.0
 11
1777.517694359412
 21
1480.055753966166
 31
0.0
  0
LINE
  5
F1
330
1F
100
AcDbEntity
  8
1
  6
Continuous
 62
     7
100
AcDbLine
 10
1742.512638389017
 20
1461.41557396271
 30
0.0
 11
1743.058644461358
 21
1580.323563047647
 31
0.0
  0
LINE
  5
F2
330
1F
100
AcDbEntity
  8
1
  6
Continuous
 62
     7
100
AcDbLine
 10
1790.015166681609
 20
1597.067749265746
 30
0.0
 11
1777.517694359412
 21
1597.067749265746
 31
0.0
  0
LINE
  5
F3
330
1F
100
AcDbEntity
  8
1
  6
Continuous
 62
     7
100
AcDbLine
 10
1805.0
 20
1200.0
 30
0.0
 11
1805.0
 21
1582.143583288698
 31
0.0
  0
LINE
  5
F4
330
1F
100
AcDbEntity
  8
1
  6
Continuous
 62
     7
100
AcDbLine
 10
1774.999999692576
 20
1200.0
 30
0.0
 11
1805.0
 21
1200.0
 31
0.0
  0
LINE
  5
F5
330
1F
100
AcDbEntity
  8
1
  6
Continuous
 62
     7
100
AcDbLine
 10
1604.97977550354
 20
1200.0
 30
0.0
 11
1604.97977550354
 21
1332.982812282693
 31
0.0
  0
LINE
  5
F6
330
1F
100
AcDbEntity
  8
1
  6
Continuous
 62
     7
100
AcDbLine
 10
1634.979775810934
 20
1200.0
 30
0.0
 11
1604.97977550354
 21
1200.0
 31
0.0
  0
LINE
  5
F7
330
1F
100
AcDbEntity
  8
1
  6
Continuous
 62
     7
100
AcDbLine
 10
1634.979775810934
 20
1332.982812282693
 30
0.0
 11
1634.979775810934
 21
1200.0
 31
0.0
  0
LINE
  5
F8
330
1F
100
AcDbEntity
  8
1
  6
Continuous
 62
     7
100
AcDbLine
 10
3823.575609336254
 20
2819.71166217721
 30
0.0
 11
4483.810969809252
 21
2819.71166217721
 31
0.0
  0
LINE
  5
F9
330
1F
100
AcDbEntity
  8
1
  6
Continuous
 62
     7
100
AcDbLine
 10
3108.715875734808
 20
2819.71166217721
 30
0.0
 11
3764.467919262188
 21
2819.71166217721
 31
0.0
  0
LINE
  5
FA
330
1F
100
AcDbEntity
  8
1
  6
Continuous
 62
     7
100
AcDbLine
 10
3170.020224189066
 20
2400.014994580561
 30
0.0
 11
3170.020224189066
 21
2532.997806863253
 31
0.0
  0
LINE
  5
FB
330
1F
100
AcDbEntity
  8
1
  6
Continuous
 62
     7
100
AcDbLine
 10
3200.02022449646
 20
2400.014994580561
 30
0.0
 11
3170.020224189066
 21
2400.014994580561
 31
0.0
  0
LINE
  5
FC
330
1F
100
AcDbEntity
  8
1
  6
Continuous
 62
     7
100
AcDbLine
 10
3200.02022449646
 20
2532.997806863253
 30
0.0
 11
3200.02022449646
 21
2400.014994580561
 31
0.0
  0
LINE
  5
FD
330
1F
100
AcDbEntity
  8
1
  6
Continuous
 62
     7
100
AcDbLine
 10
3000.0
 20
2400.014994580561
 30
0.0
 11
3030.000000307424
 21
2400.014994580561
 31
0.0
  0
LINE
  5
FE
330
1F
100
AcDbEntity
  8
1
  6
Continuous
 62
     7
100
AcDbLine
 10
3000.0
 20
2782.158577869259
 30
0.0
 11
3000.0
 21
2400.014994580561
 31
0.0
  0
LINE
  5
FF
330
1F
100
AcDbEntity
  8
1
  6
Continuous
 62
     7
100
AcDbLine
 10
3027.482305640588
 20
2797.082743846306
 30
0.0
 11
3014.984833318391
 21
2797.082743846306
 31
0.0
  0
LINE
  5
100
330
1F
100
AcDbEntity
  8
1
  6
Continuous
 62
     7
100
AcDbLine
 10
3061.941355538642
 20
2780.338557628207
 30
0.0
 11
3062.487361610984
 21
2661.430568543271
 31
0.0
  0
LINE
  5
10E
330
1F
100
AcDbEntity
  8
1
  6
Continuous
 62
     7
100
AcDbLine
 10
3027.482305640588
 20
2680.070748546727
 30
0.0
 11
3027.482305640588
 21
3043.495229073142
 31
0.0
  0
LINE
  5
10F
330
1F
100
AcDbEntity
  8
1
  6
Continuous
 62
     7
100
AcDbLine
 10
3056.4812948154
 20
2533.665147618362
 30
0.0
 11
3056.4812948154
 21
2672.993312678409
 31
0.0
  0
LINE
  5
110
330
1F
100
AcDbEntity
  8
1
  6
Continuous
 62
     7
100
AcDbLine
 10
3070.97067807673
 20
3317.24452875147
 30
0.0
 11
3782.493034722555
 21
3317.24452875147
 31
0.0
  0
LINE
  5
111
330
1F
100
AcDbEntity
  8
1
  6
Continuous
 62
     7
100
AcDbLine
 10
3060.97067807673
 20
3145.686578157162
 30
0.0
 11
3060.97067807673
 21
3307.24452875147
 31
0.0
  0
LINE
  5
112
330
1F
100
AcDbEntity
  8
1
  6
Continuous
 62
     7
100
AcDbLine
 10
3782.493034722555
 20
3135.686578157162
 30
0.0
 11
3070.97067807673
 21
3135.686578157162
 31
0.0
  0
LINE
  5
113
330
1F
100
AcDbEntity
  8
1
  6
Continuous
 62
     7
100
AcDbLine
 10
3792.493034722555
 20
3307.24452875147
 30
0.0
 11
3792.493034722555
 21
3145.686578157162
 31
0.0
  0
LINE
  5
114
330
1F
100
AcDbEntity
  8
1
  6
DASHED
 62
     3
100
AcDbLine
 10
3070.97067807673
 20
3367.234418040221
 30
0.0
 11
3782.493034722555
 21
3367.234418040221
 31
0.0
  0
LINE
  5
115
330
1F
100
AcDbEntity
  8
1
  6
DASHED
 62
     3
100
AcDbLine
 10
3060.97067807673
 20
3307.24452875147
 30
0.0
 11
3060.97067807673
 21
3357.234418040221
 31
0.0
  0
LINE
  5
116
330
1F
100
AcDbEntity
  8
1
  6
DASHED
 62
     3
100
AcDbLine
 10
3782.493034722555
 20
3186.159585121818
 30
0.0
 11
3070.97067807673
 21
3186.159585121818
 31
0.0
  0
LINE
  5
117
330
1F
100
AcDbEntity
  8
1
  6
Continuous
 62
     7
100
AcDbLine
 10
3792.5
 20
3118.629764432599
 30
0.0
 11
3792.5
 21
2717.911863358655
 31
0.0
  0
LINE
  5
118
330
1F
100
AcDbEntity
  8
1
  6
Continuous
 62
     7
100
AcDbLine
 10
3070.97067807673
 20
3128.629764432599
 30
0.0
 11
3782.5
 21
3128.629764432599
 31
0.0
  0
LINE
  5
119
330
1F
100
AcDbEntity
  8
1
  6
Continuous
 62
     7
100
AcDbLine
 10
3060.97067807673
 20
3044.266233823563
 30
0.0
 11
3060.97067807673
 21
3118.629764432599
 31
0.0
  0
LINE
  5
11A
330
1F
100
AcDbEntity
  8
1
  6
DASHED
 62
     3
100
AcDbLine
 10
3792.506965277446
 20
3307.24452875147
 30
0.0
 11
3792.506965277446
 21
3357.234418040221
 31
0.0
  0
LINE
  5
11B
330
1F
100
AcDbEntity
  8
1
  6
Continuous
 62
     7
100
AcDbLine
 10
3792.506965277446
 20
3145.686578157162
 30
0.0
 11
3792.506965277446
 21
3307.24452875147
 31
0.0
  0
LINE
  5
11D
330
1F
100
AcDbEntity
  8
1
  6
Continuous
 62
     7
100
AcDbLine
 10
3062.228008726621
 20
2717.911863358655
 30
0.0
 11
4522.771991273379
 21
2717.911863358655
 31
0.0
  0
LINE
  5
11E
330
1F
100
AcDbEntity
  8
1
  6
Continuous
 62
     7
100
AcDbLine
 10
4520.510616123822
 20
2532.997806863253
 30
0.0
 11
3064.489383876178
 21
2532.997806863253
 31
0.0
  0
LINE
  5
11F
330
1F
100
AcDbEntity
  8
1
  6
Continuous
 62
     7
100
AcDbLine
 10
3062.487361610984
 20
2661.430568543271
 30
0.0
 11
4522.512638389017
 21
2661.430568543271
 31
0.0
  0
LINE
  5
120
330
1F
100
AcDbEntity
  8
1
  6
Continuous
 62
     7
100
AcDbLine
 10
4524.02932192327
 20
3118.629764432599
 30
0.0
 11
4524.02932192327
 21
3044.266233823563
 31
0.0
  0
LINE
  5
121
330
1F
100
AcDbEntity
  8
1
  6
Continuous
 62
     7
100
AcDbLine
 10
3802.513930554891
 20
3128.629764432599
 30
0.0
 11
4514.02932192327
 21
3128.629764432599
 31
0.0
  0
LINE
  5
122
330
1F
100
AcDbEntity
  8
1
  6
DASHED
 62
     3
100
AcDbLine
 10
4514.02932192327
 20
3186.159585121818
 30
0.0
 11
3802.506965277446
 21
3186.159585121818
 31
0.0
  0
LINE
  5
123
330
1F
100
AcDbEntity
  8
1
  6
DASHED
 62
     3
100
AcDbLine
 10
4524.02932192327
 20
3357.234418040221
 30
0.0
 11
4524.02932192327
 21
3307.24452875147
 31
0.0
  0
LINE
  5
124
330
1F
100
AcDbEntity
  8
1
  6
DASHED
 62
     3
100
AcDbLine
 10
3802.520895832337
 20
3367.234418040221
 30
0.0
 11
4514.02932192327
 21
3367.234418040221
 31
0.0
  0
LINE
  5
125
330
1F
100
AcDbEntity
  8
1
  6
Continuous
 62
     7
100
AcDbLine
 10
4514.02932192327
 20
3135.686578157162
 30
0.0
 11
3802.506965277446
 21
3135.686578157162
 31
0.0
  0
LINE
  5
126
330
1F
100
AcDbEntity
  8
1
  6
Continuous
 62
     7
100
AcDbLine
 10
4524.02932192327
 20
3307.24452875147
 30
0.0
 11
4524.02932192327
 21
3145.686578157162
 31
0.0
  0
LINE
  5
127
330
1F
100
AcDbEntity
  8
1
  6
Continuous
 62
     7
100
AcDbLine
 10
3802.520895832337
 20
3317.24452875147
 30
0.0
 11
4514.02932192327
 21
3317.24452875147
 31
0.0
  0
LINE
  5
128
330
1F
100
AcDbEntity
  8
1
  6
Continuous
 62
     7
100
AcDbLine
 10
4528.5187051846
 20
2672.993312678409
 30
0.0
 11
4528.518705184601
 21
2533.665147618362
 31
0.0
  0
LINE
  5
129
330
1F
100
AcDbEntity
  8
1
  6
Continuous
 62
     7
100
AcDbLine
 10
4557.517694359412
 20
3043.495229073142
 30
0.0
 11
4557.517694359412
 21
2680.070748546727
 31
0.0
  0
LINE
  5
136
330
1F
100
AcDbEntity
  8
1
  6
Continuous
 62
     7
100
AcDbLine
 10
4522.512638389017
 20
2661.430568543271
 30
0.0
 11
4523.058644461358
 21
2780.338557628207
 31
0.0
  0
LINE
  5
137
330
1F
100
AcDbEntity
  8
1
  6
Continuous
 62
     7
100
AcDbLine
 10
4570.015166681609
 20
2797.082743846306
 30
0.0
 11
4557.517694359412
 21
2797.082743846306
 31
0.0
  0
LINE
  5
138
330
1F
100
AcDbEntity
  8
1
  6
Continuous
 62
     7
100
AcDbLine
 10
4585.0
 20
2400.014994580561
 30
0.0
 11
4585.0
 21
2782.158577869259
 31
0.0
  0
LINE
  5
139
330
1F
100
AcDbEntity
  8
1
  6
Continuous
 62
     7
100
AcDbLine
 10
4554.999999692576
 20
2400.014994580561
 30
0.0
 11
4585.0
 21
2400.014994580561
 31
0.0
  0
LINE
  5
13A
330
1F
100
AcDbEntity
  8
1
  6
Continuous
 62
     7
100
AcDbLine
 10
4384.97977550354
 20
2400.014994580561
 30
0.0
 11
4384.97977550354
 21
2532.997806863253
 31
0.0
  0
LINE
  5
13B
330
1F
100
AcDbEntity
  8
1
  6
Continuous
 62
     7
100
AcDbLine
 10
4414.979775810934
 20
2400.014994580561
 30
0.0
 11
4384.97977550354
 21
2400.014994580561
 31
0.0
  0
LINE
  5
13C
330
1F
100
AcDbEntity
  8
1
  6
Continuous
 62
     7
100
AcDbLine
 10
4414.979775810934
 20
2532.997806863253
 30
0.0
 11
4414.979775810934
 21
2400.014994580561
 31
0.0
  0
LINE
  5
13D
330
1F
100
AcDbEntity
  8
1
  6
Continuous
 62
     7
100
AcDbLine
 10
4634.979775810934
 20
1332.982812282693
 30
0.0
 11
4634.979775810934
 21
1200.0
 31
0.0
  0
LINE
  5
13E
330
1F
100
AcDbEntity
  8
1
  6
Continuous
 62
     7
100
AcDbLine
 10
4634.979775810934
 20
1200.0
 30
0.0
 11
4604.97977550354
 21
1200.0
 31
0.0
  0
LINE
  5
13F
330
1F
100
AcDbEntity
  8
1
  6
Continuous
 62
     7
100
AcDbLine
 10
4604.97977550354
 20
1200.0
 30
0.0
 11
4604.97977550354
 21
1332.982812282693
 31
0.0
  0
LINE
  5
140
330
1F
100
AcDbEntity
  8
1
  6
Continuous
 62
     7
100
AcDbLine
 10
4774.999999692576
 20
1200.0
 30
0.0
 11
4805.0
 21
1200.0
 31
0.0
  0
LINE
  5
141
330
1F
100
AcDbEntity
  8
1
  6
Continuous
 62
     7
100
AcDbLine
 10
4805.0
 20
1200.0
 30
0.0
 11
4805.0
 21
1582.143583288698
 31
0.0
  0
LINE
  5
142
330
1F
100
AcDbEntity
  8
1
  6
Continuous
 62
     7
100
AcDbLine
 10
4790.015166681609
 20
1597.067749265746
 30
0.0
 11
4777.517694359412
 21
1597.067749265746
 31
0.0
  0
LINE
  5
143
330
1F
100
AcDbEntity
  8
1
  6
Continuous
 62
     7
100
AcDbLine
 10
4742.512638389017
 20
1461.41557396271
 30
0.0
 11
4743.058644461358
 21
1580.323563047647
 31
0.0
  0
LINE
  5
150
330
1F
100
AcDbEntity
  8
1
  6
Continuous
 62
     7
100
AcDbLine
 10
4777.517694359412
 20
1843.480234492581
 30
0.0
 11
4777.517694359412
 21
1480.055753966166
 31
0.0
  0
LINE
  5
151
330
1F
100
AcDbEntity
  8
1
  6
Continuous
 62
     7
100
AcDbLine
 10
4748.5187051846
 20
1472.978318097849
 30
0.0
 11
4748.518705184601
 21
1333.650153037801
 31
0.0
  0
LINE
  5
152
330
1F
100
AcDbEntity
  8
1
  6
Continuous
 62
     7
100
AcDbLine
 10
3912.520895832337
 20
2117.22953417091
 30
0.0
 11
4734.02932192327
 21
2117.22953417091
 31
0.0
  0
LINE
  5
153
330
1F
100
AcDbEntity
  8
1
  6
Continuous
 62
     7
100
AcDbLine
 10
4744.02932192327
 20
2107.22953417091
 30
0.0
 11
4744.02932192327
 21
1945.671583576602
 31
0.0
  0
LINE
  5
154
330
1F
100
AcDbEntity
  8
1
  6
Continuous
 62
     7
100
AcDbLine
 10
4734.02932192327
 20
1935.671583576602
 30
0.0
 11
3912.506965277446
 21
1935.671583576602
 31
0.0
  0
LINE
  5
155
330
1F
100
AcDbEntity
  8
1
  6
DASHED
 62
     3
100
AcDbLine
 10
3912.520895832337
 20
2167.21942345966
 30
0.0
 11
4734.02932192327
 21
2167.21942345966
 31
0.0
  0
LINE
  5
156
330
1F
100
AcDbEntity
  8
1
  6
DASHED
 62
     3
100
AcDbLine
 10
4744.02932192327
 20
2157.21942345966
 30
0.0
 11
4744.02932192327
 21
2107.22953417091
 31
0.0
  0
LINE
  5
157
330
1F
100
AcDbEntity
  8
1
  6
DASHED
 62
     3
100
AcDbLine
 10
4734.02932192327
 20
1986.144590541257
 30
0.0
 11
3912.506965277446
 21
1986.144590541257
 31
0.0
  0
LINE
  5
158
330
1F
100
AcDbEntity
  8
1
  6
Continuous
 62
     7
100
AcDbLine
 10
3912.513930554891
 20
1928.614769852039
 30
0.0
 11
4734.02932192327
 21
1928.614769852039
 31
0.0
  0
LINE
  5
159
330
1F
100
AcDbEntity
  8
1
  6
Continuous
 62
     7
100
AcDbLine
 10
4744.02932192327
 20
1918.614769852039
 30
0.0
 11
4744.02932192327
 21
1844.251239243003
 31
0.0
  0
LINE
  5
15A
330
1F
100
AcDbEntity
  8
1
  6
Continuous
 62
     7
100
AcDbLine
 10
3062.487361610984
 20
1461.41557396271
 30
0.0
 11
4742.512638389017
 21
1461.41557396271
 31
0.0
  0
LINE
  5
15B
330
1F
100
AcDbEntity
  8
1
  6
Continuous
 62
     7
100
AcDbLine
 10
4740.510616123822
 20
1332.982812282693
 30
0.0
 11
3064.489383876178
 21
1332.982812282693
 31
0.0
  0
LINE
  5
15C
330
1F
100
AcDbEntity
  8
1
  6
Continuous
 62
     7
100
AcDbLine
 10
3062.228008726621
 20
1517.896868778095
 30
0.0
 11
4742.771991273379
 21
1517.896868778095
 31
0.0
  0
LINE
  5
15E
330
1F
100
AcDbEntity
  8
1
  6
Continuous
 62
     7
100
AcDbLine
 10
3902.506965277446
 20
1945.671583576602
 30
0.0
 11
3902.506965277446
 21
2107.22953417091
 31
0.0
  0
LINE
  5
15F
330
1F
100
AcDbEntity
  8
1
  6
DASHED
 62
     3
100
AcDbLine
 10
3902.506965277446
 20
2107.22953417091
 30
0.0
 11
3902.506965277446
 21
2157.21942345966
 31
0.0
  0
LINE
  5
160
330
1F
100
AcDbEntity
  8
1
  6
Continuous
 62
     7
100
AcDbLine
 10
3060.97067807673
 20
1844.251239243003
 30
0.0
 11
3060.97067807673
 21
1918.614769852039
 31
0.0
  0
LINE
  5
161
330
1F
100
AcDbEntity
  8
1
  6
Continuous
 62
     7
100
AcDbLine
 10
3070.97067807673
 20
1928.614769852039
 30
0.0
 11
3892.5
 21
1928.614769852039
 31
0.0
  0
LINE
  5
162
330
1F
100
AcDbEntity
  8
1
  6
Continuous
 62
     7
100
AcDbLine
 10
3902.5
 20
1918.614769852039
 30
0.0
 11
3902.5
 21
1517.896868778095
 31
0.0
  0
LINE
  5
163
330
1F
100
AcDbEntity
  8
1
  6
DASHED
 62
     3
100
AcDbLine
 10
3892.493034722555
 20
1986.144590541257
 30
0.0
 11
3070.97067807673
 21
1986.144590541257
 31
0.0
  0
LINE
  5
164
330
1F
100
AcDbEntity
  8
1
  6
DASHED
 62
     3
100
AcDbLine
 10
3060.97067807673
 20
2107.22953417091
 30
0.0
 11
3060.97067807673
 21
2157.21942345966
 31
0.0
  0
LINE
  5
165
330
1F
100
AcDbEntity
  8
1
  6
DASHED
 62
     3
100
AcDbLine
 10
3070.97067807673
 20
2167.21942345966
 30
0.0
 11
3892.493034722555
 21
2167.21942345966
 31
0.0
  0
LINE
  5
166
330
1F
100
AcDbEntity
  8
1
  6
Continuous
 62
     7
100
AcDbLine
 10
3902.493034722555
 20
2107.22953417091
 30
0.0
 11
3902.493034722555
 21
1945.671583576602
 31
0.0
  0
LINE
  5
167
330
1F
100
AcDbEntity
  8
1
  6
Continuous
 62
     7
100
AcDbLine
 10
3892.493034722555
 20
1935.671583576602
 30
0.0
 11
3070.97067807673
 21
1935.671583576602
 31
0.0
  0
LINE
  5
168
330
1F
100
AcDbEntity
  8
1
  6
Continuous
 62
     7
100
AcDbLine
 10
3060.97067807673
 20
1945.671583576602
 30
0.0
 11
3060.97067807673
 21
2107.22953417091
 31
0.0
  0
LINE
  5
169
330
1F
100
AcDbEntity
  8
1
  6
Continuous
 62
     7
100
AcDbLine
 10
3070.97067807673
 20
2117.22953417091
 30
0.0
 11
3892.493034722555
 21
2117.22953417091
 31
0.0
  0
LINE
  5
16A
330
1F
100
AcDbEntity
  8
1
  6
Continuous
 62
     7
100
AcDbLine
 10
3056.4812948154
 20
1333.650153037801
 30
0.0
 11
3056.4812948154
 21
1472.978318097849
 31
0.0
  0
LINE
  5
16B
330
1F
100
AcDbEntity
  8
1
  6
Continuous
 62
     7
100
AcDbLine
 10
3027.482305640588
 20
1480.055753966166
 30
0.0
 11
3027.482305640588
 21
1843.480234492581
 31
0.0
  0
LINE
  5
179
330
1F
100
AcDbEntity
  8
1
  6
Continuous
 62
     7
100
AcDbLine
 10
3061.941355538642
 20
1580.323563047647
 30
0.0
 11
3062.487361610984
 21
1461.41557396271
 31
0.0
  0
LINE
  5
17A
330
1F
100
AcDbEntity
  8
1
  6
Continuous
 62
     7
100
AcDbLine
 10
3027.482305640588
 20
1597.067749265746
 30
0.0
 11
3014.984833318391
 21
1597.067749265746
 31
0.0
  0
LINE
  5
17B
330
1F
100
AcDbEntity
  8
1
  6
Continuous
 62
     7
100
AcDbLine
 10
3000.0
 20
1582.143583288698
 30
0.0
 11
3000.0
 21
1200.0
 31
0.0
  0
LINE
  5
17C
330
1F
100
AcDbEntity
  8
1
  6
Continuous
 62
     7
100
AcDbLine
 10
3000.0
 20
1200.0
 30
0.0
 11
3030.000000307424
 21
1200.0
 31
0.0
  0
LINE
  5
17D
330
1F
100
AcDbEntity
  8
1
  6
Continuous
 62
     7
100
AcDbLine
 10
3200.02022449646
 20
1332.982812282693
 30
0.0
 11
3200.02022449646
 21
1200.0
 31
0.0
  0
LINE
  5
17E
330
1F
100
AcDbEntity
  8
1
  6
Continuous
 62
     7
100
AcDbLine
 10
3200.02022449646
 20
1200.0
 30
0.0
 11
3170.020224189066
 21
1200.0
 31
0.0
  0
LINE
  5
17F
330
1F
100
AcDbEntity
  8
1
  6
Continuous
 62
     7
100
AcDbLine
 10
3170.020224189066
 20
1200.0
 30
0.0
 11
3170.020224189066
 21
1332.982812282693
 31
0.0
  0
LINE
  5
180
330
1F
100
AcDbEntity
  8
1
  6
Continuous
 62
     7
100
AcDbLine
 10
3108.715875734808
 20
1619.696667596649
 30
0.0
 11
3874.467919262188
 21
1619.696667596649
 31
0.0
  0
LINE
  5
181
330
1F
100
AcDbEntity
  8
1
  6
Continuous
 62
     7
100
AcDbLine
 10
3933.575609336239
 20
1619.696667596649
 30
0.0
 11
4703.810969809252
 21
1619.696667596649
 31
0.0
  0
LINE
  5
182
330
1F
100
AcDbEntity
  8
1
  6
Continuous
 62
     7
100
AcDbLine
 10
1874.979775810935
 20
132.9828122826926
 30
0.0
 11
1874.979775810935
 21
0.0
 31
0.0
  0
LINE
  5
183
330
1F
100
AcDbEntity
  8
1
  6
Continuous
 62
     7
100
AcDbLine
 10
1874.979775810935
 20
0.0
 30
0.0
 11
1844.979775503541
 21
0.0
 31
0.0
  0
LINE
  5
184
330
1F
100
AcDbEntity
  8
1
  6
Continuous
 62
     7
100
AcDbLine
 10
1844.979775503541
 20
0.0
 30
0.0
 11
1844.979775503541
 21
132.9828122826926
 31
0.0
  0
LINE
  5
185
330
1F
100
AcDbEntity
  8
1
  6
Continuous
 62
     7
100
AcDbLine
 10
2014.999999692577
 20
0.0
 30
0.0
 11
2045.000000000001
 21
0.0
 31
0.0
  0
LINE
  5
186
330
1F
100
AcDbEntity
  8
1
  6
Continuous
 62
     7
100
AcDbLine
 10
2045.000000000001
 20
0.0
 30
0.0
 11
2045.000000000001
 21
382.1435832886984
 31
0.0
  0
LINE
  5
187
330
1F
100
AcDbEntity
  8
1
  6
Continuous
 62
     7
100
AcDbLine
 10
2030.01516668161
 20
397.0677492657456
 30
0.0
 11
2017.517694359413
 21
397.0677492657456
 31
0.0
  0
LINE
  5
188
330
1F
100
AcDbEntity
  8
1
  6
Continuous
 62
     7
100
AcDbLine
 10
1982.512638389017
 20
261.4155739627099
 30
0.0
 11
1983.058644461359
 21
380.3235630476464
 31
0.0
  0
LINE
  5
195
330
1F
100
AcDbEntity
  8
1
  6
Continuous
 62
     7
100
AcDbLine
 10
2017.517694359413
 20
643.4802344925811
 30
0.0
 11
2017.517694359413
 21
280.0557539661662
 31
0.0
  0
LINE
  5
196
330
1F
100
AcDbEntity
  8
1
  6
Continuous
 62
     7
100
AcDbLine
 10
1988.518705184601
 20
272.978318097849
 30
0.0
 11
1988.518705184602
 21
133.6501530378008
 31
0.0
  0
LINE
  5
197
330
1F
100
AcDbEntity
  8
1
  6
Continuous
 62
     7
100
AcDbLine
 10
1032.506965277446
 20
728.6147698520385
 30
0.0
 11
1974.029321923271
 21
728.6147698520385
 31
0.0
  0
LINE
  5
198
330
1F
100
AcDbEntity
  8
1
  6
Continuous
 62
     7
100
AcDbLine
 10
1984.029321923271
 20
718.6147698520385
 30
0.0
 11
1984.029321923271
 21
644.2512392430026
 31
0.0
  0
LINE
  5
199
330
1F
100
AcDbEntity
  8
1
  6
Continuous
 62
     7
100
AcDbLine
 10
62.4873616109835
 20
261.4155739627099
 30
0.0
 11
1982.512638389017
 21
261.4155739627099
 31
0.0
  0
LINE
  5
19A
330
1F
100
AcDbEntity
  8
1
  6
Continuous
 62
     7
100
AcDbLine
 10
1980.510616123823
 20
132.9828122826926
 30
0.0
 11
64.48938387617818
 21
132.9828122826926
 31
0.0
  0
LINE
  5
19B
330
1F
100
AcDbEntity
  8
1
  6
Continuous
 62
     7
100
AcDbLine
 10
62.22800872662083
 20
317.8968687780948
 30
0.0
 11
1982.77199127338
 21
317.8968687780948
 31
0.0
  0
LINE
  5
19D
330
1F
100
AcDbEntity
  8
1
  6
Continuous
 62
     7
100
AcDbLine
 10
60.97067807673011
 20
644.2512392430026
 30
0.0
 11
60.97067807673011
 21
718.6147698520385
 31
0.0
  0
LINE
  5
19E
330
1F
100
AcDbEntity
  8
1
  6
Continuous
 62
     7
100
AcDbLine
 10
70.97067807673011
 20
728.6147698520385
 30
0.0
 11
1012.493034722555
 21
728.6147698520385
 31
0.0
  0
LINE
  5
19F
330
1F
100
AcDbEntity
  8
1
  6
Continuous
 62
     7
100
AcDbLine
 10
1022.493034722555
 20
718.6147698520385
 30
0.0
 11
1022.493034722555
 21
317.8968687780948
 31
0.0
  0
LINE
  5
1A0
330
1F
100
AcDbEntity
  8
1
  6
Continuous
 62
     7
100
AcDbLine
 10
56.48129481539945
 20
133.6501530378008
 30
0.0
 11
56.48129481540036
 21
272.978318097849
 31
0.0
  0
LINE
  5
1A1
330
1F
100
AcDbEntity
  8
1
  6
Continuous
 62
     7
100
AcDbLine
 10
27.48230564058758
 20
280.0557539661662
 30
0.0
 11
27.48230564058758
 21
643.4802344925811
 31
0.0
  0
LINE
  5
1AF
330
1F
100
AcDbEntity
  8
1
  6
Continuous
 62
     7
100
AcDbLine
 10
61.9413555386418
 20
380.3235630476464
 30
0.0
 11
62.4873616109835
 21
261.4155739627099
 31
0.0
  0
LINE
  5
1B0
330
1F
100
AcDbEntity
  8
1
  6
Continuous
 62
     7
100
AcDbLine
 10
27.48230564058758
 20
397.0677492657456
 30
0.0
 11
14.98483331839088
 21
397.0677492657456
 31
0.0
  0
LINE
  5
1B1
330
1F
100
AcDbEntity
  8
1
  6
Continuous
 62
     7
100
AcDbLine
 10
0.0
 20
382.1435832886984
 30
0.0
 11
0.0
 21
0.0
 31
0.0
  0
LINE
  5
1B2
330
1F
100
AcDbEntity
  8
1
  6
Continuous
 62
     7
100
AcDbLine
 10
0.0
 20
0.0
 30
0.0
 11
30.00000030742376
 21
0.0
 31
0.0
  0
LINE
  5
1B3
330
1F
100
AcDbEntity
  8
1
  6
Continuous
 62
     7
100
AcDbLine
 10
200.0202244964603
 20
132.9828122826926
 30
0.0
 11
200.0202244964603
 21
0.0
 31
0.0
  0
LINE
  5
1B4
330
1F
100
AcDbEntity
  8
1
  6
Continuous
 62
     7
100
AcDbLine
 10
200.0202244964603
 20
0.0
 30
0.0
 11
170.0202241890656
 21
0.0
 31
0.0
  0
LINE
  5
1B5
330
1F
100
AcDbEntity
  8
1
  6
Continuous
 62
     7
100
AcDbLine
 10
170.0202241890656
 20
0.0
 30
0.0
 11
170.0202241890656
 21
132.9828122826926
 31
0.0
  0
LINE
  5
1B6
330
1F
100
AcDbEntity
  8
1
  6
Continuous
 62
     7
100
AcDbLine
 10
108.7158757348079
 20
419.696667596649
 30
0.0
 11
991.4313559412067
 21
419.696667596649
 31
0.0
  0
LINE
  5
1B7
330
1F
100
AcDbEntity
  8
1
  6
Continuous
 62
     7
100
AcDbLine
 10
1053.568644058815
 20
419.696667596649
 30
0.0
 11
1936.284124265193
 21
419.696667596649
 31
0.0
  0
LINE
  5
1B8
330
1F
100
AcDbEntity
  8
1
  6
Continuous
 62
     7
100
AcDbLine
 10
4053.568644058815
 20
419.696667596649
 30
0.0
 11
4936.284124265193
 21
419.696667596649
 31
0.0
  0
LINE
  5
1B9
330
1F
100
AcDbEntity
  8
1
  6
Continuous
 62
     7
100
AcDbLine
 10
3108.715875734808
 20
419.696667596649
 30
0.0
 11
3991.431355941207
 21
419.696667596649
 31
0.0
  0
LINE
  5
1BA
330
1F
100
AcDbEntity
  8
1
  6
Continuous
 62
     7
100
AcDbLine
 10
3170.020224189066
 20
0.0
 30
0.0
 11
3170.020224189066
 21
132.9828122826926
 31
0.0
  0
LINE
  5
1BB
330
1F
100
AcDbEntity
  8
1
  6
Continuous
 62
     7
100
AcDbLine
 10
3200.02022449646
 20
0.0
 30
0.0
 11
3170.020224189066
 21
0.0
 31
0.0
  0
LINE
  5
1BC
330
1F
100
AcDbEntity
  8
1
  6
Continuous
 62
     7
100
AcDbLine
 10
3200.02022449646
 20
132.9828122826926
 30
0.0
 11
3200.02022449646
 21
0.0
 31
0.0
  0
LINE
  5
1BD
330
1F
100
AcDbEntity
  8
1
  6
Continuous
 62
     7
100
AcDbLine
 10
3000.0
 20
0.0
 30
0.0
 11
3030.000000307424
 21
0.0
 31
0.0
  0
LINE
  5
1BE
330
1F
100
AcDbEntity
  8
1
  6
Continuous
 62
     7
100
AcDbLine
 10
3000.0
 20
382.1435832886984
 30
0.0
 11
3000.0
 21
0.0
 31
0.0
  0
LINE
  5
1BF
330
1F
100
AcDbEntity
  8
1
  6
Continuous
 62
     7
100
AcDbLine
 10
3027.482305640588
 20
397.0677492657456
 30
0.0
 11
3014.984833318391
 21
397.0677492657456
 31
0.0
  0
LINE
  5
1C0
330
1F
100
AcDbEntity
  8
1
  6
Continuous
 62
     7
100
AcDbLine
 10
3061.941355538642
 20
380.3235630476464
 30
0.0
 11
3062.487361610984
 21
261.4155739627099
 31
0.0
  0
LINE
  5
1CE
330
1F
100
AcDbEntity
  8
1
  6
Continuous
 62
     7
100
AcDbLine
 10
3027.482305640588
 20
280.0557539661662
 30
0.0
 11
3027.482305640588
 21
643.4802344925811
 31
0.0
  0
LINE
  5
1CF
330
1F
100
AcDbEntity
  8
1
  6
Continuous
 62
     7
100
AcDbLine
 10
3056.4812948154
 20
133.6501530378008
 30
0.0
 11
3056.4812948154
 21
272.978318097849
 31
0.0
  0
LINE
  5
1D0
330
1F
100
AcDbEntity
  8
1
  6
Continuous
 62
     7
100
AcDbLine
 10
3070.97067807673
 20
917.2295341709098
 30
0.0
 11
4012.48606944511
 21
917.2295341709098
 31
0.0
  0
LINE
  5
1D1
330
1F
100
AcDbEntity
  8
1
  6
Continuous
 62
     7
100
AcDbLine
 10
3060.97067807673
 20
745.6715835766016
 30
0.0
 11
3060.97067807673
 21
907.2295341709098
 31
0.0
  0
LINE
  5
1D2
330
1F
100
AcDbEntity
  8
1
  6
Continuous
 62
     7
100
AcDbLine
 10
4012.48606944511
 20
735.6715835766016
 30
0.0
 11
3070.97067807673
 21
735.6715835766016
 31
0.0
  0
LINE
  5
1D3
330
1F
100
AcDbEntity
  8
1
  6
Continuous
 62
     7
100
AcDbLine
 10
4022.48606944511
 20
907.2295341709098
 30
0.0
 11
4022.48606944511
 21
745.6715835766016
 31
0.0
  0
LINE
  5
1D4
330
1F
100
AcDbEntity
  8
1
  6
DASHED
 62
     3
100
AcDbLine
 10
3070.97067807673
 20
967.2194234596598
 30
0.0
 11
4012.48606944511
 21
967.2194234596598
 31
0.0
  0
LINE
  5
1D5
330
1F
100
AcDbEntity
  8
1
  6
DASHED
 62
     3
100
AcDbLine
 10
3060.97067807673
 20
907.2295341709098
 30
0.0
 11
3060.97067807673
 21
957.2194234596598
 31
0.0
  0
LINE
  5
1D6
330
1F
100
AcDbEntity
  8
1
  6
DASHED
 62
     3
100
AcDbLine
 10
4012.48606944511
 20
786.144590541257
 30
0.0
 11
3070.97067807673
 21
786.144590541257
 31
0.0
  0
LINE
  5
1D7
330
1F
100
AcDbEntity
  8
1
  6
Continuous
 62
     7
100
AcDbLine
 10
4022.493034722555
 20
718.6147698520385
 30
0.0
 11
4022.493034722555
 21
317.8968687780948
 31
0.0
  0
LINE
  5
1D8
330
1F
100
AcDbEntity
  8
1
  6
Continuous
 62
     7
100
AcDbLine
 10
3070.97067807673
 20
728.6147698520385
 30
0.0
 11
4012.493034722555
 21
728.6147698520385
 31
0.0
  0
LINE
  5
1D9
330
1F
100
AcDbEntity
  8
1
  6
Continuous
 62
     7
100
AcDbLine
 10
3060.97067807673
 20
644.2512392430026
 30
0.0
 11
3060.97067807673
 21
718.6147698520385
 31
0.0
  0
LINE
  5
1DA
330
1F
100
AcDbEntity
  8
1
  6
DASHED
 62
     3
100
AcDbLine
 10
4022.500000000001
 20
907.2295341709098
 30
0.0
 11
4022.500000000001
 21
957.2194234596598
 31
0.0
  0
LINE
  5
1DB
330
1F
100
AcDbEntity
  8
1
  6
Continuous
 62
     7
100
AcDbLine
 10
4022.500000000001
 20
745.6715835766016
 30
0.0
 11
4022.500000000001
 21
907.2295341709098
 31
0.0
  0
LINE
  5
1DD
330
1F
100
AcDbEntity
  8
1
  6
Continuous
 62
     7
100
AcDbLine
 10
3062.228008726621
 20
317.8968687780948
 30
0.0
 11
4982.77199127338
 21
317.8968687780948
 31
0.0
  0
LINE
  5
1DE
330
1F
100
AcDbEntity
  8
1
  6
Continuous
 62
     7
100
AcDbLine
 10
4980.510616123823
 20
132.9828122826926
 30
0.0
 11
3064.489383876178
 21
132.9828122826926
 31
0.0
  0
LINE
  5
1DF
330
1F
100
AcDbEntity
  8
1
  6
Continuous
 62
     7
100
AcDbLine
 10
3062.487361610984
 20
261.4155739627099
 30
0.0
 11
4982.512638389017
 21
261.4155739627099
 31
0.0
  0
LINE
  5
1E0
330
1F
100
AcDbEntity
  8
1
  6
Continuous
 62
     7
100
AcDbLine
 10
4984.029321923271
 20
718.6147698520385
 30
0.0
 11
4984.029321923271
 21
644.2512392430026
 31
0.0
  0
LINE
  5
1E1
330
1F
100
AcDbEntity
  8
1
  6
Continuous
 62
     7
100
AcDbLine
 10
4032.506965277446
 20
728.6147698520385
 30
0.0
 11
4974.029321923271
 21
728.6147698520385
 31
0.0
  0
LINE
  5
1E2
330
1F
100
AcDbEntity
  8
1
  6
DASHED
 62
     3
100
AcDbLine
 10
4974.029321923271
 20
786.144590541257
 30
0.0
 11
4032.500000000001
 21
786.144590541257
 31
0.0
  0
LINE
  5
1E3
330
1F
100
AcDbEntity
  8
1
  6
DASHED
 62
     3
100
AcDbLine
 10
4984.029321923271
 20
957.2194234596598
 30
0.0
 11
4984.029321923271
 21
907.2295341709098
 31
0.0
  0
LINE
  5
1E4
330
1F
100
AcDbEntity
  8
1
  6
DASHED
 62
     3
100
AcDbLine
 10
4032.513930554892
 20
967.2194234596598
 30
0.0
 11
4974.029321923271
 21
967.2194234596598
 31
0.0
  0
LINE
  5
1E5
330
1F
100
AcDbEntity
  8
1
  6
Continuous
 62
     7
100
AcDbLine
 10
4974.029321923271
 20
735.6715835766016
 30
0.0
 11
4032.500000000001
 21
735.6715835766016
 31
0.0
  0
LINE
  5
1E6
330
1F
100
AcDbEntity
  8
1
  6
Continuous
 62
     7
100
AcDbLine
 10
4984.029321923271
 20
907.2295341709098
 30
0.0
 11
4984.029321923271
 21
745.6715835766016
 31
0.0
  0
LINE
  5
1E7
330
1F
100
AcDbEntity
  8
1
  6
Continuous
 62
     7
100
AcDbLine
 10
4032.513930554892
 20
917.2295341709098
 30
0.0
 11
4974.029321923271
 21
917.2295341709098
 31
0.0
  0
LINE
  5
1E8
330
1F
100
AcDbEntity
  8
1
  6
Continuous
 62
     7
100
AcDbLine
 10
4988.518705184601
 20
272.978318097849
 30
0.0
 11
4988.518705184602
 21
133.6501530378008
 31
0.0
  0
LINE
  5
1E9
330
1F
100
AcDbEntity
  8
1
  6
Continuous
 62
     7
100
AcDbLine
 10
5017.517694359413
 20
643.4802344925811
 30
0.0
 11
5017.517694359413
 21
280.0557539661662
 31
0.0
  0
LINE
  5
1F6
330
1F
100
AcDbEntity
  8
1
  6
Continuous
 62
     7
100
AcDbLine
 10
4982.512638389017
 20
261.4155739627099
 30
0.0
 11
4983.058644461359
 21
380.3235630476464
 31
0.0
  0
LINE
  5
1F7
330
1F
100
AcDbEntity
  8
1
  6
Continuous
 62
     7
100
AcDbLine
 10
5030.01516668161
 20
397.0677492657456
 30
0.0
 11
5017.517694359413
 21
397.0677492657456
 31
0.0
  0
LINE
  5
1F8
330
1F
100
AcDbEntity
  8
1
  6
Continuous
 62
     7
100
AcDbLine
 10
5045.000000000001
 20
0.0
 30
0.0
 11
5045.000000000001
 21
382.1435832886984
 31
0.0
  0
LINE
  5
1F9
330
1F
100
AcDbEntity
  8
1
  6
Continuous
 62
     7
100
AcDbLine
 10
5014.999999692577
 20
0.0
 30
0.0
 11
5045.000000000001
 21
0.0
 31
0.0
  0
LINE
  5
1FA
330
1F
100
AcDbEntity
  8
1
  6
Continuous
 62
     7
100
AcDbLine
 10
4844.979775503541
 20
0.0
 30
0.0
 11
4844.979775503541
 21
132.9828122826926
 31
0.0
  0
LINE
  5
1FB
330
1F
100
AcDbEntity
  8
1
  6
Continuous
 62
     7
100
AcDbLine
 10
4874.979775810935
 20
0.0
 30
0.0
 11
4844.979775503541
 21
0.0
 31
0.0
  0
LINE
  5
1FC
330
1F
100
AcDbEntity
  8
1
  6
Continuous
 62
     7
100
AcDbLine
 10
4874.979775810935
 20
132.9828122826926
 30
0.0
 11
4874.979775810935
 21
0.0
 31
0.0
  0
ARC
  5
218
330
1F
100
AcDbEntity
  8
1
  6
Continuous
 62
     7
100
AcDbCircle
 10
39.89438892796397
 20
3982.06774911203
 30
0.0
 40
14.98483331833177
100
AcDbArc
 50
90.0
 51
270.0
  0
ARC
  5
219
330
1F
100
AcDbEntity
  8
1
  6
Continuous
 62
     7
100
AcDbCircle
 10
65.06820523616216
 20
4229.843178586805
 30
0.0
 40
97.28321455273648
100
AcDbArc
 50
10.23160523301913
 51
90.08880539318227
  0
ARC
  5
21A
330
1F
100
AcDbEntity
  8
1
  6
Continuous
 62
     7
100
AcDbCircle
 10
3118.166018755518
 20
4229.843178586805
 30
0.0
 40
97.28321455273648
100
AcDbArc
 50
10.23160523301913
 51
90.08880539318227
  0
ARC
  5
21B
330
1F
100
AcDbEntity
  8
1
  6
Continuous
 62
     7
100
AcDbCircle
 10
3092.99220244732
 20
3982.06774911203
 30
0.0
 40
14.98483331833177
100
AcDbArc
 50
90.0
 51
270.0
  0
ARC
  5
21C
330
1F
100
AcDbEntity
  8
1
  6
Continuous
 62
     7
100
AcDbCircle
 10
1570.031968345566
 20
2782.114657183715
 30
0.0
 40
14.96809609251487
100
AcDbArc
 50
0.16812248602641
 51
90.06431443449758
  0
ARC
  5
21D
330
1F
100
AcDbEntity
  8
1
  6
Continuous
 62
     7
100
AcDbCircle
 10
1569.648869318894
 20
2781.839484261964
 30
0.0
 40
15.24766003403691
100
AcDbArc
 50
88.62344044379957
 51
142.7128114464425
  0
ARC
  5
21E
330
1F
100
AcDbEntity
  8
1
  6
DASHED
 62
     3
100
AcDbCircle
 10
1566.176840464062
 20
2771.087936272997
 30
0.0
 40
31.544297921131
100
AcDbArc
 50
69.51611737537411
 51
105.9326660513676
  0
ARC
  5
21F
330
1F
100
AcDbEntity
  8
1
  6
DASHED
 62
     3
100
AcDbCircle
 10
1619.570339744499
 20
2851.166334475427
 30
0.0
 40
65.932299431319
100
AcDbArc
 50
230.0291480178171
 51
266.2094671458533
  0
ARC
  5
220
330
1F
100
AcDbEntity
  8
1
  6
DASHED
 62
     3
100
AcDbCircle
 10
1623.214458512519
 20
2973.641551375291
 30
0.0
 40
188.4333018035078
100
AcDbArc
 50
267.5658927715951
 51
310.075772292537
  0
ARC
  5
221
330
1F
100
AcDbEntity
  8
1
  6
DASHED
 62
     3
100
AcDbCircle
 10
1711.775397314052
 20
2864.682303542764
 30
0.0
 40
48.10182809737999
100
AcDbArc
 50
312.9138647380804
 51
346.7698523653373
  0
ARC
  5
222
330
1F
100
AcDbEntity
  8
1
  6
DASHED
 62
     3
100
AcDbCircle
 10
1737.911148951085
 20
2857.320669658562
 30
0.0
 40
21.00838138469804
100
AcDbArc
 50
350.0026778561983
 51
61.28951253984125
  0
ARC
  5
223
330
1F
100
AcDbEntity
  8
1
  6
DASHED
 62
     3
100
AcDbCircle
 10
1730.896263635174
 20
2847.174057033776
 30
0.0
 40
33.30192943197451
100
AcDbArc
 50
59.08984978884799
 51
82.09355312900703
  0
ARC
  5
224
330
1F
100
AcDbEntity
  8
1
  6
DASHED
 62
     3
100
AcDbCircle
 10
1602.594515171672
 20
1963.411310234258
 30
0.0
 40
926.3287138799026
100
AcDbArc
 50
81.75241918057668
 51
95.18037669236772
  0
ARC
  5
225
330
1F
100
AcDbEntity
  8
1
  6
DASHED
 62
     3
100
AcDbCircle
 10
1530.68875370316
 20
2770.498573791433
 30
0.0
 40
116.0524673915391
100
AcDbArc
 50
95.80298174943533
 51
110.878638683457
  0
ARC
  5
226
330
1F
100
AcDbEntity
  8
1
  6
DASHED
 62
     3
100
AcDbCircle
 10
1496.897765510461
 20
2859.406906783995
 30
0.0
 40
20.93963572095111
100
AcDbArc
 50
111.1901001741078
 51
144.5288474674263
  0
ARC
  5
227
330
1F
100
AcDbEntity
  8
1
  6
Continuous
 62
     7
100
AcDbCircle
 10
1874.138128739193
 20
2889.136227189439
 30
0.0
 40
407.8016430444227
100
AcDbArc
 50
162.4210885619583
 51
175.6944440501525
  0
ARC
  5
228
330
1F
100
AcDbEntity
  8
1
  6
Continuous
 62
     7
100
AcDbCircle
 10
1525.64126120149
 20
3002.924933860883
 30
0.0
 40
41.3383432788459
100
AcDbArc
 50
113.0728079932371
 51
166.8917999459591
  0
ARC
  5
229
330
1F
100
AcDbEntity
  8
1
  6
Continuous
 62
     7
100
AcDbCircle
 10
1547.830520553905
 20
2905.548321876213
 30
0.0
 40
140.7450040011641
100
AcDbArc
 50
87.08011834692947
 51
105.8286414653187
  0
ARC
  5
22A
330
1F
100
AcDbEntity
  8
1
  6
Continuous
 62
     7
100
AcDbCircle
 10
1555.105647568757
 20
3043.6927858855
 30
0.0
 40
2.420123636184387
100
AcDbArc
 50
355.3176852989743
 51
92.50198028476711
  0
ARC
  5
22B
330
1F
100
AcDbEntity
  8
1
  6
Continuous
 62
     1
100
AcDbCircle
 10
1533.49268372218
 20
3031.00195023911
 30
0.0
 40
97.68633241038673
100
AcDbArc
 50
98.78904671904684
 51
128.3236632849805
  0
ARC
  5
22C
330
1F
100
AcDbEntity
  8
1
  6
Continuous
 62
     1
100
AcDbCircle
 10
783.6114794947471
 20
3031.932302157952
 30
0.0
 40
96.77472626087624
100
AcDbArc
 50
51.50019561818035
 51
81.38351057215083
  0
ARC
  5
22D
330
1F
100
AcDbEntity
  8
1
  6
Continuous
 62
     1
100
AcDbCircle
 10
830.5607817105201
 20
2782.310530842788
 30
0.0
 40
38.04782856081418
100
AcDbArc
 50
100.5788938053142
 51
179.589313013837
  0
ARC
  5
22E
330
1F
100
AcDbEntity
  8
1
  6
Continuous
 62
     7
100
AcDbCircle
 10
802.9134092546856
 20
2805.749028187524
 30
0.0
 40
10.65392359937805
100
AcDbArc
 50
108.3952753755296
 51
167.4527696550388
  0
ARC
  5
22F
330
1F
100
AcDbEntity
  8
1
  6
Continuous
 62
     7
100
AcDbCircle
 10
822.0608103144714
 20
2752.333786090505
 30
0.0
 40
67.39490189941543
100
AcDbArc
 50
88.71208507317392
 51
109.5113529367606
  0
ARC
  5
230
330
1F
100
AcDbEntity
  8
1
  6
Continuous
 62
     7
100
AcDbCircle
 10
1480.047547037222
 20
2776.712354003782
 30
0.0
 40
43.16368675581712
100
AcDbArc
 50
4.81912812903716
 51
95.00194487780712
  0
ARC
  5
231
330
1F
100
AcDbEntity
  8
1
  6
Continuous
 62
     7
100
AcDbCircle
 10
1528.537989510629
 20
2539.690498739975
 30
0.0
 40
6.025381981579203
100
AcDbArc
 50
180.1833763203399
 51
269.8166236793185
  0
ARC
  5
232
330
1F
100
AcDbEntity
  8
1
  6
Continuous
 62
     7
100
AcDbCircle
 10
1549.349089175847
 20
2631.34709767506
 30
0.0
 40
46.5651384764176
100
AcDbArc
 50
83.0296923849692
 51
116.5730592614439
  0
ARC
  5
233
330
1F
100
AcDbEntity
  8
1
  6
DASHED
 62
     3
100
AcDbCircle
 10
1534.348773933401
 20
2828.127108098642
 30
0.0
 40
69.69200693443315
100
AcDbArc
 50
141.4510005909585
 51
171.2316988433633
  0
ARC
  5
234
330
1F
100
AcDbEntity
  8
1
  6
Continuous
 62
     7
100
AcDbCircle
 10
2222.540075307788
 20
2861.713260389118
 30
0.0
 40
757.2800744040142
100
AcDbArc
 50
175.6044728411423
 51
183.1794707587365
  0
ARC
  5
235
330
1F
100
AcDbEntity
  8
1
  6
Continuous
 62
     7
100
AcDbCircle
 10
1555.005110250435
 20
2680.080679885865
 30
0.0
 40
2.512603735599286
100
AcDbArc
 50
269.8834620859503
 51
0.22646373652164
  0
ARC
  5
236
330
1F
100
AcDbEntity
  8
1
  6
Continuous
 62
     7
100
AcDbCircle
 10
29.99488974956512
 20
2680.080679885865
 30
0.0
 40
2.512603735597477
100
AcDbArc
 50
179.7735362634784
 51
270.1165379140393
  0
ARC
  5
237
330
1F
100
AcDbEntity
  8
1
  6
Continuous
 62
     7
100
AcDbCircle
 10
-637.5400753077884
 20
2861.713260389118
 30
0.0
 40
757.2800744040142
100
AcDbArc
 50
356.8205292412635
 51
4.3955271588577
  0
ARC
  5
238
330
1F
100
AcDbEntity
  8
1
  6
DASHED
 62
     3
100
AcDbCircle
 10
50.65122606659952
 20
2828.127108098642
 30
0.0
 40
69.69200693443297
100
AcDbArc
 50
8.7683011566367
 51
38.54899940904186
  0
ARC
  5
239
330
1F
100
AcDbEntity
  8
1
  6
Continuous
 62
     7
100
AcDbCircle
 10
35.65091082415347
 20
2631.34709767506
 30
0.0
 40
46.56513847641778
100
AcDbArc
 50
63.42694073855611
 51
96.97030761503164
  0
ARC
  5
23A
330
1F
100
AcDbEntity
  8
1
  6
Continuous
 62
     7
100
AcDbCircle
 10
56.4620104893711
 20
2539.690498739975
 30
0.0
 40
6.025381981580229
100
AcDbArc
 50
270.1833763206857
 51
359.8166236796601
  0
ARC
  5
23B
330
1F
100
AcDbEntity
  8
1
  6
Continuous
 62
     7
100
AcDbCircle
 10
104.9524529627779
 20
2776.712354003782
 30
0.0
 40
43.16368675581931
100
AcDbArc
 50
84.99805512219292
 51
175.1808718709629
  0
ARC
  5
23C
330
1F
100
AcDbEntity
  8
1
  6
Continuous
 62
     7
100
AcDbCircle
 10
762.9531202404196
 20
2752.333786090505
 30
0.0
 40
67.39490189941485
100
AcDbArc
 50
70.48864706323944
 51
91.2879149268091
  0
ARC
  5
23D
330
1F
100
AcDbEntity
  8
1
  6
Continuous
 62
     7
100
AcDbCircle
 10
782.1005213002054
 20
2805.749028187524
 30
0.0
 40
10.65392359937839
100
AcDbArc
 50
12.54723034496116
 51
71.60472462447046
  0
ARC
  5
23E
330
1F
100
AcDbEntity
  8
1
  6
Continuous
 62
     1
100
AcDbCircle
 10
754.4531488443708
 20
2782.310530842788
 30
0.0
 40
38.04782856081393
100
AcDbArc
 50
0.41068698616303
 51
79.42110619468585
  0
ARC
  5
23F
330
1F
100
AcDbEntity
  8
1
  6
Continuous
 62
     1
100
AcDbCircle
 10
801.3885205052529
 20
3031.932302157952
 30
0.0
 40
96.77472626087649
100
AcDbArc
 50
98.61648942784916
 51
128.4998043818196
  0
ARC
  5
240
330
1F
100
AcDbEntity
  8
1
  6
Continuous
 62
     1
100
AcDbCircle
 10
51.50731627781988
 20
3031.00195023911
 30
0.0
 40
97.68633241038654
100
AcDbArc
 50
51.67633671501929
 51
81.21095328095329
  0
ARC
  5
241
330
1F
100
AcDbEntity
  8
1
  6
Continuous
 62
     7
100
AcDbCircle
 10
29.89435243124262
 20
3043.6927858855
 30
0.0
 40
2.420123636182398
100
AcDbArc
 50
87.49801971522741
 51
184.6823147010257
  0
ARC
  5
242
330
1F
100
AcDbEntity
  8
1
  6
Continuous
 62
     7
100
AcDbCircle
 10
37.16947944609456
 20
2905.548321876213
 30
0.0
 40
140.7450040011645
100
AcDbArc
 50
74.1713585346809
 51
92.91988165307045
  0
ARC
  5
243
330
1F
100
AcDbEntity
  8
1
  6
Continuous
 62
     7
100
AcDbCircle
 10
59.35873879850988
 20
3002.924933860883
 30
0.0
 40
41.33834327884586
100
AcDbArc
 50
13.10820005404088
 51
66.92719200676204
  0
ARC
  5
244
330
1F
100
AcDbEntity
  8
1
  6
Continuous
 62
     7
100
AcDbCircle
 10
-289.1381287391932
 20
2889.136227189439
 30
0.0
 40
407.8016430444231
100
AcDbArc
 50
4.30555594984752
 51
17.57891143804173
  0
ARC
  5
245
330
1F
100
AcDbEntity
  8
1
  6
DASHED
 62
     3
100
AcDbCircle
 10
88.10223448953911
 20
2859.406906783995
 30
0.0
 40
20.939635720951
100
AcDbArc
 50
35.47115253257447
 51
68.80989982589332
  0
ARC
  5
246
330
1F
100
AcDbEntity
  8
1
  6
DASHED
 62
     3
100
AcDbCircle
 10
54.31124629684018
 20
2770.498573791433
 30
0.0
 40
116.0524673915383
100
AcDbArc
 50
69.12136131654319
 51
84.19701825056491
  0
ARC
  5
247
330
1F
100
AcDbEntity
  8
1
  6
DASHED
 62
     3
100
AcDbCircle
 10
-17.59451517167236
 20
1963.411310234258
 30
0.0
 40
926.3287138799024
100
AcDbArc
 50
84.81962330763228
 51
98.24758081942329
  0
ARC
  5
248
330
1F
100
AcDbEntity
  8
1
  6
DASHED
 62
     3
100
AcDbCircle
 10
-145.8962636351744
 20
2847.174057033776
 30
0.0
 40
33.30192943197489
100
AcDbArc
 50
97.9064468709921
 51
120.9101502111513
  0
ARC
  5
249
330
1F
100
AcDbEntity
  8
1
  6
DASHED
 62
     3
100
AcDbCircle
 10
-152.9111489510851
 20
2857.320669658562
 30
0.0
 40
21.00838138469627
100
AcDbArc
 50
118.7104874601583
 51
189.9973221438021
  0
ARC
  5
24A
330
1F
100
AcDbEntity
  8
1
  6
DASHED
 62
     3
100
AcDbCircle
 10
-126.7753973140516
 20
2864.682303542764
 30
0.0
 40
48.1018280973802
100
AcDbArc
 50
193.2301476346626
 51
227.0861352619197
  0
ARC
  5
24B
330
1F
100
AcDbEntity
  8
1
  6
DASHED
 62
     3
100
AcDbCircle
 10
-38.21445851251883
 20
2973.641551375291
 30
0.0
 40
188.4333018035079
100
AcDbArc
 50
229.924227707463
 51
272.4341072284047
  0
ARC
  5
24C
330
1F
100
AcDbEntity
  8
1
  6
DASHED
 62
     3
100
AcDbCircle
 10
-34.5703397444986
 20
2851.166334475427
 30
0.0
 40
65.93229943131874
100
AcDbArc
 50
273.7905328541461
 51
309.9708519821829
  0
ARC
  5
24D
330
1F
100
AcDbEntity
  8
1
  6
DASHED
 62
     3
100
AcDbCircle
 10
18.82315953593843
 20
2771.087936272997
 30
0.0
 40
31.54429792113101
100
AcDbArc
 50
74.06733394863404
 51
110.4838826246259
  0
ARC
  5
24E
330
1F
100
AcDbEntity
  8
1
  6
Continuous
 62
     7
100
AcDbCircle
 10
15.35113068110604
 20
2781.839484261964
 30
0.0
 40
15.24766003403759
100
AcDbArc
 50
37.28718855355856
 51
91.3765595562013
  0
ARC
  5
24F
330
1F
100
AcDbEntity
  8
1
  6
Continuous
 62
     7
100
AcDbCircle
 10
14.96803165443453
 20
2782.114657183715
 30
0.0
 40
14.96809609251475
100
AcDbArc
 50
89.93568556550507
 51
179.8318775139736
  0
ARC
  5
250
330
1F
100
AcDbEntity
  8
1
  6
Continuous
 62
     7
100
AcDbCircle
 10
14.96803165443453
 20
1582.099662603154
 30
0.0
 40
14.96809609251543
100
AcDbArc
 50
89.93568556550507
 51
179.8318775139736
  0
ARC
  5
251
330
1F
100
AcDbEntity
  8
1
  6
Continuous
 62
     7
100
AcDbCircle
 10
15.35113068110604
 20
1581.824489681404
 30
0.0
 40
15.24766003403704
100
AcDbArc
 50
37.28718855355584
 51
91.3765595562013
  0
ARC
  5
252
330
1F
100
AcDbEntity
  8
1
  6
DASHED
 62
     3
100
AcDbCircle
 10
18.82315953593843
 20
1571.072941692436
 30
0.0
 40
31.54429792113123
100
AcDbArc
 50
74.06733394863416
 51
110.4838826246252
  0
ARC
  5
253
330
1F
100
AcDbEntity
  8
1
  6
DASHED
 62
     3
100
AcDbCircle
 10
-34.5703397444986
 20
1651.151339894866
 30
0.0
 40
65.93229943131762
100
AcDbArc
 50
273.7905328541461
 51
309.9708519821835
  0
ARC
  5
254
330
1F
100
AcDbEntity
  8
1
  6
DASHED
 62
     3
100
AcDbCircle
 10
-38.21445851251883
 20
1773.62655679473
 30
0.0
 40
188.4333018035081
100
AcDbArc
 50
229.9242277074631
 51
272.4341072284047
  0
ARC
  5
255
330
1F
100
AcDbEntity
  8
1
  6
DASHED
 62
     3
100
AcDbCircle
 10
-126.7753973140516
 20
1664.667308962204
 30
0.0
 40
48.10182809738041
100
AcDbArc
 50
193.2301476346637
 51
227.0861352619204
  0
ARC
  5
256
330
1F
100
AcDbEntity
  8
1
  6
DASHED
 62
     3
100
AcDbCircle
 10
-152.9111489510851
 20
1657.305675078001
 30
0.0
 40
21.00838138469707
100
AcDbArc
 50
118.7104874601571
 51
189.9973221438021
  0
ARC
  5
257
330
1F
100
AcDbEntity
  8
1
  6
DASHED
 62
     3
100
AcDbCircle
 10
-145.8962636351744
 20
1647.159062453215
 30
0.0
 40
33.30192943197512
100
AcDbArc
 50
97.90644687099204
 51
120.9101502111505
  0
ARC
  5
258
330
1F
100
AcDbEntity
  8
1
  6
DASHED
 62
     3
100
AcDbCircle
 10
-17.59451517167236
 20
763.3963156536975
 30
0.0
 40
926.3287138799019
100
AcDbArc
 50
84.81962330763227
 51
98.24758081942329
  0
ARC
  5
259
330
1F
100
AcDbEntity
  8
1
  6
DASHED
 62
     3
100
AcDbCircle
 10
54.31124629684018
 20
1570.483579210872
 30
0.0
 40
116.0524673915385
100
AcDbArc
 50
69.12136131654324
 51
84.19701825056491
  0
ARC
  5
25A
330
1F
100
AcDbEntity
  8
1
  6
DASHED
 62
     3
100
AcDbCircle
 10
88.10223448953911
 20
1659.391912203434
 30
0.0
 40
20.939635720951
100
AcDbArc
 50
35.47115253257447
 51
68.80989982589354
  0
ARC
  5
25B
330
1F
100
AcDbEntity
  8
1
  6
Continuous
 62
     7
100
AcDbCircle
 10
-289.1381287391932
 20
1689.121232608878
 30
0.0
 40
407.8016430444231
100
AcDbArc
 50
4.30555594984755
 51
17.57891143804176
  0
ARC
  5
25C
330
1F
100
AcDbEntity
  8
1
  6
Continuous
 62
     7
100
AcDbCircle
 10
59.35873879850988
 20
1802.909939280323
 30
0.0
 40
41.33834327884566
100
AcDbArc
 50
13.10820005403965
 51
66.92719200676154
  0
ARC
  5
25D
330
1F
100
AcDbEntity
  8
1
  6
Continuous
 62
     7
100
AcDbCircle
 10
37.16947944609456
 20
1705.533327295652
 30
0.0
 40
140.7450040011645
100
AcDbArc
 50
74.1713585346809
 51
92.91988165307043
  0
ARC
  5
25E
330
1F
100
AcDbEntity
  8
1
  6
Continuous
 62
     7
100
AcDbCircle
 10
29.89435243124262
 20
1843.67779130494
 30
0.0
 40
2.420123636182625
100
AcDbArc
 50
87.49801971522764
 51
184.6823147010472
  0
ARC
  5
25F
330
1F
100
AcDbEntity
  8
1
  6
Continuous
 62
     1
100
AcDbCircle
 10
51.50731627781988
 20
1830.986955658549
 30
0.0
 40
97.68633241038744
100
AcDbArc
 50
51.67633671501969
 51
81.21095328095339
  0
ARC
  5
260
330
1F
100
AcDbEntity
  8
1
  6
Continuous
 62
     1
100
AcDbCircle
 10
911.3885205052529
 20
1831.917307577391
 30
0.0
 40
96.77472626087672
100
AcDbArc
 50
98.61648942784916
 51
128.4998043818193
  0
ARC
  5
261
330
1F
100
AcDbEntity
  8
1
  6
Continuous
 62
     1
100
AcDbCircle
 10
864.4531488443708
 20
1582.295536262227
 30
0.0
 40
38.04782856081394
100
AcDbArc
 50
0.41068698616474
 51
79.42110619468578
  0
ARC
  5
262
330
1F
100
AcDbEntity
  8
1
  6
Continuous
 62
     7
100
AcDbCircle
 10
892.1005213002054
 20
1605.734033606964
 30
0.0
 40
10.65392359937814
100
AcDbArc
 50
12.54723034495519
 51
71.60472462446853
  0
ARC
  5
263
330
1F
100
AcDbEntity
  8
1
  6
Continuous
 62
     7
100
AcDbCircle
 10
872.9531202404196
 20
1552.318791509944
 30
0.0
 40
67.39490189941465
100
AcDbArc
 50
70.48864706323937
 51
91.2879149268091
  0
ARC
  5
264
330
1F
100
AcDbEntity
  8
1
  6
Continuous
 62
     7
100
AcDbCircle
 10
104.9524529627779
 20
1576.697359423222
 30
0.0
 40
43.16368675581795
100
AcDbArc
 50
84.99805512219277
 51
175.1808718709632
  0
ARC
  5
265
330
1F
100
AcDbEntity
  8
1
  6
Continuous
 62
     7
100
AcDbCircle
 10
56.4620104893711
 20
1339.675504159415
 30
0.0
 40
6.025381981581366
100
AcDbArc
 50
270.1833763206857
 51
359.8166236796601
  0
ARC
  5
266
330
1F
100
AcDbEntity
  8
1
  6
Continuous
 62
     7
100
AcDbCircle
 10
35.65091082415347
 20
1431.332103094499
 30
0.0
 40
46.5651384764188
100
AcDbArc
 50
63.42694073855674
 51
96.97030761503144
  0
ARC
  5
267
330
1F
100
AcDbEntity
  8
1
  6
DASHED
 62
     3
100
AcDbCircle
 10
50.65122606659952
 20
1628.112113518081
 30
0.0
 40
69.69200693443311
100
AcDbArc
 50
8.76830115663745
 51
38.54899940904186
  0
ARC
  5
268
330
1F
100
AcDbEntity
  8
1
  6
Continuous
 62
     7
100
AcDbCircle
 10
-637.5400753077884
 20
1661.698265808557
 30
0.0
 40
757.2800744040142
100
AcDbArc
 50
356.8205292412635
 51
4.39552715885774
  0
ARC
  5
269
330
1F
100
AcDbEntity
  8
1
  6
Continuous
 62
     7
100
AcDbCircle
 10
29.99488974956512
 20
1480.065685305304
 30
0.0
 40
2.512603735597476
100
AcDbArc
 50
179.7735362634836
 51
270.1165379140393
  0
ARC
  5
26A
330
1F
100
AcDbEntity
  8
1
  6
Continuous
 62
     7
100
AcDbCircle
 10
1775.005110250435
 20
1480.065685305304
 30
0.0
 40
2.512603735598149
100
AcDbArc
 50
269.8834620859502
 51
0.22646373651646
  0
ARC
  5
26B
330
1F
100
AcDbEntity
  8
1
  6
Continuous
 62
     7
100
AcDbCircle
 10
2442.540075307788
 20
1661.698265808557
 30
0.0
 40
757.2800744040142
100
AcDbArc
 50
175.6044728411423
 51
183.1794707587365
  0
ARC
  5
26C
330
1F
100
AcDbEntity
  8
1
  6
DASHED
 62
     3
100
AcDbCircle
 10
1754.348773933401
 20
1628.112113518081
 30
0.0
 40
69.69200693443315
100
AcDbArc
 50
141.4510005909585
 51
171.2316988433626
  0
ARC
  5
26D
330
1F
100
AcDbEntity
  8
1
  6
Continuous
 62
     7
100
AcDbCircle
 10
1769.349089175847
 20
1431.332103094499
 30
0.0
 40
46.56513847641896
100
AcDbArc
 50
83.0296923849694
 51
116.5730592614433
  0
ARC
  5
26E
330
1F
100
AcDbEntity
  8
1
  6
Continuous
 62
     7
100
AcDbCircle
 10
1748.537989510629
 20
1339.675504159415
 30
0.0
 40
6.025381981579203
100
AcDbArc
 50
180.1833763203399
 51
269.8166236793185
  0
ARC
  5
26F
330
1F
100
AcDbEntity
  8
1
  6
Continuous
 62
     7
100
AcDbCircle
 10
1700.047547037222
 20
1576.697359423222
 30
0.0
 40
43.1636867558171
100
AcDbArc
 50
4.81912812903686
 51
95.00194487780729
  0
ARC
  5
270
330
1F
100
AcDbEntity
  8
1
  6
Continuous
 62
     7
100
AcDbCircle
 10
932.0608103144714
 20
1552.318791509944
 30
0.0
 40
67.39490189941498
100
AcDbArc
 50
88.71208507317391
 51
109.5113529367606
  0
ARC
  5
271
330
1F
100
AcDbEntity
  8
1
  6
Continuous
 62
     7
100
AcDbCircle
 10
912.9134092546856
 20
1605.734033606964
 30
0.0
 40
10.65392359937697
100
AcDbArc
 50
108.3952753755315
 51
167.4527696550448
  0
ARC
  5
272
330
1F
100
AcDbEntity
  8
1
  6
Continuous
 62
     1
100
AcDbCircle
 10
940.5607817105201
 20
1582.295536262227
 30
0.0
 40
38.04782856081412
100
AcDbArc
 50
100.5788938053156
 51
179.5893130138353
  0
ARC
  5
273
330
1F
100
AcDbEntity
  8
1
  6
Continuous
 62
     1
100
AcDbCircle
 10
893.6114794947471
 20
1831.917307577391
 30
0.0
 40
96.77472626087695
100
AcDbArc
 50
51.50019561818068
 51
81.38351057215087
  0
ARC
  5
274
330
1F
100
AcDbEntity
  8
1
  6
Continuous
 62
     1
100
AcDbCircle
 10
1753.49268372218
 20
1830.986955658549
 30
0.0
 40
97.68633241038786
100
AcDbArc
 50
98.78904671904674
 51
128.3236632849801
  0
ARC
  5
275
330
1F
100
AcDbEntity
  8
1
  6
Continuous
 62
     7
100
AcDbCircle
 10
1775.105647568757
 20
1843.67779130494
 30
0.0
 40
2.420123636184461
100
AcDbArc
 50
355.3176852989528
 51
92.5019802847669
  0
ARC
  5
276
330
1F
100
AcDbEntity
  8
1
  6
Continuous
 62
     7
100
AcDbCircle
 10
1767.830520553905
 20
1705.533327295652
 30
0.0
 40
140.745004001165
100
AcDbArc
 50
87.08011834692948
 51
105.8286414653187
  0
ARC
  5
277
330
1F
100
AcDbEntity
  8
1
  6
Continuous
 62
     7
100
AcDbCircle
 10
1745.64126120149
 20
1802.909939280323
 30
0.0
 40
41.33834327884506
100
AcDbArc
 50
113.0728079932376
 51
166.8917999459603
  0
ARC
  5
278
330
1F
100
AcDbEntity
  8
1
  6
Continuous
 62
     7
100
AcDbCircle
 10
2094.138128739193
 20
1689.121232608878
 30
0.0
 40
407.8016430444225
100
AcDbArc
 50
162.4210885619582
 51
175.6944440501525
  0
ARC
  5
279
330
1F
100
AcDbEntity
  8
1
  6
DASHED
 62
     3
100
AcDbCircle
 10
1716.897765510461
 20
1659.391912203434
 30
0.0
 40
20.93963572095132
100
AcDbArc
 50
111.1901001741076
 51
144.5288474674263
  0
ARC
  5
27A
330
1F
100
AcDbEntity
  8
1
  6
DASHED
 62
     3
100
AcDbCircle
 10
1750.68875370316
 20
1570.483579210872
 30
0.0
 40
116.0524673915391
100
AcDbArc
 50
95.80298174943533
 51
110.878638683457
  0
ARC
  5
27B
330
1F
100
AcDbEntity
  8
1
  6
DASHED
 62
     3
100
AcDbCircle
 10
1822.594515171672
 20
763.3963156536975
 30
0.0
 40
926.3287138799024
100
AcDbArc
 50
81.75241918057668
 51
95.18037669236772
  0
ARC
  5
27C
330
1F
100
AcDbEntity
  8
1
  6
DASHED
 62
     3
100
AcDbCircle
 10
1950.896263635174
 20
1647.159062453215
 30
0.0
 40
33.3019294319753
100
AcDbArc
 50
59.08984978884878
 51
82.09355312900709
  0
ARC
  5
27D
330
1F
100
AcDbEntity
  8
1
  6
DASHED
 62
     3
100
AcDbCircle
 10
1957.911148951085
 20
1657.305675078001
 30
0.0
 40
21.00838138469804
100
AcDbArc
 50
350.0026778561983
 51
61.28951253984243
  0
ARC
  5
27E
330
1F
100
AcDbEntity
  8
1
  6
DASHED
 62
     3
100
AcDbCircle
 10
1931.775397314052
 20
1664.667308962204
 30
0.0
 40
48.10182809738065
100
AcDbArc
 50
312.9138647380797
 51
346.7698523653363
  0
ARC
  5
27F
330
1F
100
AcDbEntity
  8
1
  6
DASHED
 62
     3
100
AcDbCircle
 10
1843.214458512519
 20
1773.62655679473
 30
0.0
 40
188.4333018035069
100
AcDbArc
 50
267.5658927715951
 51
310.075772292537
  0
ARC
  5
280
330
1F
100
AcDbEntity
  8
1
  6
DASHED
 62
     3
100
AcDbCircle
 10
1839.570339744499
 20
1651.151339894866
 30
0.0
 40
65.93229943131813
100
AcDbArc
 50
230.0291480178165
 51
266.2094671458532
  0
ARC
  5
281
330
1F
100
AcDbEntity
  8
1
  6
DASHED
 62
     3
100
AcDbCircle
 10
1786.176840464062
 20
1571.072941692436
 30
0.0
 40
31.54429792113206
100
AcDbArc
 50
69.51611737537483
 51
105.9326660513674
  0
ARC
  5
282
330
1F
100
AcDbEntity
  8
1
  6
Continuous
 62
     7
100
AcDbCircle
 10
1789.648869318894
 20
1581.824489681404
 30
0.0
 40
15.24766003403691
100
AcDbArc
 50
88.62344044379957
 51
142.7128114464452
  0
ARC
  5
283
330
1F
100
AcDbEntity
  8
1
  6
Continuous
 62
     7
100
AcDbCircle
 10
1790.031968345566
 20
1582.099662603154
 30
0.0
 40
14.96809609251487
100
AcDbArc
 50
0.16812248602641
 51
90.06431443449758
  0
ARC
  5
284
330
1F
100
AcDbEntity
  8
1
  6
Continuous
 62
     7
100
AcDbCircle
 10
3014.968031654435
 20
2782.114657183715
 30
0.0
 40
14.96809609251475
100
AcDbArc
 50
89.93568556550677
 51
179.8318775139736
  0
ARC
  5
285
330
1F
100
AcDbEntity
  8
1
  6
Continuous
 62
     7
100
AcDbCircle
 10
3015.351130681106
 20
2781.839484261964
 30
0.0
 40
15.24766003403795
100
AcDbArc
 50
37.28718855355751
 51
91.3765595562013
  0
ARC
  5
286
330
1F
100
AcDbEntity
  8
1
  6
DASHED
 62
     3
100
AcDbCircle
 10
3018.823159535938
 20
2771.087936272997
 30
0.0
 40
31.54429792113126
100
AcDbArc
 50
74.06733394863245
 51
110.4838826246259
  0
ARC
  5
287
330
1F
100
AcDbEntity
  8
1
  6
DASHED
 62
     3
100
AcDbCircle
 10
2965.429660255501
 20
2851.166334475427
 30
0.0
 40
65.93229943131877
100
AcDbArc
 50
273.7905328541465
 51
309.9708519821829
  0
ARC
  5
288
330
1F
100
AcDbEntity
  8
1
  6
DASHED
 62
     3
100
AcDbCircle
 10
2961.785541487481
 20
2973.641551375291
 30
0.0
 40
188.4333018035076
100
AcDbArc
 50
229.9242277074631
 51
272.4341072284047
  0
ARC
  5
289
330
1F
100
AcDbEntity
  8
1
  6
DASHED
 62
     3
100
AcDbCircle
 10
2873.224602685948
 20
2864.682303542764
 30
0.0
 40
48.10182809738021
100
AcDbArc
 50
193.2301476346626
 51
227.0861352619204
  0
ARC
  5
28A
330
1F
100
AcDbEntity
  8
1
  6
DASHED
 62
     3
100
AcDbCircle
 10
2847.088851048915
 20
2857.320669658562
 30
0.0
 40
21.00838138469626
100
AcDbArc
 50
118.7104874601582
 51
189.9973221438019
  0
ARC
  5
28B
330
1F
100
AcDbEntity
  8
1
  6
DASHED
 62
     3
100
AcDbCircle
 10
2854.103736364826
 20
2847.174057033776
 30
0.0
 40
33.30192943197496
100
AcDbArc
 50
97.90644687099298
 51
120.910150211152
  0
ARC
  5
28C
330
1F
100
AcDbEntity
  8
1
  6
DASHED
 62
     3
100
AcDbCircle
 10
2982.405484828328
 20
1963.411310234258
 30
0.0
 40
926.3287138799024
100
AcDbArc
 50
84.81962330763228
 51
98.24758081942333
  0
ARC
  5
28D
330
1F
100
AcDbEntity
  8
1
  6
DASHED
 62
     3
100
AcDbCircle
 10
3054.31124629684
 20
2770.498573791433
 30
0.0
 40
116.0524673915383
100
AcDbArc
 50
69.12136131654319
 51
84.19701825056468
  0
ARC
  5
28E
330
1F
100
AcDbEntity
  8
1
  6
DASHED
 62
     3
100
AcDbCircle
 10
3088.102234489539
 20
2859.406906783995
 30
0.0
 40
20.93963572095139
100
AcDbArc
 50
35.4711525325737
 51
68.80989982589332
  0
ARC
  5
28F
330
1F
100
AcDbEntity
  8
1
  6
Continuous
 62
     7
100
AcDbCircle
 10
2710.861871260807
 20
2889.136227189439
 30
0.0
 40
407.8016430444231
100
AcDbArc
 50
4.30555594984752
 51
17.57891143804175
  0
ARC
  5
290
330
1F
100
AcDbEntity
  8
1
  6
Continuous
 62
     7
100
AcDbCircle
 10
3059.35873879851
 20
3002.924933860883
 30
0.0
 40
41.33834327884587
100
AcDbArc
 50
13.10820005404087
 51
66.92719200676146
  0
ARC
  5
291
330
1F
100
AcDbEntity
  8
1
  6
Continuous
 62
     7
100
AcDbCircle
 10
3037.169479446095
 20
2905.548321876213
 30
0.0
 40
140.7450040011645
100
AcDbArc
 50
74.1713585346809
 51
92.91988165307045
  0
ARC
  5
292
330
1F
100
AcDbEntity
  8
1
  6
Continuous
 62
     7
100
AcDbCircle
 10
3029.894352431243
 20
3043.6927858855
 30
0.0
 40
2.420123636182398
100
AcDbArc
 50
87.4980197152275
 51
184.6823147010257
  0
ARC
  5
293
330
1F
100
AcDbEntity
  8
1
  6
Continuous
 62
     1
100
AcDbCircle
 10
3051.50731627782
 20
3031.00195023911
 30
0.0
 40
97.68633241038627
100
AcDbArc
 50
51.6763367150195
 51
81.21095328095302
  0
ARC
  5
294
330
1F
100
AcDbEntity
  8
1
  6
Continuous
 62
     1
100
AcDbCircle
 10
3038.80907099711
 20
3242.378450769567
 30
0.0
 40
108.9740779844256
100
AcDbArc
 50
284.5541824797614
 51
312.7064566784236
  0
ARC
  5
295
330
1F
100
AcDbEntity
  8
1
  6
Continuous
 62
     1
100
AcDbCircle
 10
3031.521268384798
 20
3197.650803140216
 30
0.0
 40
123.6127049509189
100
AcDbArc
 50
48.937682258785
 51
73.54917341170412
  0
ARC
  5
296
330
1F
100
AcDbEntity
  8
1
  6
Continuous
 62
     1
100
AcDbCircle
 10
3823.265916692738
 20
3194.733511802685
 30
0.0
 40
126.8782750851308
100
AcDbArc
 50
106.6962451087694
 51
130.7484884100646
  0
ARC
  5
297
330
1F
100
AcDbEntity
  8
1
  6
Continuous
 62
     1
100
AcDbCircle
 10
3823.759171237423
 20
3259.309199414106
 30
0.0
 40
127.8733965037059
100
AcDbArc
 50
229.3438904160305
 51
253.336063689676
  0
ARC
  5
298
330
1F
100
AcDbEntity
  8
1
  6
Continuous
 62
     1
100
AcDbCircle
 10
3801.388520505253
 20
3031.932302157952
 30
0.0
 40
96.77472626087649
100
AcDbArc
 50
98.61648942784916
 51
128.4998043818194
  0
ARC
  5
299
330
1F
100
AcDbEntity
  8
1
  6
Continuous
 62
     1
100
AcDbCircle
 10
3754.453148844371
 20
2782.310530842788
 30
0.0
 40
38.04782856081393
100
AcDbArc
 50
0.41068698616303
 51
79.42110619468652
  0
ARC
  5
29A
330
1F
100
AcDbEntity
  8
1
  6
Continuous
 62
     7
100
AcDbCircle
 10
3782.100521300205
 20
2805.749028187524
 30
0.0
 40
10.65392359937884
100
AcDbArc
 50
12.54723034496062
 51
71.60472462446813
  0
ARC
  5
29B
330
1F
100
AcDbEntity
  8
1
  6
Continuous
 62
     7
100
AcDbCircle
 10
3762.95312024042
 20
2752.333786090505
 30
0.0
 40
67.3949018994147
100
AcDbArc
 50
70.4886470632398
 51
91.28791492680985
  0
ARC
  5
29C
330
1F
100
AcDbEntity
  8
1
  6
Continuous
 62
     7
100
AcDbCircle
 10
3104.952452962778
 20
2776.712354003782
 30
0.0
 40
43.16368675581931
100
AcDbArc
 50
84.9980551221929
 51
175.1808718709629
  0
ARC
  5
29D
330
1F
100
AcDbEntity
  8
1
  6
Continuous
 62
     7
100
AcDbCircle
 10
3056.462010489371
 20
2539.690498739975
 30
0.0
 40
6.025381981580231
100
AcDbArc
 50
270.1833763206901
 51
359.8166236796601
  0
ARC
  5
29E
330
1F
100
AcDbEntity
  8
1
  6
Continuous
 62
     7
100
AcDbCircle
 10
3035.650910824154
 20
2631.34709767506
 30
0.0
 40
46.56513847641737
100
AcDbArc
 50
63.42694073855712
 51
96.97030761503164
  0
ARC
  5
29F
330
1F
100
AcDbEntity
  8
1
  6
DASHED
 62
     3
100
AcDbCircle
 10
3050.6512260666
 20
2828.127108098642
 30
0.0
 40
69.6920069344325
100
AcDbArc
 50
8.76830115663677
 51
38.54899940904185
  0
ARC
  5
2A0
330
1F
100
AcDbEntity
  8
1
  6
Continuous
 62
     7
100
AcDbCircle
 10
2362.459924692212
 20
2861.713260389118
 30
0.0
 40
757.2800744040136
100
AcDbArc
 50
356.8205292412635
 51
4.3955271588577
  0
ARC
  5
2A1
330
1F
100
AcDbEntity
  8
1
  6
Continuous
 62
     7
100
AcDbCircle
 10
3029.994889749565
 20
2680.080679885865
 30
0.0
 40
2.512603735597015
100
AcDbArc
 50
179.7735362634784
 51
270.1165379140497
  0
ARC
  5
2A2
330
1F
100
AcDbEntity
  8
1
  6
Continuous
 62
     7
100
AcDbCircle
 10
4555.005110250435
 20
2680.080679885865
 30
0.0
 40
2.512603735599285
100
AcDbArc
 50
269.8834620859606
 51
0.22646373652158
  0
ARC
  5
2A3
330
1F
100
AcDbEntity
  8
1
  6
Continuous
 62
     7
100
AcDbCircle
 10
5222.540075307788
 20
2861.713260389118
 30
0.0
 40
757.2800744040142
100
AcDbArc
 50
175.6044728411423
 51
183.1794707587365
  0
ARC
  5
2A4
330
1F
100
AcDbEntity
  8
1
  6
DASHED
 62
     3
100
AcDbCircle
 10
4534.348773933401
 20
2828.127108098642
 30
0.0
 40
69.69200693443334
100
AcDbArc
 50
141.4510005909586
 51
171.2316988433634
  0
ARC
  5
2A5
330
1F
100
AcDbEntity
  8
1
  6
Continuous
 62
     7
100
AcDbCircle
 10
4549.349089175847
 20
2631.34709767506
 30
0.0
 40
46.56513847641757
100
AcDbArc
 50
83.02969238496948
 51
116.5730592614449
  0
ARC
  5
2A6
330
1F
100
AcDbEntity
  8
1
  6
Continuous
 62
     7
100
AcDbCircle
 10
4528.537989510629
 20
2539.690498739975
 30
0.0
 40
6.025381981578748
100
AcDbArc
 50
180.1833763203399
 51
269.8166236793142
  0
ARC
  5
2A7
330
1F
100
AcDbEntity
  8
1
  6
Continuous
 62
     7
100
AcDbCircle
 10
4480.047547037222
 20
2776.712354003782
 30
0.0
 40
43.16368675581734
100
AcDbArc
 50
4.81912812903714
 51
95.00194487780712
  0
ARC
  5
2A8
330
1F
100
AcDbEntity
  8
1
  6
Continuous
 62
     7
100
AcDbCircle
 10
3822.060810314471
 20
2752.333786090505
 30
0.0
 40
67.39490189941544
100
AcDbArc
 50
88.71208507317314
 51
109.5113529367602
  0
ARC
  5
2A9
330
1F
100
AcDbEntity
  8
1
  6
Continuous
 62
     7
100
AcDbCircle
 10
3802.913409254686
 20
2805.749028187524
 30
0.0
 40
10.6539235993782
100
AcDbArc
 50
108.3952753755319
 51
167.4527696550394
  0
ARC
  5
2AA
330
1F
100
AcDbEntity
  8
1
  6
Continuous
 62
     1
100
AcDbCircle
 10
3830.56078171052
 20
2782.310530842788
 30
0.0
 40
38.0478285608141
100
AcDbArc
 50
100.5788938053135
 51
179.589313013837
  0
ARC
  5
2AB
330
1F
100
AcDbEntity
  8
1
  6
Continuous
 62
     1
100
AcDbCircle
 10
3783.611479494747
 20
3031.932302157952
 30
0.0
 40
96.77472626087595
100
AcDbArc
 50
51.50019561818056
 51
81.38351057215083
  0
ARC
  5
2AC
330
1F
100
AcDbEntity
  8
1
  6
Continuous
 62
     1
100
AcDbCircle
 10
3761.240828762577
 20
3259.309199414106
 30
0.0
 40
127.8733965037056
100
AcDbArc
 50
286.6639363103241
 51
310.6561095839695
  0
ARC
  5
2AD
330
1F
100
AcDbEntity
  8
1
  6
Continuous
 62
     1
100
AcDbCircle
 10
3761.748013862153
 20
3194.733511802685
 30
0.0
 40
126.8782750851316
100
AcDbArc
 50
49.25151158993528
 51
73.30375489123054
  0
ARC
  5
2AE
330
1F
100
AcDbEntity
  8
1
  6
Continuous
 62
     1
100
AcDbCircle
 10
4553.478731615202
 20
3197.650803140216
 30
0.0
 40
123.6127049509195
100
AcDbArc
 50
106.4508265882961
 51
131.0623177412147
  0
ARC
  5
2AF
330
1F
100
AcDbEntity
  8
1
  6
Continuous
 62
     1
100
AcDbCircle
 10
4546.19092900289
 20
3242.378450769567
 30
0.0
 40
108.9740779844265
100
AcDbArc
 50
227.2935433215769
 51
255.4458175202386
  0
ARC
  5
2B0
330
1F
100
AcDbEntity
  8
1
  6
Continuous
 62
     1
100
AcDbCircle
 10
4533.49268372218
 20
3031.00195023911
 30
0.0
 40
97.6863324103867
100
AcDbArc
 50
98.7890467190467
 51
128.3236632849807
  0
ARC
  5
2B1
330
1F
100
AcDbEntity
  8
1
  6
Continuous
 62
     7
100
AcDbCircle
 10
4555.105647568757
 20
3043.6927858855
 30
0.0
 40
2.420123636184387
100
AcDbArc
 50
355.3176852989743
 51
92.50198028477251
  0
ARC
  5
2B2
330
1F
100
AcDbEntity
  8
1
  6
Continuous
 62
     7
100
AcDbCircle
 10
4547.830520553905
 20
2905.548321876213
 30
0.0
 40
140.745004001164
100
AcDbArc
 50
87.08011834692957
 51
105.8286414653187
  0
ARC
  5
2B3
330
1F
100
AcDbEntity
  8
1
  6
Continuous
 62
     7
100
AcDbCircle
 10
4525.64126120149
 20
3002.924933860883
 30
0.0
 40
41.33834327884581
100
AcDbArc
 50
113.0728079932368
 51
166.8917999459591
  0
ARC
  5
2B4
330
1F
100
AcDbEntity
  8
1
  6
Continuous
 62
     7
100
AcDbCircle
 10
4874.138128739193
 20
2889.136227189439
 30
0.0
 40
407.8016430444229
100
AcDbArc
 50
162.4210885619583
 51
175.6944440501525
  0
ARC
  5
2B5
330
1F
100
AcDbEntity
  8
1
  6
DASHED
 62
     3
100
AcDbCircle
 10
4496.897765510461
 20
2859.406906783995
 30
0.0
 40
20.93963572095095
100
AcDbArc
 50
111.1901001741067
 51
144.5288474674256
  0
ARC
  5
2B6
330
1F
100
AcDbEntity
  8
1
  6
DASHED
 62
     3
100
AcDbCircle
 10
4530.68875370316
 20
2770.498573791433
 30
0.0
 40
116.052467391539
100
AcDbArc
 50
95.8029817494351
 51
110.8786386834568
  0
ARC
  5
2B7
330
1F
100
AcDbEntity
  8
1
  6
DASHED
 62
     3
100
AcDbCircle
 10
4602.594515171672
 20
1963.411310234258
 30
0.0
 40
926.3287138799026
100
AcDbArc
 50
81.75241918057672
 51
95.18037669236772
  0
ARC
  5
2B8
330
1F
100
AcDbEntity
  8
1
  6
DASHED
 62
     3
100
AcDbCircle
 10
4730.896263635174
 20
2847.174057033776
 30
0.0
 40
33.30192943197428
100
AcDbArc
 50
59.08984978884865
 51
82.09355312900782
  0
ARC
  5
2B9
330
1F
100
AcDbEntity
  8
1
  6
DASHED
 62
     3
100
AcDbCircle
 10
4737.911148951085
 20
2857.320669658562
 30
0.0
 40
21.00838138469737
100
AcDbArc
 50
350.0026778561979
 51
61.28951253984179
  0
ARC
  5
2BA
330
1F
100
AcDbEntity
  8
1
  6
DASHED
 62
     3
100
AcDbCircle
 10
4711.775397314052
 20
2864.682303542764
 30
0.0
 40
48.1018280973806
100
AcDbArc
 50
312.9138647380812
 51
346.7698523653373
  0
ARC
  5
2BB
330
1F
100
AcDbEntity
  8
1
  6
DASHED
 62
     3
100
AcDbCircle
 10
4623.214458512519
 20
2973.641551375291
 30
0.0
 40
188.4333018035078
100
AcDbArc
 50
267.5658927715953
 51
310.0757722925371
  0
ARC
  5
2BC
330
1F
100
AcDbEntity
  8
1
  6
DASHED
 62
     3
100
AcDbCircle
 10
4619.570339744499
 20
2851.166334475427
 30
0.0
 40
65.932299431319
100
AcDbArc
 50
230.0291480178171
 51
266.2094671458539
  0
ARC
  5
2BD
330
1F
100
AcDbEntity
  8
1
  6
DASHED
 62
     3
100
AcDbCircle
 10
4566.176840464062
 20
2771.087936272997
 30
0.0
 40
31.544297921131
100
AcDbArc
 50
69.51611737537411
 51
105.932666051366
  0
ARC
  5
2BE
330
1F
100
AcDbEntity
  8
1
  6
Continuous
 62
     7
100
AcDbCircle
 10
4569.648869318894
 20
2781.839484261964
 30
0.0
 40
15.24766003403692
100
AcDbArc
 50
88.6234404437987
 51
142.7128114464415
  0
ARC
  5
2BF
330
1F
100
AcDbEntity
  8
1
  6
Continuous
 62
     7
100
AcDbCircle
 10
4570.031968345566
 20
2782.114657183715
 30
0.0
 40
14.96809609251442
100
AcDbArc
 50
0.16812248602642
 51
90.06431443449846
  0
ARC
  5
2C0
330
1F
100
AcDbEntity
  8
1
  6
Continuous
 62
     7
100
AcDbCircle
 10
4790.031968345566
 20
1582.099662603154
 30
0.0
 40
14.96809609251442
100
AcDbArc
 50
0.16812248602642
 51
90.06431443449846
  0
ARC
  5
2C1
330
1F
100
AcDbEntity
  8
1
  6
Continuous
 62
     7
100
AcDbCircle
 10
4789.648869318894
 20
1581.824489681404
 30
0.0
 40
15.24766003403692
100
AcDbArc
 50
88.6234404437987
 51
142.7128114464442
  0
ARC
  5
2C2
330
1F
100
AcDbEntity
  8
1
  6
DASHED
 62
     3
100
AcDbCircle
 10
4786.176840464062
 20
1571.072941692436
 30
0.0
 40
31.54429792113206
100
AcDbArc
 50
69.51611737537483
 51
105.9326660513659
  0
ARC
  5
2C3
330
1F
100
AcDbEntity
  8
1
  6
DASHED
 62
     3
100
AcDbCircle
 10
4839.570339744499
 20
1651.151339894866
 30
0.0
 40
65.93229943131813
100
AcDbArc
 50
230.0291480178165
 51
266.2094671458538
  0
ARC
  5
2C4
330
1F
100
AcDbEntity
  8
1
  6
DASHED
 62
     3
100
AcDbCircle
 10
4843.214458512519
 20
1773.62655679473
 30
0.0
 40
188.4333018035069
100
AcDbArc
 50
267.5658927715953
 51
310.0757722925371
  0
ARC
  5
2C5
330
1F
100
AcDbEntity
  8
1
  6
DASHED
 62
     3
100
AcDbCircle
 10
4931.775397314052
 20
1664.667308962204
 30
0.0
 40
48.10182809738127
100
AcDbArc
 50
312.9138647380804
 51
346.7698523653363
  0
ARC
  5
2C6
330
1F
100
AcDbEntity
  8
1
  6
DASHED
 62
     3
100
AcDbCircle
 10
4957.911148951085
 20
1657.305675078001
 30
0.0
 40
21.00838138469737
100
AcDbArc
 50
350.0026778561979
 51
61.28951253984297
  0
ARC
  5
2C7
330
1F
100
AcDbEntity
  8
1
  6
DASHED
 62
     3
100
AcDbCircle
 10
4950.896263635174
 20
1647.159062453215
 30
0.0
 40
33.30192943197506
100
AcDbArc
 50
59.08984978884945
 51
82.09355312900786
  0
ARC
  5
2C8
330
1F
100
AcDbEntity
  8
1
  6
DASHED
 62
     3
100
AcDbCircle
 10
4822.594515171672
 20
763.3963156536975
 30
0.0
 40
926.3287138799024
100
AcDbArc
 50
81.75241918057671
 51
95.18037669236772
  0
ARC
  5
2C9
330
1F
100
AcDbEntity
  8
1
  6
DASHED
 62
     3
100
AcDbCircle
 10
4750.68875370316
 20
1570.483579210872
 30
0.0
 40
116.052467391539
100
AcDbArc
 50
95.8029817494351
 51
110.8786386834568
  0
ARC
  5
2CA
330
1F
100
AcDbEntity
  8
1
  6
DASHED
 62
     3
100
AcDbCircle
 10
4716.897765510461
 20
1659.391912203434
 30
0.0
 40
20.93963572095116
100
AcDbArc
 50
111.1901001741065
 51
144.5288474674256
  0
ARC
  5
2CB
330
1F
100
AcDbEntity
  8
1
  6
Continuous
 62
     7
100
AcDbCircle
 10
5094.138128739193
 20
1689.121232608878
 30
0.0
 40
407.801643044423
100
AcDbArc
 50
162.4210885619582
 51
175.6944440501525
  0
ARC
  5
2CC
330
1F
100
AcDbEntity
  8
1
  6
Continuous
 62
     7
100
AcDbCircle
 10
4745.64126120149
 20
1802.909939280323
 30
0.0
 40
41.33834327884497
100
AcDbArc
 50
113.0728079932373
 51
166.8917999459604
  0
ARC
  5
2CD
330
1F
100
AcDbEntity
  8
1
  6
Continuous
 62
     7
100
AcDbCircle
 10
4767.830520553905
 20
1705.533327295652
 30
0.0
 40
140.7450040011649
100
AcDbArc
 50
87.08011834692957
 51
105.8286414653187
  0
ARC
  5
2CE
330
1F
100
AcDbEntity
  8
1
  6
Continuous
 62
     7
100
AcDbCircle
 10
4775.105647568757
 20
1843.67779130494
 30
0.0
 40
2.420123636184461
100
AcDbArc
 50
355.3176852989528
 51
92.50198028477227
  0
ARC
  5
2CF
330
1F
100
AcDbEntity
  8
1
  6
Continuous
 62
     1
100
AcDbCircle
 10
4753.49268372218
 20
1830.986955658549
 30
0.0
 40
97.68633241038782
100
AcDbArc
 50
98.7890467190466
 51
128.3236632849803
  0
ARC
  5
2D0
330
1F
100
AcDbEntity
  8
1
  6
Continuous
 62
     1
100
AcDbCircle
 10
4766.19092900289
 20
2042.363456189007
 30
0.0
 40
108.9740779844266
100
AcDbArc
 50
227.293543321577
 51
255.4458175202387
  0
ARC
  5
2D1
330
1F
100
AcDbEntity
  8
1
  6
Continuous
 62
     1
100
AcDbCircle
 10
4773.478731615202
 20
1997.635808559655
 30
0.0
 40
123.6127049509197
100
AcDbArc
 50
106.4508265882961
 51
131.0623177412146
  0
ARC
  5
2D2
330
1F
100
AcDbEntity
  8
1
  6
Continuous
 62
     1
100
AcDbCircle
 10
3871.748013862153
 20
1994.718517222124
 30
0.0
 40
126.8782750851318
100
AcDbArc
 50
49.25151158993535
 51
73.3037548912307
  0
ARC
  5
2D3
330
1F
100
AcDbEntity
  8
1
  6
Continuous
 62
     1
100
AcDbCircle
 10
3871.240828762577
 20
2059.294204833546
 30
0.0
 40
127.8733965037056
100
AcDbArc
 50
286.6639363103241
 51
310.6561095839695
  0
ARC
  5
2D4
330
1F
100
AcDbEntity
  8
1
  6
Continuous
 62
     1
100
AcDbCircle
 10
3893.611479494747
 20
1831.917307577391
 30
0.0
 40
96.77472626087666
100
AcDbArc
 50
51.50019561818089
 51
81.38351057215087
  0
ARC
  5
2D5
330
1F
100
AcDbEntity
  8
1
  6
Continuous
 62
     1
100
AcDbCircle
 10
3940.56078171052
 20
1582.295536262227
 30
0.0
 40
38.04782856081412
100
AcDbArc
 50
100.5788938053156
 51
179.5893130138353
  0
ARC
  5
2D6
330
1F
100
AcDbEntity
  8
1
  6
Continuous
 62
     7
100
AcDbCircle
 10
3912.913409254686
 20
1605.734033606964
 30
0.0
 40
10.65392359937712
100
AcDbArc
 50
108.3952753755338
 51
167.4527696550454
  0
ARC
  5
2D7
330
1F
100
AcDbEntity
  8
1
  6
Continuous
 62
     7
100
AcDbCircle
 10
3932.060810314471
 20
1552.318791509944
 30
0.0
 40
67.39490189941499
100
AcDbArc
 50
88.71208507317313
 51
109.5113529367603
  0
ARC
  5
2D8
330
1F
100
AcDbEntity
  8
1
  6
Continuous
 62
     7
100
AcDbCircle
 10
4700.047547037222
 20
1576.697359423222
 30
0.0
 40
43.16368675581732
100
AcDbArc
 50
4.81912812903684
 51
95.00194487780729
  0
ARC
  5
2D9
330
1F
100
AcDbEntity
  8
1
  6
Continuous
 62
     7
100
AcDbCircle
 10
4748.537989510629
 20
1339.675504159415
 30
0.0
 40
6.025381981578748
100
AcDbArc
 50
180.1833763203399
 51
269.8166236793142
  0
ARC
  5
2DA
330
1F
100
AcDbEntity
  8
1
  6
Continuous
 62
     7
100
AcDbCircle
 10
4769.349089175847
 20
1431.332103094499
 30
0.0
 40
46.56513847641893
100
AcDbArc
 50
83.02969238496968
 51
116.5730592614443
  0
ARC
  5
2DB
330
1F
100
AcDbEntity
  8
1
  6
DASHED
 62
     3
100
AcDbCircle
 10
4754.348773933401
 20
1628.112113518081
 30
0.0
 40
69.69200693443334
100
AcDbArc
 50
141.4510005909586
 51
171.2316988433627
  0
ARC
  5
2DC
330
1F
100
AcDbEntity
  8
1
  6
Continuous
 62
     7
100
AcDbCircle
 10
5442.540075307788
 20
1661.698265808557
 30
0.0
 40
757.2800744040142
100
AcDbArc
 50
175.6044728411423
 51
183.1794707587365
  0
ARC
  5
2DD
330
1F
100
AcDbEntity
  8
1
  6
Continuous
 62
     7
100
AcDbCircle
 10
4775.005110250435
 20
1480.065685305304
 30
0.0
 40
2.512603735598148
100
AcDbArc
 50
269.8834620859606
 51
0.2264637365164
  0
ARC
  5
2DE
330
1F
100
AcDbEntity
  8
1
  6
Continuous
 62
     7
100
AcDbCircle
 10
3029.994889749565
 20
1480.065685305304
 30
0.0
 40
2.512603735597014
100
AcDbArc
 50
179.7735362634836
 51
270.1165379140498
  0
ARC
  5
2DF
330
1F
100
AcDbEntity
  8
1
  6
Continuous
 62
     7
100
AcDbCircle
 10
2362.459924692212
 20
1661.698265808557
 30
0.0
 40
757.2800744040136
100
AcDbArc
 50
356.8205292412635
 51
4.39552715885774
  0
ARC
  5
2E0
330
1F
100
AcDbEntity
  8
1
  6
DASHED
 62
     3
100
AcDbCircle
 10
3050.6512260666
 20
1628.112113518081
 30
0.0
 40
69.69200693443264
100
AcDbArc
 50
8.76830115663751
 51
38.54899940904185
  0
ARC
  5
2E1
330
1F
100
AcDbEntity
  8
1
  6
Continuous
 62
     7
100
AcDbCircle
 10
3035.650910824154
 20
1431.332103094499
 30
0.0
 40
46.56513847641839
100
AcDbArc
 50
63.42694073855774
 51
96.97030761503144
  0
ARC
  5
2E2
330
1F
100
AcDbEntity
  8
1
  6
Continuous
 62
     7
100
AcDbCircle
 10
3056.462010489371
 20
1339.675504159415
 30
0.0
 40
6.025381981581368
100
AcDbArc
 50
270.1833763206901
 51
359.8166236796601
  0
ARC
  5
2E3
330
1F
100
AcDbEntity
  8
1
  6
Continuous
 62
     7
100
AcDbCircle
 10
3104.952452962778
 20
1576.697359423222
 30
0.0
 40
43.16368675581795
100
AcDbArc
 50
84.99805512219272
 51
175.1808718709632
  0
ARC
  5
2E4
330
1F
100
AcDbEntity
  8
1
  6
Continuous
 62
     7
100
AcDbCircle
 10
3872.95312024042
 20
1552.318791509944
 30
0.0
 40
67.39490189941449
100
AcDbArc
 50
70.48864706323972
 51
91.28791492680988
  0
ARC
  5
2E5
330
1F
100
AcDbEntity
  8
1
  6
Continuous
 62
     7
100
AcDbCircle
 10
3892.100521300205
 20
1605.734033606964
 30
0.0
 40
10.65392359937859
100
AcDbArc
 50
12.54723034495466
 51
71.6047246244662
  0
ARC
  5
2E6
330
1F
100
AcDbEntity
  8
1
  6
Continuous
 62
     1
100
AcDbCircle
 10
3864.453148844371
 20
1582.295536262227
 30
0.0
 40
38.04782856081394
100
AcDbArc
 50
0.41068698616474
 51
79.42110619468646
  0
ARC
  5
2E7
330
1F
100
AcDbEntity
  8
1
  6
Continuous
 62
     1
100
AcDbCircle
 10
3911.388520505253
 20
1831.917307577391
 30
0.0
 40
96.77472626087672
100
AcDbArc
 50
98.61648942784916
 51
128.4998043818191
  0
ARC
  5
2E8
330
1F
100
AcDbEntity
  8
1
  6
Continuous
 62
     1
100
AcDbCircle
 10
3933.759171237423
 20
2059.294204833546
 30
0.0
 40
127.8733965037059
100
AcDbArc
 50
229.3438904160305
 51
253.336063689676
  0
ARC
  5
2E9
330
1F
100
AcDbEntity
  8
1
  6
Continuous
 62
     1
100
AcDbCircle
 10
3933.265916692738
 20
1994.718517222124
 30
0.0
 40
126.8782750851319
100
AcDbArc
 50
106.6962451087693
 51
130.7484884100645
  0
ARC
  5
2EA
330
1F
100
AcDbEntity
  8
1
  6
Continuous
 62
     1
100
AcDbCircle
 10
3031.521268384798
 20
1997.635808559655
 30
0.0
 40
123.6127049509191
100
AcDbArc
 50
48.93768225878507
 51
73.54917341170415
  0
ARC
  5
2EB
330
1F
100
AcDbEntity
  8
1
  6
Continuous
 62
     1
100
AcDbCircle
 10
3038.80907099711
 20
2042.363456189007
 30
0.0
 40
108.9740779844265
100
AcDbArc
 50
284.5541824797613
 51
312.7064566784235
  0
ARC
  5
2EC
330
1F
100
AcDbEntity
  8
1
  6
Continuous
 62
     1
100
AcDbCircle
 10
3051.50731627782
 20
1830.986955658549
 30
0.0
 40
97.68633241038717
100
AcDbArc
 50
51.67633671501991
 51
81.21095328095313
  0
ARC
  5
2ED
330
1F
100
AcDbEntity
  8
1
  6
Continuous
 62
     7
100
AcDbCircle
 10
3029.894352431243
 20
1843.67779130494
 30
0.0
 40
2.420123636182625
100
AcDbArc
 50
87.49801971522774
 51
184.6823147010472
  0
ARC
  5
2EE
330
1F
100
AcDbEntity
  8
1
  6
Continuous
 62
     7
100
AcDbCircle
 10
3037.169479446095
 20
1705.533327295652
 30
0.0
 40
140.7450040011645
100
AcDbArc
 50
74.1713585346809
 51
92.91988165307043
  0
ARC
  5
2EF
330
1F
100
AcDbEntity
  8
1
  6
Continuous
 62
     7
100
AcDbCircle
 10
3059.35873879851
 20
1802.909939280323
 30
0.0
 40
41.33834327884566
100
AcDbArc
 50
13.10820005403965
 51
66.92719200676095
  0
ARC
  5
2F0
330
1F
100
AcDbEntity
  8
1
  6
Continuous
 62
     7
100
AcDbCircle
 10
2710.861871260807
 20
1689.121232608878
 30
0.0
 40
407.8016430444231
100
AcDbArc
 50
4.30555594984755
 51
17.57891143804178
  0
ARC
  5
2F1
330
1F
100
AcDbEntity
  8
1
  6
DASHED
 62
     3
100
AcDbCircle
 10
3088.102234489539
 20
1659.391912203434
 30
0.0
 40
20.93963572095139
100
AcDbArc
 50
35.4711525325737
 51
68.80989982589354
  0
ARC
  5
2F2
330
1F
100
AcDbEntity
  8
1
  6
DASHED
 62
     3
100
AcDbCircle
 10
3054.31124629684
 20
1570.483579210872
 30
0.0
 40
116.0524673915385
100
AcDbArc
 50
69.12136131654324
 51
84.19701825056468
  0
ARC
  5
2F3
330
1F
100
AcDbEntity
  8
1
  6
DASHED
 62
     3
100
AcDbCircle
 10
2982.405484828328
 20
763.3963156536975
 30
0.0
 40
926.3287138799019
100
AcDbArc
 50
84.81962330763227
 51
98.24758081942333
  0
ARC
  5
2F4
330
1F
100
AcDbEntity
  8
1
  6
DASHED
 62
     3
100
AcDbCircle
 10
2854.103736364826
 20
1647.159062453215
 30
0.0
 40
33.30192943197518
100
AcDbArc
 50
97.90644687099291
 51
120.9101502111512
  0
ARC
  5
2F5
330
1F
100
AcDbEntity
  8
1
  6
DASHED
 62
     3
100
AcDbCircle
 10
2847.088851048915
 20
1657.305675078001
 30
0.0
 40
21.00838138469706
100
AcDbArc
 50
118.710487460157
 51
189.9973221438019
  0
ARC
  5
2F6
330
1F
100
AcDbEntity
  8
1
  6
DASHED
 62
     3
100
AcDbCircle
 10
2873.224602685948
 20
1664.667308962204
 30
0.0
 40
48.10182809738042
100
AcDbArc
 50
193.2301476346637
 51
227.0861352619211
  0
ARC
  5
2F7
330
1F
100
AcDbEntity
  8
1
  6
DASHED
 62
     3
100
AcDbCircle
 10
2961.785541487481
 20
1773.62655679473
 30
0.0
 40
188.4333018035078
100
AcDbArc
 50
229.9242277074632
 51
272.4341072284047
  0
ARC
  5
2F8
330
1F
100
AcDbEntity
  8
1
  6
DASHED
 62
     3
100
AcDbCircle
 10
2965.429660255501
 20
1651.151339894866
 30
0.0
 40
65.93229943131765
100
AcDbArc
 50
273.7905328541465
 51
309.9708519821835
  0
ARC
  5
2F9
330
1F
100
AcDbEntity
  8
1
  6
DASHED
 62
     3
100
AcDbCircle
 10
3018.823159535938
 20
1571.072941692436
 30
0.0
 40
31.54429792113148
100
AcDbArc
 50
74.06733394863258
 51
110.4838826246252
  0
ARC
  5
2FA
330
1F
100
AcDbEntity
  8
1
  6
Continuous
 62
     7
100
AcDbCircle
 10
3015.351130681106
 20
1581.824489681404
 30
0.0
 40
15.2476600340374
100
AcDbArc
 50
37.28718855355479
 51
91.3765595562013
  0
ARC
  5
2FB
330
1F
100
AcDbEntity
  8
1
  6
Continuous
 62
     7
100
AcDbCircle
 10
3014.968031654435
 20
1582.099662603154
 30
0.0
 40
14.96809609251543
100
AcDbArc
 50
89.93568556550677
 51
179.8318775139736
  0
ARC
  5
2FC
330
1F
100
AcDbEntity
  8
1
  6
Continuous
 62
     7
100
AcDbCircle
 10
2030.031968345566
 20
382.0996626031544
 30
0.0
 40
14.96809609251578
100
AcDbArc
 50
0.1681224860264
 51
90.06431443449323
  0
ARC
  5
2FD
330
1F
100
AcDbEntity
  8
1
  6
Continuous
 62
     7
100
AcDbCircle
 10
2029.648869318895
 20
381.8244896814034
 30
0.0
 40
15.24766003403708
100
AcDbArc
 50
88.62344044379958
 51
142.712811446443
  0
ARC
  5
2FE
330
1F
100
AcDbEntity
  8
1
  6
DASHED
 62
     3
100
AcDbCircle
 10
2026.176840464063
 20
371.0729416924361
 30
0.0
 40
31.54429792113158
100
AcDbArc
 50
69.51611737537449
 51
105.932666051367
  0
ARC
  5
2FF
330
1F
100
AcDbEntity
  8
1
  6
DASHED
 62
     3
100
AcDbCircle
 10
2079.5703397445
 20
451.1513398948666
 30
0.0
 40
65.93229943131895
100
AcDbArc
 50
230.0291480178171
 51
266.2094671458535
  0
ARC
  5
300
330
1F
100
AcDbEntity
  8
1
  6
DASHED
 62
     3
100
AcDbCircle
 10
2083.21445851252
 20
573.6265567947302
 30
0.0
 40
188.4333018035074
100
AcDbArc
 50
267.5658927715951
 51
310.0757722925367
  0
ARC
  5
301
330
1F
100
AcDbEntity
  8
1
  6
DASHED
 62
     3
100
AcDbCircle
 10
2171.775397314053
 20
464.6673089622036
 30
0.0
 40
48.10182809737937
100
AcDbArc
 50
312.9138647380796
 51
346.7698523653368
  0
ARC
  5
302
330
1F
100
AcDbEntity
  8
1
  6
DASHED
 62
     3
100
AcDbCircle
 10
2197.911148951086
 20
457.3056750780012
 30
0.0
 40
21.00838138469785
100
AcDbArc
 50
350.0026778561976
 51
61.28951253984231
  0
ARC
  5
303
330
1F
100
AcDbEntity
  8
1
  6
DASHED
 62
     3
100
AcDbCircle
 10
2190.896263635175
 20
447.1590624532152
 30
0.0
 40
33.30192943197481
100
AcDbArc
 50
59.08984978884828
 51
82.09355312900699
  0
ARC
  5
304
330
1F
100
AcDbEntity
  8
1
  6
DASHED
 62
     3
100
AcDbCircle
 10
2062.594515171673
 20
-436.6036843463027
 30
0.0
 40
926.3287138799022
100
AcDbArc
 50
81.75241918057668
 51
95.18037669236772
  0
ARC
  5
305
330
1F
100
AcDbEntity
  8
1
  6
DASHED
 62
     3
100
AcDbCircle
 10
1990.688753703161
 20
370.4835792108726
 30
0.0
 40
116.0524673915386
100
AcDbArc
 50
95.80298174943535
 51
110.8786386834569
  0
ARC
  5
306
330
1F
100
AcDbEntity
  8
1
  6
DASHED
 62
     3
100
AcDbCircle
 10
1956.897765510462
 20
459.3919122034341
 30
0.0
 40
20.93963572095145
100
AcDbArc
 50
111.1901001741068
 51
144.5288474674259
  0
ARC
  5
307
330
1F
100
AcDbEntity
  8
1
  6
Continuous
 62
     7
100
AcDbCircle
 10
2334.138128739194
 20
489.1212326088779
 30
0.0
 40
407.8016430444231
100
AcDbArc
 50
162.4210885619582
 51
175.6944440501524
  0
ARC
  5
308
330
1F
100
AcDbEntity
  8
1
  6
Continuous
 62
     7
100
AcDbCircle
 10
1985.641261201491
 20
602.9099392803225
 30
0.0
 40
41.33834327884614
100
AcDbArc
 50
113.0728079932387
 51
166.8917999459593
  0
ARC
  5
309
330
1F
100
AcDbEntity
  8
1
  6
Continuous
 62
     7
100
AcDbCircle
 10
2007.830520553906
 20
505.5333272956522
 30
0.0
 40
140.7450040011647
100
AcDbArc
 50
87.08011834692948
 51
105.8286414653191
  0
ARC
  5
30A
330
1F
100
AcDbEntity
  8
1
  6
Continuous
 62
     7
100
AcDbCircle
 10
2015.105647568758
 20
643.6777913049397
 30
0.0
 40
2.420123636184433
100
AcDbArc
 50
355.3176852989608
 51
92.50198028477203
  0
ARC
  5
30B
330
1F
100
AcDbEntity
  8
1
  6
Continuous
 62
     1
100
AcDbCircle
 10
1993.492683722181
 20
630.9869556585493
 30
0.0
 40
97.68633241038741
100
AcDbArc
 50
98.78904671904678
 51
128.3236632849802
  0
ARC
  5
30C
330
1F
100
AcDbEntity
  8
1
  6
Continuous
 62
     1
100
AcDbCircle
 10
1013.604514217303
 20
631.9173075773912
 30
0.0
 40
96.77472626087645
100
AcDbArc
 50
51.50019561818062
 51
81.3835105721514
  0
ARC
  5
30D
330
1F
100
AcDbEntity
  8
1
  6
Continuous
 62
     1
100
AcDbCircle
 10
1060.553816433076
 20
382.2955362622274
 30
0.0
 40
38.0478285608137
100
AcDbArc
 50
100.5788938053153
 51
179.5893130138359
  0
ARC
  5
30E
330
1F
100
AcDbEntity
  8
1
  6
Continuous
 62
     7
100
AcDbCircle
 10
1032.906443977241
 20
405.7340336069636
 30
0.0
 40
10.65392359937758
100
AcDbArc
 50
108.3952753755278
 51
167.4527696550416
  0
ARC
  5
30F
330
1F
100
AcDbEntity
  8
1
  6
Continuous
 62
     7
100
AcDbCircle
 10
1052.053845037027
 20
352.3187915099442
 30
0.0
 40
67.39490189941485
100
AcDbArc
 50
88.7120850731743
 51
109.5113529367604
  0
ARC
  5
310
330
1F
100
AcDbEntity
  8
1
  6
Continuous
 62
     7
100
AcDbCircle
 10
1940.047547037223
 20
376.6973594232219
 30
0.0
 40
43.16368675581728
100
AcDbArc
 50
4.81912812903624
 51
95.00194487780726
  0
ARC
  5
311
330
1F
100
AcDbEntity
  8
1
  6
Continuous
 62
     7
100
AcDbCircle
 10
1988.53798951063
 20
139.6755041594145
 30
0.0
 40
6.025381981580339
100
AcDbArc
 50
180.183376320338
 51
269.8166236793164
  0
ARC
  5
312
330
1F
100
AcDbEntity
  8
1
  6
Continuous
 62
     7
100
AcDbCircle
 10
2009.349089175847
 20
231.3321030944995
 30
0.0
 40
46.56513847641785
100
AcDbArc
 50
83.0296923849681
 51
116.5730592614426
  0
ARC
  5
313
330
1F
100
AcDbEntity
  8
1
  6
DASHED
 62
     3
100
AcDbCircle
 10
1994.348773933401
 20
428.1121135180809
 30
0.0
 40
69.69200693443273
100
AcDbArc
 50
141.4510005909578
 51
171.2316988433627
  0
ARC
  5
314
330
1F
100
AcDbEntity
  8
1
  6
Continuous
 62
     7
100
AcDbCircle
 10
2682.540075307789
 20
461.6982658085572
 30
0.0
 40
757.2800744040139
100
AcDbArc
 50
175.6044728411423
 51
183.1794707587365
  0
ARC
  5
315
330
1F
100
AcDbEntity
  8
1
  6
Continuous
 62
     7
100
AcDbCircle
 10
2015.005110250436
 20
280.065685305304
 30
0.0
 40
2.512603735598831
100
AcDbArc
 50
269.8834620859502
 51
0.22646373651774
  0
ARC
  5
316
330
1F
100
AcDbEntity
  8
1
  6
Continuous
 62
     7
100
AcDbCircle
 10
29.99488974956512
 20
280.065685305304
 30
0.0
 40
2.512603735597476
100
AcDbArc
 50
179.7735362634823
 51
270.1165379140393
  0
ARC
  5
317
330
1F
100
AcDbEntity
  8
1
  6
Continuous
 62
     7
100
AcDbCircle
 10
-637.5400753077884
 20
461.6982658085572
 30
0.0
 40
757.2800744040142
100
AcDbArc
 50
356.8205292412635
 51
4.39552715885773
  0
ARC
  5
318
330
1F
100
AcDbEntity
  8
1
  6
DASHED
 62
     3
100
AcDbCircle
 10
50.65122606659952
 20
428.1121135180809
 30
0.0
 40
69.69200693443307
100
AcDbArc
 50
8.76830115663721
 51
38.54899940904215
  0
ARC
  5
319
330
1F
100
AcDbEntity
  8
1
  6
Continuous
 62
     7
100
AcDbCircle
 10
35.65091082415347
 20
231.3321030944995
 30
0.0
 40
46.56513847641826
100
AcDbArc
 50
63.42694073855641
 51
96.97030761503164
  0
ARC
  5
31A
330
1F
100
AcDbEntity
  8
1
  6
Continuous
 62
     7
100
AcDbCircle
 10
56.4620104893711
 20
139.6755041594145
 30
0.0
 40
6.025381981581052
100
AcDbArc
 50
270.1833763206857
 51
359.816623679662
  0
ARC
  5
31B
330
1F
100
AcDbEntity
  8
1
  6
Continuous
 62
     7
100
AcDbCircle
 10
104.9524529627779
 20
376.6973594232219
 30
0.0
 40
43.16368675581811
100
AcDbArc
 50
84.99805512219278
 51
175.1808718709638
  0
ARC
  5
31C
330
1F
100
AcDbEntity
  8
1
  6
Continuous
 62
     7
100
AcDbCircle
 10
992.946154962975
 20
352.3187915099442
 30
0.0
 40
67.39490189941478
100
AcDbArc
 50
70.48864706323963
 51
91.2879149268091
  0
ARC
  5
31D
330
1F
100
AcDbEntity
  8
1
  6
Continuous
 62
     7
100
AcDbCircle
 10
1012.093556022761
 20
405.7340336069636
 30
0.0
 40
10.65392359937763
100
AcDbArc
 50
12.54723034495957
 51
71.6047246244722
  0
ARC
  5
31E
330
1F
100
AcDbEntity
  8
1
  6
Continuous
 62
     1
100
AcDbCircle
 10
984.4461835669263
 20
382.2955362622274
 30
0.0
 40
38.04782856081348
100
AcDbArc
 50
0.41068698616406
 51
79.42110619468568
  0
ARC
  5
31F
330
1F
100
AcDbEntity
  8
1
  6
Continuous
 62
     1
100
AcDbCircle
 10
1031.381555227808
 20
631.9173075773912
 30
0.0
 40
96.7747262608767
100
AcDbArc
 50
98.6164894278486
 51
128.4998043818193
  0
ARC
  5
320
330
1F
100
AcDbEntity
  8
1
  6
Continuous
 62
     1
100
AcDbCircle
 10
51.50731627781988
 20
630.9869556585493
 30
0.0
 40
97.68633241038718
100
AcDbArc
 50
51.67633671501958
 51
81.21095328095335
  0
ARC
  5
321
330
1F
100
AcDbEntity
  8
1
  6
Continuous
 62
     7
100
AcDbCircle
 10
29.89435243124262
 20
643.6777913049397
 30
0.0
 40
2.420123636182852
100
AcDbArc
 50
87.49801971522788
 51
184.6823147010392
  0
ARC
  5
322
330
1F
100
AcDbEntity
  8
1
  6
Continuous
 62
     7
100
AcDbCircle
 10
37.16947944609456
 20
505.5333272956522
 30
0.0
 40
140.7450040011645
100
AcDbArc
 50
74.1713585346809
 51
92.91988165307045
  0
ARC
  5
323
330
1F
100
AcDbEntity
  8
1
  6
Continuous
 62
     7
100
AcDbCircle
 10
59.35873879850988
 20
602.9099392803225
 30
0.0
 40
41.33834327884584
100
AcDbArc
 50
13.10820005404073
 51
66.92719200676191
  0
ARC
  5
324
330
1F
100
AcDbEntity
  8
1
  6
Continuous
 62
     7
100
AcDbCircle
 10
-289.1381287391932
 20
489.1212326088779
 30
0.0
 40
407.8016430444231
100
AcDbArc
 50
4.3055559498476
 51
17.57891143804182
  0
ARC
  5
325
330
1F
100
AcDbEntity
  8
1
  6
DASHED
 62
     3
100
AcDbCircle
 10
88.10223448953911
 20
459.3919122034341
 30
0.0
 40
20.9396357209511
100
AcDbArc
 50
35.47115253257485
 51
68.80989982589377
  0
ARC
  5
326
330
1F
100
AcDbEntity
  8
1
  6
DASHED
 62
     3
100
AcDbCircle
 10
54.31124629684018
 20
370.4835792108726
 30
0.0
 40
116.0524673915382
100
AcDbArc
 50
69.12136131654319
 51
84.19701825056488
  0
ARC
  5
327
330
1F
100
AcDbEntity
  8
1
  6
DASHED
 62
     3
100
AcDbCircle
 10
-17.59451517167236
 20
-436.6036843463027
 30
0.0
 40
926.328713879902
100
AcDbArc
 50
84.81962330763228
 51
98.24758081942329
  0
ARC
  5
328
330
1F
100
AcDbEntity
  8
1
  6
DASHED
 62
     3
100
AcDbCircle
 10
-145.8962636351744
 20
447.1590624532152
 30
0.0
 40
33.30192943197466
100
AcDbArc
 50
97.90644687099214
 51
120.910150211151
  0
ARC
  5
329
330
1F
100
AcDbEntity
  8
1
  6
DASHED
 62
     3
100
AcDbCircle
 10
-152.9111489510851
 20
457.3056750780012
 30
0.0
 40
21.00838138469662
100
AcDbArc
 50
118.7104874601578
 51
189.9973221438025
  0
ARC
  5
32A
330
1F
100
AcDbEntity
  8
1
  6
DASHED
 62
     3
100
AcDbCircle
 10
-126.7753973140516
 20
464.6673089622036
 30
0.0
 40
48.10182809738031
100
AcDbArc
 50
193.2301476346633
 51
227.0861352619197
  0
ARC
  5
32B
330
1F
100
AcDbEntity
  8
1
  6
DASHED
 62
     3
100
AcDbCircle
 10
-38.21445851251883
 20
573.6265567947302
 30
0.0
 40
188.4333018035078
100
AcDbArc
 50
229.924227707463
 51
272.4341072284047
  0
ARC
  5
32C
330
1F
100
AcDbEntity
  8
1
  6
DASHED
 62
     3
100
AcDbCircle
 10
-34.5703397444986
 20
451.1513398948666
 30
0.0
 40
65.93229943131868
100
AcDbArc
 50
273.7905328541461
 51
309.9708519821829
  0
ARC
  5
32D
330
1F
100
AcDbEntity
  8
1
  6
DASHED
 62
     3
100
AcDbCircle
 10
18.82315953593843
 20
371.0729416924361
 30
0.0
 40
31.54429792113134
100
AcDbArc
 50
74.06733394863423
 51
110.4838826246255
  0
ARC
  5
32E
330
1F
100
AcDbEntity
  8
1
  6
Continuous
 62
     7
100
AcDbCircle
 10
15.35113068110604
 20
381.8244896814034
 30
0.0
 40
15.24766003403749
100
AcDbArc
 50
37.28718855355804
 51
91.3765595562013
  0
ARC
  5
32F
330
1F
100
AcDbEntity
  8
1
  6
Continuous
 62
     7
100
AcDbCircle
 10
14.96803165443453
 20
382.0996626031544
 30
0.0
 40
14.96809609251464
100
AcDbArc
 50
89.93568556550507
 51
179.8318775139736
  0
ARC
  5
330
330
1F
100
AcDbEntity
  8
1
  6
Continuous
 62
     7
100
AcDbCircle
 10
3014.968031654435
 20
382.0996626031544
 30
0.0
 40
14.96809609251464
100
AcDbArc
 50
89.93568556550677
 51
179.8318775139736
  0
ARC
  5
331
330
1F
100
AcDbEntity
  8
1
  6
Continuous
 62
     7
100
AcDbCircle
 10
3015.351130681106
 20
381.8244896814034
 30
0.0
 40
15.24766003403785
100
AcDbArc
 50
37.287188553557
 51
91.37655955620127
  0
ARC
  5
332
330
1F
100
AcDbEntity
  8
1
  6
DASHED
 62
     3
100
AcDbCircle
 10
3018.823159535938
 20
371.0729416924361
 30
0.0
 40
31.54429792113159
100
AcDbArc
 50
74.06733394863262
 51
110.4838826246255
  0
ARC
  5
333
330
1F
100
AcDbEntity
  8
1
  6
DASHED
 62
     3
100
AcDbCircle
 10
2965.429660255501
 20
451.1513398948666
 30
0.0
 40
65.93229943131871
100
AcDbArc
 50
273.7905328541465
 51
309.9708519821829
  0
ARC
  5
334
330
1F
100
AcDbEntity
  8
1
  6
DASHED
 62
     3
100
AcDbCircle
 10
2961.785541487481
 20
573.6265567947302
 30
0.0
 40
188.4333018035075
100
AcDbArc
 50
229.9242277074631
 51
272.4341072284047
  0
ARC
  5
335
330
1F
100
AcDbEntity
  8
1
  6
DASHED
 62
     3
100
AcDbCircle
 10
2873.224602685948
 20
464.6673089622036
 30
0.0
 40
48.10182809738033
100
AcDbArc
 50
193.2301476346632
 51
227.0861352619204
  0
ARC
  5
336
330
1F
100
AcDbEntity
  8
1
  6
DASHED
 62
     3
100
AcDbCircle
 10
2847.088851048915
 20
457.3056750780012
 30
0.0
 40
21.00838138469661
100
AcDbArc
 50
118.7104874601577
 51
189.9973221438023
  0
ARC
  5
337
330
1F
100
AcDbEntity
  8
1
  6
DASHED
 62
     3
100
AcDbCircle
 10
2854.103736364826
 20
447.1590624532152
 30
0.0
 40
33.30192943197473
100
AcDbArc
 50
97.90644687099302
 51
120.9101502111517
  0
ARC
  5
338
330
1F
100
AcDbEntity
  8
1
  6
DASHED
 62
     3
100
AcDbCircle
 10
2982.405484828328
 20
-436.6036843463027
 30
0.0
 40
926.328713879902
100
AcDbArc
 50
84.81962330763228
 51
98.24758081942333
  0
ARC
  5
339
330
1F
100
AcDbEntity
  8
1
  6
DASHED
 62
     3
100
AcDbCircle
 10
3054.31124629684
 20
370.4835792108726
 30
0.0
 40
116.0524673915382
100
AcDbArc
 50
69.12136131654319
 51
84.19701825056465
  0
ARC
  5
33A
330
1F
100
AcDbEntity
  8
1
  6
DASHED
 62
     3
100
AcDbCircle
 10
3088.102234489539
 20
459.3919122034341
 30
0.0
 40
20.93963572095149
100
AcDbArc
 50
35.47115253257408
 51
68.80989982589377
  0
ARC
  5
33B
330
1F
100
AcDbEntity
  8
1
  6
Continuous
 62
     7
100
AcDbCircle
 10
2710.861871260807
 20
489.1212326088779
 30
0.0
 40
407.8016430444231
100
AcDbArc
 50
4.3055559498476
 51
17.57891143804184
  0
ARC
  5
33C
330
1F
100
AcDbEntity
  8
1
  6
Continuous
 62
     7
100
AcDbCircle
 10
3059.35873879851
 20
602.9099392803225
 30
0.0
 40
41.33834327884585
100
AcDbArc
 50
13.10820005404072
 51
66.92719200676132
  0
ARC
  5
33D
330
1F
100
AcDbEntity
  8
1
  6
Continuous
 62
     7
100
AcDbCircle
 10
3037.169479446095
 20
505.5333272956522
 30
0.0
 40
140.7450040011645
100
AcDbArc
 50
74.1713585346809
 51
92.91988165307045
  0
ARC
  5
33E
330
1F
100
AcDbEntity
  8
1
  6
Continuous
 62
     7
100
AcDbCircle
 10
3029.894352431243
 20
643.6777913049397
 30
0.0
 40
2.420123636182852
100
AcDbArc
 50
87.49801971522797
 51
184.6823147010392
  0
ARC
  5
33F
330
1F
100
AcDbEntity
  8
1
  6
Continuous
 62
     1
100
AcDbCircle
 10
3051.50731627782
 20
630.9869556585493
 30
0.0
 40
97.6863324103869
100
AcDbArc
 50
51.67633671501978
 51
81.21095328095309
  0
ARC
  5
340
330
1F
100
AcDbEntity
  8
1
  6
Continuous
 62
     1
100
AcDbCircle
 10
3038.80907099711
 20
842.3634561890068
 30
0.0
 40
108.9740779844266
100
AcDbArc
 50
284.5541824797613
 51
312.7064566784235
  0
ARC
  5
341
330
1F
100
AcDbEntity
  8
1
  6
Continuous
 62
     1
100
AcDbCircle
 10
3031.521268384798
 20
797.6358085596554
 30
0.0
 40
123.6127049509187
100
AcDbArc
 50
48.93768225878493
 51
73.54917341170406
  0
ARC
  5
342
330
1F
100
AcDbEntity
  8
1
  6
Continuous
 62
     1
100
AcDbCircle
 10
4053.258951415293
 20
794.7185172221243
 30
0.0
 40
126.8782750851315
100
AcDbArc
 50
106.6962451087694
 51
130.7484884100643
  0
ARC
  5
343
330
1F
100
AcDbEntity
  8
1
  6
Continuous
 62
     1
100
AcDbCircle
 10
4053.752205959979
 20
859.2942048335459
 30
0.0
 40
127.8733965037065
100
AcDbArc
 50
229.3438904160304
 51
253.3360636896754
  0
ARC
  5
344
330
1F
100
AcDbEntity
  8
1
  6
Continuous
 62
     1
100
AcDbCircle
 10
4031.381555227808
 20
631.9173075773912
 30
0.0
 40
96.7747262608767
100
AcDbArc
 50
98.6164894278486
 51
128.4998043818193
  0
ARC
  5
345
330
1F
100
AcDbEntity
  8
1
  6
Continuous
 62
     1
100
AcDbCircle
 10
3984.446183566926
 20
382.2955362622274
 30
0.0
 40
38.04782856081393
100
AcDbArc
 50
0.41068698616405
 51
79.42110619468433
  0
ARC
  5
346
330
1F
100
AcDbEntity
  8
1
  6
Continuous
 62
     7
100
AcDbCircle
 10
4012.093556022761
 20
405.7340336069636
 30
0.0
 40
10.65392359937785
100
AcDbArc
 50
12.5472303449593
 51
71.6047246244722
  0
ARC
  5
347
330
1F
100
AcDbEntity
  8
1
  6
Continuous
 62
     7
100
AcDbCircle
 10
3992.946154962975
 20
352.3187915099442
 30
0.0
 40
67.3949018994147
100
AcDbArc
 50
70.4886470632398
 51
91.28791492680871
  0
ARC
  5
348
330
1F
100
AcDbEntity
  8
1
  6
Continuous
 62
     7
100
AcDbCircle
 10
3104.952452962778
 20
376.6973594232219
 30
0.0
 40
43.16368675581812
100
AcDbArc
 50
84.99805512219275
 51
175.1808718709638
  0
ARC
  5
349
330
1F
100
AcDbEntity
  8
1
  6
Continuous
 62
     7
100
AcDbCircle
 10
3056.462010489371
 20
139.6755041594145
 30
0.0
 40
6.025381981581054
100
AcDbArc
 50
270.1833763206901
 51
359.816623679662
  0
ARC
  5
34A
330
1F
100
AcDbEntity
  8
1
  6
Continuous
 62
     7
100
AcDbCircle
 10
3035.650910824154
 20
231.3321030944995
 30
0.0
 40
46.56513847641786
100
AcDbArc
 50
63.42694073855741
 51
96.97030761503164
  0
ARC
  5
34B
330
1F
100
AcDbEntity
  8
1
  6
DASHED
 62
     3
100
AcDbCircle
 10
3050.6512260666
 20
428.1121135180809
 30
0.0
 40
69.6920069344326
100
AcDbArc
 50
8.76830115663727
 51
38.54899940904214
  0
ARC
  5
34C
330
1F
100
AcDbEntity
  8
1
  6
Continuous
 62
     7
100
AcDbCircle
 10
2362.459924692212
 20
461.6982658085572
 30
0.0
 40
757.2800744040137
100
AcDbArc
 50
356.8205292412635
 51
4.39552715885773
  0
ARC
  5
34D
330
1F
100
AcDbEntity
  8
1
  6
Continuous
 62
     7
100
AcDbCircle
 10
3029.994889749565
 20
280.065685305304
 30
0.0
 40
2.512603735597014
100
AcDbArc
 50
179.7735362634823
 51
270.1165379140498
  0
ARC
  5
34E
330
1F
100
AcDbEntity
  8
1
  6
Continuous
 62
     7
100
AcDbCircle
 10
5015.005110250436
 20
280.065685305304
 30
0.0
 40
2.51260373559883
100
AcDbArc
 50
269.8834620859606
 51
0.22646373651769
  0
ARC
  5
34F
330
1F
100
AcDbEntity
  8
1
  6
Continuous
 62
     7
100
AcDbCircle
 10
5682.540075307789
 20
461.6982658085572
 30
0.0
 40
757.2800744040142
100
AcDbArc
 50
175.6044728411423
 51
183.1794707587365
  0
ARC
  5
350
330
1F
100
AcDbEntity
  8
1
  6
DASHED
 62
     3
100
AcDbCircle
 10
4994.348773933401
 20
428.1121135180809
 30
0.0
 40
69.69200693443291
100
AcDbArc
 50
141.4510005909578
 51
171.2316988433628
  0
ARC
  5
351
330
1F
100
AcDbEntity
  8
1
  6
Continuous
 62
     7
100
AcDbCircle
 10
5009.349089175847
 20
231.3321030944995
 30
0.0
 40
46.56513847641783
100
AcDbArc
 50
83.02969238496837
 51
116.5730592614436
  0
ARC
  5
352
330
1F
100
AcDbEntity
  8
1
  6
Continuous
 62
     7
100
AcDbCircle
 10
4988.53798951063
 20
139.6755041594145
 30
0.0
 40
6.025381981579657
100
AcDbArc
 50
180.183376320338
 51
269.8166236793228
  0
ARC
  5
353
330
1F
100
AcDbEntity
  8
1
  6
Continuous
 62
     7
100
AcDbCircle
 10
4940.047547037223
 20
376.6973594232219
 30
0.0
 40
43.16368675581728
100
AcDbArc
 50
4.81912812903624
 51
95.00194487780726
  0
ARC
  5
354
330
1F
100
AcDbEntity
  8
1
  6
Continuous
 62
     7
100
AcDbCircle
 10
4052.053845037027
 20
352.3187915099442
 30
0.0
 40
67.39490189941485
100
AcDbArc
 50
88.71208507317391
 51
109.5113529367602
  0
ARC
  5
355
330
1F
100
AcDbEntity
  8
1
  6
Continuous
 62
     7
100
AcDbCircle
 10
4032.906443977241
 20
405.7340336069636
 30
0.0
 40
10.65392359937758
100
AcDbArc
 50
108.3952753755278
 51
167.4527696550418
  0
ARC
  5
356
330
1F
100
AcDbEntity
  8
1
  6
Continuous
 62
     1
100
AcDbCircle
 10
4060.553816433076
 20
382.2955362622274
 30
0.0
 40
38.04782856081366
100
AcDbArc
 50
100.578893805315
 51
179.5893130138359
  0
ARC
  5
357
330
1F
100
AcDbEntity
  8
1
  6
Continuous
 62
     1
100
AcDbCircle
 10
4013.604514217303
 20
631.9173075773912
 30
0.0
 40
96.7747262608763
100
AcDbArc
 50
51.50019561818073
 51
81.3835105721514
  0
ARC
  5
358
330
1F
100
AcDbEntity
  8
1
  6
Continuous
 62
     1
100
AcDbCircle
 10
3991.233863485132
 20
859.2942048335459
 30
0.0
 40
127.8733965037065
100
AcDbArc
 50
286.6639363103243
 51
310.6561095839695
  0
ARC
  5
359
330
1F
100
AcDbEntity
  8
1
  6
Continuous
 62
     1
100
AcDbCircle
 10
3991.741048584709
 20
794.7185172221243
 30
0.0
 40
126.8782750851309
100
AcDbArc
 50
49.25151158993555
 51
73.30375489123104
  0
ARC
  5
35A
330
1F
100
AcDbEntity
  8
1
  6
Continuous
 62
     1
100
AcDbCircle
 10
5013.478731615203
 20
797.6358085596554
 30
0.0
 40
123.6127049509192
100
AcDbArc
 50
106.4508265882961
 51
131.0623177412151
  0
ARC
  5
35B
330
1F
100
AcDbEntity
  8
1
  6
Continuous
 62
     1
100
AcDbCircle
 10
5006.190929002891
 20
842.3634561890068
 30
0.0
 40
108.9740779844274
100
AcDbArc
 50
227.2935433215767
 51
255.4458175202388
  0
ARC
  5
35C
330
1F
100
AcDbEntity
  8
1
  6
Continuous
 62
     1
100
AcDbCircle
 10
4993.492683722181
 20
630.9869556585493
 30
0.0
 40
97.68633241038738
100
AcDbArc
 50
98.78904671904665
 51
128.3236632849805
  0
ARC
  5
35D
330
1F
100
AcDbEntity
  8
1
  6
Continuous
 62
     7
100
AcDbCircle
 10
5015.105647568758
 20
643.6777913049397
 30
0.0
 40
2.420123636184433
100
AcDbArc
 50
355.3176852989608
 51
92.50198028477203
  0
ARC
  5
35E
330
1F
100
AcDbEntity
  8
1
  6
Continuous
 62
     7
100
AcDbCircle
 10
5007.830520553906
 20
505.5333272956522
 30
0.0
 40
140.7450040011647
100
AcDbArc
 50
87.08011834692957
 51
105.8286414653191
  0
ARC
  5
35F
330
1F
100
AcDbEntity
  8
1
  6
Continuous
 62
     7
100
AcDbCircle
 10
4985.641261201491
 20
602.9099392803225
 30
0.0
 40
41.33834327884596
100
AcDbArc
 50
113.0728079932381
 51
166.8917999459593
  0
ARC
  5
360
330
1F
100
AcDbEntity
  8
1
  6
Continuous
 62
     7
100
AcDbCircle
 10
5334.138128739194
 20
489.1212326088779
 30
0.0
 40
407.8016430444231
100
AcDbArc
 50
162.4210885619582
 51
175.6944440501524
  0
ARC
  5
361
330
1F
100
AcDbEntity
  8
1
  6
DASHED
 62
     3
100
AcDbCircle
 10
4956.897765510462
 20
459.3919122034341
 30
0.0
 40
20.93963572095137
100
AcDbArc
 50
111.1901001741062
 51
144.5288474674252
  0
ARC
  5
362
330
1F
100
AcDbEntity
  8
1
  6
DASHED
 62
     3
100
AcDbCircle
 10
4990.688753703161
 20
370.4835792108726
 30
0.0
 40
116.0524673915385
100
AcDbArc
 50
95.80298174943513
 51
110.8786386834568
  0
ARC
  5
363
330
1F
100
AcDbEntity
  8
1
  6
DASHED
 62
     3
100
AcDbCircle
 10
5062.594515171673
 20
-436.6036843463027
 30
0.0
 40
926.3287138799022
100
AcDbArc
 50
81.75241918057671
 51
95.18037669236772
  0
ARC
  5
364
330
1F
100
AcDbEntity
  8
1
  6
DASHED
 62
     3
100
AcDbCircle
 10
5190.896263635175
 20
447.1590624532152
 30
0.0
 40
33.30192943197457
100
AcDbArc
 50
59.08984978884895
 51
82.09355312900776
  0
ARC
  5
365
330
1F
100
AcDbEntity
  8
1
  6
DASHED
 62
     3
100
AcDbCircle
 10
5197.911148951086
 20
457.3056750780012
 30
0.0
 40
21.00838138469829
100
AcDbArc
 50
350.0026778561979
 51
61.28951253984231
  0
ARC
  5
366
330
1F
100
AcDbEntity
  8
1
  6
DASHED
 62
     3
100
AcDbCircle
 10
5171.775397314053
 20
464.6673089622036
 30
0.0
 40
48.10182809737937
100
AcDbArc
 50
312.9138647380796
 51
346.7698523653368
  0
ARC
  5
367
330
1F
100
AcDbEntity
  8
1
  6
DASHED
 62
     3
100
AcDbCircle
 10
5083.21445851252
 20
573.6265567947302
 30
0.0
 40
188.4333018035074
100
AcDbArc
 50
267.5658927715953
 51
310.075772292537
  0
ARC
  5
368
330
1F
100
AcDbEntity
  8
1
  6
DASHED
 62
     3
100
AcDbCircle
 10
5079.5703397445
 20
451.1513398948666
 30
0.0
 40
65.93229943131955
100
AcDbArc
 50
230.0291480178165
 51
266.2094671458531
  0
ARC
  5
369
330
1F
100
AcDbEntity
  8
1
  6
DASHED
 62
     3
100
AcDbCircle
 10
5026.176840464063
 20
371.0729416924361
 30
0.0
 40
31.54429792113127
100
AcDbArc
 50
69.51611737537606
 51
105.9326660513674
  0
ARC
  5
36A
330
1F
100
AcDbEntity
  8
1
  6
Continuous
 62
     7
100
AcDbCircle
 10
5029.648869318895
 20
381.8244896814034
 30
0.0
 40
15.24766003403709
100
AcDbArc
 50
88.62344044379873
 51
142.712811446442
  0
ARC
  5
36B
330
1F
100
AcDbEntity
  8
1
  6
Continuous
 62
     7
100
AcDbCircle
 10
5030.031968345566
 20
382.0996626031544
 30
0.0
 40
14.96809609251533
100
AcDbArc
 50
0.16812248602641
 51
90.06431443449496
  0
SPLINE
  5
36C
330
1F
100
AcDbEntity
  8
Layer_0
  6
DASHED
 62
     3
100
AcDbSpline
210
0.0
220
0.0
230
1.0
 70
     8
 71
     3
 72
    21
 73
    17
 74
    15
 42
0.0000000001
 43
0.0000000001
 44
0.00000001
 40
0.0
 40
0.0
 40
0.0
 40
0.0
 40
74.31376490071456
 40
148.5049686635592
 40
200.4259582518135
 40
252.602223011113
 40
345.9500069478869
 40
439.3960862384586
 40
534.6119501674841
 40
628.581220322437
 40
683.0417703951573
 40
740.2636426031365
 40
768.645579631732
 40
793.7456014761383
 40
846.841595411146
 40
903.974525879387
 40
903.974525879387
 40
903.974525879387
 40
903.974525879387
 10
39.89438892796399
 20
4082.623867432587
 30
0.0
 10
63.74927121529733
 20
4089.239450001716
 30
0.0
 10
111.419693394638
 20
4102.459704465102
 30
0.0
 10
177.120434841679
 20
4116.270541439385
 30
0.0
 10
236.7350895421034
 20
4117.056162777975
 30
0.0
 10
302.4306833681342
 20
4113.478502602245
 30
0.0
 10
382.0661416884375
 20
4111.10301331771
 30
0.0
 10
476.0265626892384
 20
4108.0747113826
 30
0.0
 10
570.0301725009961
 20
4101.676732752942
 30
0.0
 10
651.074170598549
 20
4096.397802497764
 30
0.0
 10
719.6419248296179
 20
4094.702659766751
 30
0.0
 10
765.918928551434
 20
4086.287775606698
 30
0.0
 10
800.7625173043775
 20
4074.047392216265
 30
0.0
 10
829.4870920789756
 20
4049.417208560369
 30
0.0
 10
812.9092201689139
 20
3987.145855191553
 30
0.0
 10
771.4992311222861
 20
3993.670686603876
 30
0.0
 10
750.0359533329051
 20
3997.052582430362
 30
0.0
 11
39.89438892796399
 21
4082.623867432587
 31
0.0
 11
111.7120355567995
 21
4101.722592165259
 31
0.0
 11
184.7073327778413
 21
4114.989894053424
 31
0.0
 11
236.6071735409499
 21
4116.471679661256
 31
0.0
 11
288.7413960278528
 21
4114.377533076456
 31
0.0
 11
382.0304503141647
 21
4111.066775418127
 31
0.0
 11
475.4100657868829
 21
4107.542977900236
 31
0.0
 11
570.4461763019767
 21
4101.695034508446
 31
0.0
 11
664.2627598352263
 21
4096.340374145423
 31
0.0
 11
718.6410834656916
 21
4093.348813789414
 31
0.0
 11
774.8488959531838
 21
4082.623867432568
 31
0.0
 11
801.1142575950296
 21
4071.869095128227
 31
0.0
 11
818.783285797788
 21
4054.041685362369
 31
0.0
 11
806.9286883632485
 21
4002.285979477787
 31
0.0
 11
750.0359533329051
 21
3997.052582430362
 31
0.0
  0
SPLINE
  5
36D
330
1F
100
AcDbEntity
  8
Layer_0
  6
Continuous
 62
     7
100
AcDbSpline
210
0.0
220
0.0
230
1.0
 70
     8
 71
     3
 72
     9
 73
     5
 74
     3
 42
0.0000000001
 43
0.0000000001
 44
0.00000001
 40
0.0
 40
0.0
 40
0.0
 40
0.0
 40
2.302302946547208
 40
4.610799669117236
 40
4.610799669117236
 40
4.610799669117236
 40
4.610799669117236
 10
765.0814539926382
 20
3994.079882703256
 30
0.0
 10
764.886887674313
 20
3994.891881288716
 30
0.0
 10
764.4972316051584
 20
3996.518062940778
 30
0.0
 10
762.8651992646353
 20
3996.884356474377
 30
0.0
 10
762.0480869241314
 20
3997.067749265756
 30
0.0
 11
765.0814539926382
 21
3994.079882703256
 31
0.0
 11
764.1879948633416
 21
3996.201752077642
 31
0.0
 11
762.0480869241314
 21
3997.067749265756
 31
0.0
  0
SPLINE
  5
36E
330
1F
100
AcDbEntity
  8
Layer_0
  6
Continuous
 62
     7
100
AcDbSpline
210
0.0
220
0.0
230
1.0
 70
     8
 71
     3
 72
     9
 73
     5
 74
     3
 42
0.0000000001
 43
0.0000000001
 44
0.00000001
 40
0.0
 40
0.0
 40
0.0
 40
0.0
 40
2.302302946547472
 40
4.61079966911729
 40
4.61079966911729
 40
4.61079966911729
 40
4.61079966911729
 10
3818.179267511994
 20
3994.079882703256
 30
0.0
 10
3817.984701193669
 20
3994.891881288716
 30
0.0
 10
3817.595045124513
 20
3996.518062940777
 30
0.0
 10
3815.963012783991
 20
3996.884356474376
 30
0.0
 10
3815.145900443487
 20
3997.067749265756
 30
0.0
 11
3818.179267511994
 21
3994.079882703256
 31
0.0
 11
3817.285808382697
 21
3996.201752077642
 31
0.0
 11
3815.145900443487
 21
3997.067749265756
 31
0.0
  0
SPLINE
  5
36F
330
1F
100
AcDbEntity
  8
Layer_0
  6
DASHED
 62
     3
100
AcDbSpline
210
0.0
220
0.0
230
1.0
 70
     8
 71
     3
 72
    21
 73
    17
 74
    15
 42
0.0000000001
 43
0.0000000001
 44
0.00000001
 40
0.0
 40
0.0
 40
0.0
 40
0.0
 40
74.31376490071408
 40
148.5049686635591
 40
200.4259582518141
 40
252.6022230111129
 40
345.9500069478869
 40
439.3960862384592
 40
534.6119501674841
 40
628.5812203224367
 40
683.0417703951574
 40
740.2636426031364
 40
768.6455796317322
 40
793.7456014761382
 40
846.8415954111459
 40
903.9745258793864
 40
903.9745258793864
 40
903.9745258793864
 40
903.9745258793864
 10
3092.99220244732
 20
4082.623867432587
 30
0.0
 10
3116.847084734653
 20
4089.239450001716
 30
0.0
 10
3164.517506913994
 20
4102.459704465103
 30
0.0
 10
3230.218248361034
 20
4116.270541439385
 30
0.0
 10
3289.832903061459
 20
4117.056162777975
 30
0.0
 10
3355.52849688749
 20
4113.478502602245
 30
0.0
 10
3435.163955207794
 20
4111.10301331771
 30
0.0
 10
3529.124376208594
 20
4108.074711382599
 30
0.0
 10
3623.127986020352
 20
4101.676732752941
 30
0.0
 10
3704.171984117906
 20
4096.397802497765
 30
0.0
 10
3772.739738348973
 20
4094.702659766751
 30
0.0
 10
3819.016742070789
 20
4086.287775606697
 30
0.0
 10
3853.860330823734
 20
4074.047392216264
 30
0.0
 10
3882.584905598329
 20
4049.417208560369
 30
0.0
 10
3866.007033688271
 20
3987.145855191553
 30
0.0
 10
3824.597044641643
 20
3993.670686603877
 30
0.0
 10
3803.133766852261
 20
3997.052582430362
 30
0.0
 11
3092.99220244732
 21
4082.623867432587
 31
0.0
 11
3164.809849076155
 21
4101.722592165259
 31
0.0
 11
3237.805146297197
 21
4114.989894053424
 31
0.0
 11
3289.704987060306
 21
4116.471679661256
 31
0.0
 11
3341.839209547209
 21
4114.377533076456
 31
0.0
 11
3435.128263833521
 21
4111.066775418127
 31
0.0
 11
3528.507879306239
 21
4107.542977900236
 31
0.0
 11
3623.543989821333
 21
4101.695034508446
 31
0.0
 11
3717.360573354582
 21
4096.340374145423
 31
0.0
 11
3771.738896985048
 21
4093.348813789414
 31
0.0
 11
3827.94670947254
 21
4082.623867432568
 31
0.0
 11
3854.212071114386
 21
4071.869095128227
 31
0.0
 11
3871.881099317144
 21
4054.041685362369
 31
0.0
 11
3860.026501882604
 21
4002.285979477787
 31
0.0
 11
3803.133766852261
 21
3997.052582430362
 31
0.0
  0
ARC
  5
370
330
1F
100
AcDbEntity
  8
1
  6
DASHED
 62
     3
100
AcDbCircle
 10
3020.273243923657
 20
4538.542895921334
 30
0.0
 40
7.999999999999932
100
AcDbArc
 50
107.4761915279891
 51
196.5895406884244
  0
ARC
  5
371
330
1F
100
AcDbEntity
  8
1
  6
DASHED
 62
     3
100
AcDbCircle
 10
3082.032003164573
 20
4513.954689350984
 30
0.0
 40
49.99999999999948
100
AcDbArc
 50
23.93130366293367
 51
107.4761915279862
  0
ARC
  5
372
330
1F
100
AcDbEntity
  8
1
  6
DASHED
 62
     3
100
AcDbCircle
 10
3110.157736254696
 20
4450.578868596765
 30
0.0
 40
49.99999999999962
100
AcDbArc
 50
287.9373149550919
 51
23.93130366293367
  0
ARC
  5
373
330
1F
100
AcDbEntity
  8
1
  6
DASHED
 62
     3
100
AcDbCircle
 10
3064.074767576532
 20
4391.515578068943
 30
0.0
 40
8.000000000000696
100
AcDbArc
 50
196.5895406884306
 51
287.9373149550937
  0
ARC
  5
374
330
1F
100
AcDbEntity
  8
1
  6
Continuous
 62
     7
100
AcDbCircle
 10
3110.013470718141
 20
4401.761769794379
 30
0.0
 40
50.00000000000004
100
AcDbArc
 50
287.9373149550934
 51
23.93130366293419
  0
ARC
  5
375
330
1F
100
AcDbEntity
  8
1
  6
Continuous
 62
     7
100
AcDbCircle
 10
3081.887737628019
 20
4465.137590548598
 30
0.0
 40
49.99999999999948
100
AcDbArc
 50
23.93130366293367
 51
107.4761915279862
  0
ARC
  5
376
330
1F
100
AcDbEntity
  8
1
  6
Continuous
 62
     7
100
AcDbCircle
 10
3063.930502039978
 20
4342.698479266557
 30
0.0
 40
8.000000000000437
100
AcDbArc
 50
196.5895406884244
 51
287.9373149550937
  0
ARC
  5
377
330
1F
100
AcDbEntity
  8
1
  6
Continuous
 62
     7
100
AcDbCircle
 10
3020.128978387103
 20
4489.725797118948
 30
0.0
 40
7.999999999999932
100
AcDbArc
 50
107.4761915279891
 51
196.5895406884306
  0
ARC
  5
378
330
1F
100
AcDbEntity
  8
1
  6
Continuous
 62
     7
100
AcDbCircle
 10
819.4476689007129
 20
4239.123363556981
 30
0.0
 40
8.000000000000197
100
AcDbArc
 50
0.0195215595581
 51
90.0
  0
ARC
  5
379
330
1F
100
AcDbEntity
  8
1
  6
Continuous
 62
     7
100
AcDbCircle
 10
1.08652825849776
 20
4319.126276286169
 30
0.0
 40
8.0
100
AcDbArc
 50
90.0
 51
190.2625131088348
  0
ARC
  5
37A
330
1F
100
AcDbEntity
  8
1
  6
Continuous
 62
     7
100
AcDbCircle
 10
819.568258826705
 20
3885.191930779271
 30
0.0
 40
8.000000000000375
100
AcDbArc
 50
281.3731536321066
 51
0.01952155955485
  0
ARC
  5
37B
330
1F
100
AcDbEntity
  8
1
  6
Continuous
 62
     7
100
AcDbCircle
 10
15.57145583708052
 20
4239.123363556981
 30
0.0
 40
8.0
100
AcDbArc
 50
90.0
 51
190.2625131088348
  0
ARC
  5
37C
330
1F
100
AcDbEntity
  8
1
  6
Continuous
 62
     1
100
AcDbCircle
 10
20.40521592944515
 20
4235.058658446159
 30
0.0
 40
8.00000000000003
100
AcDbArc
 50
90.0085870678573
 51
190.2725307477051
  0
ARC
  5
37D
330
1F
100
AcDbEntity
  8
1
  6
Continuous
 62
     1
100
AcDbCircle
 10
817.5315756986133
 20
4237.178125875313
 30
0.0
 40
6.000000000000148
100
AcDbArc
 50
0.01952155956028
 51
90.00858706785625
  0
ARC
  5
37E
330
1F
100
AcDbEntity
  8
1
  6
Continuous
 62
     1
100
AcDbCircle
 10
3870.629389217969
 20
4237.178125875313
 30
0.0
 40
5.999999999999694
100
AcDbArc
 50
0.01952155956028
 51
90.0085870678519
  0
ARC
  5
37F
330
1F
100
AcDbEntity
  8
1
  6
Continuous
 62
     1
100
AcDbCircle
 10
3073.503029448801
 20
4235.058658446159
 30
0.0
 40
8.00000000000003
100
AcDbArc
 50
90.00858706785733
 51
190.2725307477051
  0
ARC
  5
380
330
1F
100
AcDbEntity
  8
1
  6
Continuous
 62
     7
100
AcDbCircle
 10
3068.669269356436
 20
4239.123363556981
 30
0.0
 40
8.0
100
AcDbArc
 50
90.0
 51
190.2625131088348
  0
ARC
  5
381
330
1F
100
AcDbEntity
  8
1
  6
Continuous
 62
     7
100
AcDbCircle
 10
3872.666072346061
 20
3885.191930779271
 30
0.0
 40
8.000000000000375
100
AcDbArc
 50
281.3731536321066
 51
0.01952155955485
  0
ARC
  5
382
330
1F
100
AcDbEntity
  8
1
  6
Continuous
 62
     7
100
AcDbCircle
 10
3054.184341777854
 20
4319.126276286169
 30
0.0
 40
8.0
100
AcDbArc
 50
90.0
 51
190.2625131088348
  0
ARC
  5
383
330
1F
100
AcDbEntity
  8
1
  6
Continuous
 62
     7
100
AcDbCircle
 10
3872.545482420069
 20
4239.123363556981
 30
0.0
 40
7.999999999999742
100
AcDbArc
 50
0.01952155955811
 51
90.0
  0
ARC
  5
384
330
1F
100
AcDbEntity
  8
1
  6
Continuous
 62
     7
100
AcDbCircle
 10
1514.02932192327
 20
3118.629764432599
 30
0.0
 40
10.0
100
AcDbArc
 50
0.0
 51
90.0
  0
ARC
  5
385
330
1F
100
AcDbEntity
  8
1
  6
Continuous
 62
     7
100
AcDbCircle
 10
802.513930554891
 20
3118.629764432599
 30
0.0
 40
10.0
100
AcDbArc
 50
90.0
 51
180.0
  0
ARC
  5
386
330
1F
100
AcDbEntity
  8
1
  6
Continuous
 62
     7
100
AcDbCircle
 10
782.5
 20
3118.629764432599
 30
0.0
 40
10.0
100
AcDbArc
 50
0.0
 51
90.0
  0
ARC
  5
387
330
1F
100
AcDbEntity
  8
1
  6
Continuous
 62
     7
100
AcDbCircle
 10
70.97067807673011
 20
3118.629764432599
 30
0.0
 40
10.0
100
AcDbArc
 50
90.0
 51
180.0
  0
ARC
  5
388
330
1F
100
AcDbEntity
  8
1
  6
Continuous
 62
     7
100
AcDbCircle
 10
70.97067807673011
 20
1918.614769852039
 30
0.0
 40
10.0
100
AcDbArc
 50
90.0
 51
180.0
  0
ARC
  5
389
330
1F
100
AcDbEntity
  8
1
  6
Continuous
 62
     7
100
AcDbCircle
 10
892.5
 20
1918.614769852039
 30
0.0
 40
10.0
100
AcDbArc
 50
0.0
 51
90.0
  0
ARC
  5
38A
330
1F
100
AcDbEntity
  8
1
  6
Continuous
 62
     7
100
AcDbCircle
 10
912.513930554891
 20
1918.614769852039
 30
0.0
 40
10.0
100
AcDbArc
 50
90.0
 51
180.0
  0
ARC
  5
38B
330
1F
100
AcDbEntity
  8
1
  6
Continuous
 62
     7
100
AcDbCircle
 10
1734.02932192327
 20
1918.614769852039
 30
0.0
 40
10.0
100
AcDbArc
 50
0.0
 51
90.0
  0
ARC
  5
38C
330
1F
100
AcDbEntity
  8
1
  6
Continuous
 62
     7
100
AcDbCircle
 10
3782.493034722555
 20
3307.24452875147
 30
0.0
 40
10.0
100
AcDbArc
 50
0.0
 51
90.0
  0
ARC
  5
38D
330
1F
100
AcDbEntity
  8
1
  6
Continuous
 62
     7
100
AcDbCircle
 10
3070.97067807673
 20
3307.24452875147
 30
0.0
 40
10.0
100
AcDbArc
 50
90.0
 51
180.0
  0
ARC
  5
38E
330
1F
100
AcDbEntity
  8
1
  6
Continuous
 62
     7
100
AcDbCircle
 10
3070.97067807673
 20
3145.686578157162
 30
0.0
 40
10.0
100
AcDbArc
 50
180.0
 51
270.0
  0
ARC
  5
38F
330
1F
100
AcDbEntity
  8
1
  6
Continuous
 62
     7
100
AcDbCircle
 10
3782.493034722555
 20
3145.686578157162
 30
0.0
 40
10.0
100
AcDbArc
 50
270.0
 51
0.0
  0
ARC
  5
390
330
1F
100
AcDbEntity
  8
1
  6
DASHED
 62
     3
100
AcDbCircle
 10
3782.493034722555
 20
3196.159585121818
 30
0.0
 40
10.0
100
AcDbArc
 50
270.0
 51
0.0
  0
ARC
  5
391
330
1F
100
AcDbEntity
  8
1
  6
DASHED
 62
     3
100
AcDbCircle
 10
3782.493034722555
 20
3357.234418040221
 30
0.0
 40
10.0
100
AcDbArc
 50
0.0
 51
90.0
  0
ARC
  5
392
330
1F
100
AcDbEntity
  8
1
  6
DASHED
 62
     3
100
AcDbCircle
 10
3070.97067807673
 20
3357.234418040221
 30
0.0
 40
10.0
100
AcDbArc
 50
90.0
 51
180.0
  0
ARC
  5
393
330
1F
100
AcDbEntity
  8
1
  6
DASHED
 62
     3
100
AcDbCircle
 10
3070.97067807673
 20
3196.159585121818
 30
0.0
 40
10.0
100
AcDbArc
 50
180.0
 51
270.0
  0
ARC
  5
394
330
1F
100
AcDbEntity
  8
1
  6
Continuous
 62
     7
100
AcDbCircle
 10
3070.97067807673
 20
3118.629764432599
 30
0.0
 40
10.0
100
AcDbArc
 50
90.0
 51
180.0
  0
ARC
  5
395
330
1F
100
AcDbEntity
  8
1
  6
Continuous
 62
     7
100
AcDbCircle
 10
3782.5
 20
3118.629764432599
 30
0.0
 40
10.0
100
AcDbArc
 50
0.0
 51
90.0
  0
ARC
  5
396
330
1F
100
AcDbEntity
  8
1
  6
Continuous
 62
     7
100
AcDbCircle
 10
3802.513930554891
 20
3118.629764432599
 30
0.0
 40
10.0
100
AcDbArc
 50
90.0
 51
180.0
  0
ARC
  5
397
330
1F
100
AcDbEntity
  8
1
  6
Continuous
 62
     7
100
AcDbCircle
 10
4514.02932192327
 20
3118.629764432599
 30
0.0
 40
10.0
100
AcDbArc
 50
0.0
 51
90.0
  0
ARC
  5
398
330
1F
100
AcDbEntity
  8
1
  6
DASHED
 62
     3
100
AcDbCircle
 10
4514.02932192327
 20
3196.159585121818
 30
0.0
 40
10.0
100
AcDbArc
 50
270.0
 51
0.0
  0
ARC
  5
399
330
1F
100
AcDbEntity
  8
1
  6
DASHED
 62
     3
100
AcDbCircle
 10
4514.02932192327
 20
3357.234418040221
 30
0.0
 40
10.0
100
AcDbArc
 50
0.0
 51
90.0
  0
ARC
  5
39A
330
1F
100
AcDbEntity
  8
1
  6
DASHED
 62
     3
100
AcDbCircle
 10
3802.520895832337
 20
3357.234418040221
 30
0.0
 40
10.0
100
AcDbArc
 50
90.0
 51
180.0
  0
ARC
  5
39B
330
1F
100
AcDbEntity
  8
1
  6
DASHED
 62
     3
100
AcDbCircle
 10
3802.506965277446
 20
3196.159585121818
 30
0.0
 40
10.0
100
AcDbArc
 50
180.0
 51
270.0
  0
ARC
  5
39C
330
1F
100
AcDbEntity
  8
1
  6
Continuous
 62
     7
100
AcDbCircle
 10
3802.506965277446
 20
3145.686578157162
 30
0.0
 40
10.0
100
AcDbArc
 50
180.0
 51
270.0
  0
ARC
  5
39D
330
1F
100
AcDbEntity
  8
1
  6
Continuous
 62
     7
100
AcDbCircle
 10
4514.02932192327
 20
3145.686578157162
 30
0.0
 40
10.0
100
AcDbArc
 50
270.0
 51
0.0
  0
ARC
  5
39E
330
1F
100
AcDbEntity
  8
1
  6
Continuous
 62
     7
100
AcDbCircle
 10
4514.02932192327
 20
3307.24452875147
 30
0.0
 40
10.0
100
AcDbArc
 50
0.0
 51
90.0
  0
ARC
  5
39F
330
1F
100
AcDbEntity
  8
1
  6
Continuous
 62
     7
100
AcDbCircle
 10
3802.520895832337
 20
3307.24452875147
 30
0.0
 40
10.0
100
AcDbArc
 50
90.0
 51
180.0
  0
ARC
  5
3A0
330
1F
100
AcDbEntity
  8
1
  6
Continuous
 62
     7
100
AcDbCircle
 10
3912.520895832337
 20
2107.22953417091
 30
0.0
 40
10.0
100
AcDbArc
 50
90.0
 51
180.0
  0
ARC
  5
3A1
330
1F
100
AcDbEntity
  8
1
  6
Continuous
 62
     7
100
AcDbCircle
 10
4734.02932192327
 20
2107.22953417091
 30
0.0
 40
10.0
100
AcDbArc
 50
0.0
 51
90.0
  0
ARC
  5
3A2
330
1F
100
AcDbEntity
  8
1
  6
Continuous
 62
     7
100
AcDbCircle
 10
4734.02932192327
 20
1945.671583576602
 30
0.0
 40
10.0
100
AcDbArc
 50
270.0
 51
0.0
  0
ARC
  5
3A3
330
1F
100
AcDbEntity
  8
1
  6
Continuous
 62
     7
100
AcDbCircle
 10
3912.506965277446
 20
1945.671583576602
 30
0.0
 40
10.0
100
AcDbArc
 50
180.0
 51
270.0
  0
ARC
  5
3A4
330
1F
100
AcDbEntity
  8
1
  6
DASHED
 62
     3
100
AcDbCircle
 10
3912.506965277446
 20
1996.144590541257
 30
0.0
 40
10.0
100
AcDbArc
 50
180.0
 51
270.0
  0
ARC
  5
3A5
330
1F
100
AcDbEntity
  8
1
  6
DASHED
 62
     3
100
AcDbCircle
 10
3912.520895832337
 20
2157.21942345966
 30
0.0
 40
10.0
100
AcDbArc
 50
90.0
 51
180.0
  0
ARC
  5
3A6
330
1F
100
AcDbEntity
  8
1
  6
DASHED
 62
     3
100
AcDbCircle
 10
4734.02932192327
 20
2157.21942345966
 30
0.0
 40
10.0
100
AcDbArc
 50
0.0
 51
90.0
  0
ARC
  5
3A7
330
1F
100
AcDbEntity
  8
1
  6
DASHED
 62
     3
100
AcDbCircle
 10
4734.02932192327
 20
1996.144590541257
 30
0.0
 40
10.0
100
AcDbArc
 50
270.0
 51
0.0
  0
ARC
  5
3A8
330
1F
100
AcDbEntity
  8
1
  6
Continuous
 62
     7
100
AcDbCircle
 10
4734.02932192327
 20
1918.614769852039
 30
0.0
 40
10.0
100
AcDbArc
 50
0.0
 51
90.0
  0
ARC
  5
3A9
330
1F
100
AcDbEntity
  8
1
  6
Continuous
 62
     7
100
AcDbCircle
 10
3912.513930554891
 20
1918.614769852039
 30
0.0
 40
10.0
100
AcDbArc
 50
90.0
 51
180.0
  0
ARC
  5
3AA
330
1F
100
AcDbEntity
  8
1
  6
Continuous
 62
     7
100
AcDbCircle
 10
3892.5
 20
1918.614769852039
 30
0.0
 40
10.0
100
AcDbArc
 50
0.0
 51
90.0
  0
ARC
  5
3AB
330
1F
100
AcDbEntity
  8
1
  6
Continuous
 62
     7
100
AcDbCircle
 10
3070.97067807673
 20
1918.614769852039
 30
0.0
 40
10.0
100
AcDbArc
 50
90.0
 51
180.0
  0
ARC
  5
3AC
330
1F
100
AcDbEntity
  8
1
  6
DASHED
 62
     3
100
AcDbCircle
 10
3070.97067807673
 20
1996.144590541257
 30
0.0
 40
10.0
100
AcDbArc
 50
180.0
 51
270.0
  0
ARC
  5
3AD
330
1F
100
AcDbEntity
  8
1
  6
DASHED
 62
     3
100
AcDbCircle
 10
3070.97067807673
 20
2157.21942345966
 30
0.0
 40
10.0
100
AcDbArc
 50
90.0
 51
180.0
  0
ARC
  5
3AE
330
1F
100
AcDbEntity
  8
1
  6
DASHED
 62
     3
100
AcDbCircle
 10
3892.493034722555
 20
2157.21942345966
 30
0.0
 40
10.0
100
AcDbArc
 50
0.0
 51
90.0
  0
ARC
  5
3AF
330
1F
100
AcDbEntity
  8
1
  6
DASHED
 62
     3
100
AcDbCircle
 10
3892.493034722555
 20
1996.144590541257
 30
0.0
 40
10.0
100
AcDbArc
 50
270.0
 51
0.0
  0
ARC
  5
3B0
330
1F
100
AcDbEntity
  8
1
  6
Continuous
 62
     7
100
AcDbCircle
 10
3892.493034722555
 20
1945.671583576602
 30
0.0
 40
10.0
100
AcDbArc
 50
270.0
 51
0.0
  0
ARC
  5
3B1
330
1F
100
AcDbEntity
  8
1
  6
Continuous
 62
     7
100
AcDbCircle
 10
3070.97067807673
 20
1945.671583576602
 30
0.0
 40
10.0
100
AcDbArc
 50
180.0
 51
270.0
  0
ARC
  5
3B2
330
1F
100
AcDbEntity
  8
1
  6
Continuous
 62
     7
100
AcDbCircle
 10
3070.97067807673
 20
2107.22953417091
 30
0.0
 40
10.0
100
AcDbArc
 50
90.0
 51
180.0
  0
ARC
  5
3B3
330
1F
100
AcDbEntity
  8
1
  6
Continuous
 62
     7
100
AcDbCircle
 10
3892.493034722555
 20
2107.22953417091
 30
0.0
 40
10.0
100
AcDbArc
 50
0.0
 51
90.0
  0
ARC
  5
3B4
330
1F
100
AcDbEntity
  8
1
  6
Continuous
 62
     7
100
AcDbCircle
 10
1974.029321923271
 20
718.6147698520385
 30
0.0
 40
10.0
100
AcDbArc
 50
0.0
 51
90.0
  0
ARC
  5
3B5
330
1F
100
AcDbEntity
  8
1
  6
Continuous
 62
     7
100
AcDbCircle
 10
1032.506965277446
 20
718.6147698520385
 30
0.0
 40
10.0
100
AcDbArc
 50
90.0
 51
180.0
  0
ARC
  5
3B6
330
1F
100
AcDbEntity
  8
1
  6
Continuous
 62
     7
100
AcDbCircle
 10
1012.493034722555
 20
718.6147698520385
 30
0.0
 40
10.0
100
AcDbArc
 50
0.0
 51
90.0
  0
ARC
  5
3B7
330
1F
100
AcDbEntity
  8
1
  6
Continuous
 62
     7
100
AcDbCircle
 10
70.97067807673011
 20
718.6147698520385
 30
0.0
 40
10.0
100
AcDbArc
 50
90.0
 51
180.0
  0
ARC
  5
3B8
330
1F
100
AcDbEntity
  8
1
  6
Continuous
 62
     7
100
AcDbCircle
 10
4012.48606944511
 20
907.2295341709098
 30
0.0
 40
10.0
100
AcDbArc
 50
0.0
 51
90.0
  0
ARC
  5
3B9
330
1F
100
AcDbEntity
  8
1
  6
Continuous
 62
     7
100
AcDbCircle
 10
3070.97067807673
 20
907.2295341709098
 30
0.0
 40
10.0
100
AcDbArc
 50
90.0
 51
180.0
  0
ARC
  5
3BA
330
1F
100
AcDbEntity
  8
1
  6
Continuous
 62
     7
100
AcDbCircle
 10
3070.97067807673
 20
745.6715835766016
 30
0.0
 40
10.0
100
AcDbArc
 50
180.0
 51
270.0
  0
ARC
  5
3BB
330
1F
100
AcDbEntity
  8
1
  6
Continuous
 62
     7
100
AcDbCircle
 10
4012.48606944511
 20
745.6715835766016
 30
0.0
 40
10.0
100
AcDbArc
 50
270.0
 51
0.0
  0
ARC
  5
3BC
330
1F
100
AcDbEntity
  8
1
  6
DASHED
 62
     3
100
AcDbCircle
 10
4012.48606944511
 20
796.144590541257
 30
0.0
 40
10.0
100
AcDbArc
 50
270.0
 51
0.0
  0
ARC
  5
3BD
330
1F
100
AcDbEntity
  8
1
  6
DASHED
 62
     3
100
AcDbCircle
 10
4012.48606944511
 20
957.2194234596598
 30
0.0
 40
10.0
100
AcDbArc
 50
0.0
 51
90.0
  0
ARC
  5
3BE
330
1F
100
AcDbEntity
  8
1
  6
DASHED
 62
     3
100
AcDbCircle
 10
3070.97067807673
 20
957.2194234596598
 30
0.0
 40
10.0
100
AcDbArc
 50
90.0
 51
180.0
  0
ARC
  5
3BF
330
1F
100
AcDbEntity
  8
1
  6
DASHED
 62
     3
100
AcDbCircle
 10
3070.97067807673
 20
796.144590541257
 30
0.0
 40
10.0
100
AcDbArc
 50
180.0
 51
270.0
  0
ARC
  5
3C0
330
1F
100
AcDbEntity
  8
1
  6
Continuous
 62
     7
100
AcDbCircle
 10
3070.97067807673
 20
718.6147698520385
 30
0.0
 40
10.0
100
AcDbArc
 50
90.0
 51
180.0
  0
ARC
  5
3C1
330
1F
100
AcDbEntity
  8
1
  6
Continuous
 62
     7
100
AcDbCircle
 10
4012.493034722555
 20
718.6147698520385
 30
0.0
 40
10.0
100
AcDbArc
 50
0.0
 51
90.0
  0
ARC
  5
3C2
330
1F
100
AcDbEntity
  8
1
  6
Continuous
 62
     7
100
AcDbCircle
 10
4032.506965277446
 20
718.6147698520385
 30
0.0
 40
10.0
100
AcDbArc
 50
90.0
 51
180.0
  0
ARC
  5
3C3
330
1F
100
AcDbEntity
  8
1
  6
Continuous
 62
     7
100
AcDbCircle
 10
4974.029321923271
 20
718.6147698520385
 30
0.0
 40
10.0
100
AcDbArc
 50
0.0
 51
90.0
  0
ARC
  5
3C4
330
1F
100
AcDbEntity
  8
1
  6
DASHED
 62
     3
100
AcDbCircle
 10
4974.029321923271
 20
796.144590541257
 30
0.0
 40
10.0
100
AcDbArc
 50
270.0
 51
0.0
  0
ARC
  5
3C5
330
1F
100
AcDbEntity
  8
1
  6
DASHED
 62
     3
100
AcDbCircle
 10
4974.029321923271
 20
957.2194234596598
 30
0.0
 40
10.0
100
AcDbArc
 50
0.0
 51
90.0
  0
ARC
  5
3C6
330
1F
100
AcDbEntity
  8
1
  6
DASHED
 62
     3
100
AcDbCircle
 10
4032.513930554892
 20
957.2194234596598
 30
0.0
 40
10.0
100
AcDbArc
 50
90.0
 51
180.0
  0
ARC
  5
3C7
330
1F
100
AcDbEntity
  8
1
  6
DASHED
 62
     3
100
AcDbCircle
 10
4032.500000000001
 20
796.144590541257
 30
0.0
 40
10.0
100
AcDbArc
 50
180.0
 51
270.0
  0
ARC
  5
3C8
330
1F
100
AcDbEntity
  8
1
  6
Continuous
 62
     7
100
AcDbCircle
 10
4032.500000000001
 20
745.6715835766016
 30
0.0
 40
10.0
100
AcDbArc
 50
180.0
 51
270.0
  0
ARC
  5
3C9
330
1F
100
AcDbEntity
  8
1
  6
Continuous
 62
     7
100
AcDbCircle
 10
4974.029321923271
 20
745.6715835766016
 30
0.0
 40
10.0
100
AcDbArc
 50
270.0
 51
0.0
  0
ARC
  5
3CA
330
1F
100
AcDbEntity
  8
1
  6
Continuous
 62
     7
100
AcDbCircle
 10
4974.029321923271
 20
907.2295341709098
 30
0.0
 40
10.0
100
AcDbArc
 50
0.0
 51
90.0
  0
ARC
  5
3CB
330
1F
100
AcDbEntity
  8
1
  6
Continuous
 62
     7
100
AcDbCircle
 10
4032.513930554892
 20
907.2295341709098
 30
0.0
 40
10.0
100
AcDbArc
 50
90.0
 51
180.0
  0
LWPOLYLINE
  5
3CC
330
1F
100
AcDbEntity
  8
Layer_0
  6
Continuous
 62
     7
100
AcDbPolyline
 90
        9
 70
     0
 43
0.0
 10
750.0359533329051
 20
3599.984833164606
 10
753.4939917909819
 20
3599.984833164606
 10
755.7993507630331
 20
3599.984833164606
 10
757.9833750523708
 20
3599.984833164606
 10
760.6527380726207
 20
3599.984833164606
 10
762.2300889482453
 20
3599.984833164606
 10
763.9287745065835
 20
3599.984833164606
 10
764.4747805789543
 20
3599.984833164606
 10
765.0814539926382
 20
3599.984833164606
  0
LWPOLYLINE
  5
3CD
330
1F
100
AcDbEntity
  8
Layer_0
  6
Continuous
 62
     7
100
AcDbPolyline
 90
        2
 70
     0
 43
0.0
 10
31.37062746548554
 20
3712.219414698891
 10
134.1866042520874
 20
3732.19413684489
  0
LWPOLYLINE
  5
3CE
330
1F
100
AcDbEntity
  8
Layer_0
  6
Continuous
 62
     7
100
AcDbPolyline
 90
        2
 70
     0
 43
0.0
 10
133.2007599548401
 20
3737.093024660542
 10
132.7609217299055
 20
3739.261882114515
  0
LWPOLYLINE
  5
3CF
330
1F
100
AcDbEntity
  8
Layer_0
  6
Continuous
 62
     7
100
AcDbPolyline
 90
        2
 70
     0
 43
0.0
 10
134.1714374167518
 20
3732.178970009554
 10
133.2007599548401
 20
3737.093024660542
  0
LWPOLYLINE
  5
3D0
330
1F
100
AcDbEntity
  8
Layer_0
  6
Continuous
 62
     7
100
AcDbPolyline
 90
        2
 70
     0
 43
0.0
 10
53.66587541895797
 20
3967.082915793697
 10
32.29580442139059
 20
3722.59353007318
  0
LWPOLYLINE
  5
3D1
330
1F
100
AcDbEntity
  8
Layer_0
  6
Continuous
 62
     7
100
AcDbPolyline
 90
        2
 70
     0
 43
0.0
 10
32.28063758608414
 20
3722.59353007318
 10
98.6203753739851
 20
3735.515673784888
  0
LWPOLYLINE
  5
3D2
330
1F
100
AcDbEntity
  8
Layer_0
  6
Continuous
 62
     7
100
AcDbPolyline
 90
        2
 70
     0
 43
0.0
 10
32.28063758608414
 20
3722.59353007318
 10
31.38579430085019
 20
3712.219414698891
  0
LWPOLYLINE
  5
3D3
330
1F
100
AcDbEntity
  8
Layer_0
  6
Continuous
 62
     7
100
AcDbPolyline
 90
        2
 70
     0
 43
0.0
 10
51.26951543480618
 20
3997.052582430362
 10
51.80035467181233
 20
3997.052582430362
  0
LWPOLYLINE
  5
3D4
330
1F
100
AcDbEntity
  8
Layer_0
  6
Continuous
 62
     7
100
AcDbPolyline
 90
        2
 70
     0
 43
0.0
 10
31.37062746548554
 20
3712.219414698891
 10
21.58801866963268
 20
3600.0
  0
LWPOLYLINE
  5
3D5
330
1F
100
AcDbEntity
  8
Layer_0
  6
Continuous
 62
     7
100
AcDbPolyline
 90
        2
 70
     0
 43
0.0
 10
24.9095556096313
 20
3982.06774911203
 10
-8.32098062571959
 20
3602.593528843543
  0
LWPOLYLINE
  5
3D6
330
1F
100
AcDbEntity
  8
Layer_0
  6
Continuous
 62
     7
100
AcDbPolyline
 90
        9
 70
     0
 43
0.0
 10
735.0511200145725
 20
3599.984833164606
 10
735.6577934282564
 20
3599.984833164606
 10
736.203799500569
 20
3599.984833164606
 10
737.5991483520797
 20
3599.984833164606
 10
739.4798359345609
 20
3599.984833164606
 10
741.7245275652408
 20
3599.984833164606
 10
744.3332232441194
 20
3599.984833164606
 10
747.6699270194536
 20
3599.984833164606
 10
750.0359533329051
 20
3599.984833164606
  0
LWPOLYLINE
  5
3D7
330
1F
100
AcDbEntity
  8
Layer_1
  6
Continuous
 62
     7
100
AcDbPolyline
 90
        2
 70
     0
 43
0.0
 10
0.0
 20
2400.014994580561
 10
30.00000030742376
 20
2400.014994580561
  0
LWPOLYLINE
  5
3D8
330
1F
100
AcDbEntity
  8
Layer_1
  6
Continuous
 62
     7
100
AcDbPolyline
 90
        2
 70
     0
 43
0.0
 10
30.00000030742376
 20
2400.014994580561
 10
30.00000030742376
 20
2677.568081347629
  0
LWPOLYLINE
  5
3D9
330
1F
100
AcDbEntity
  8
Layer_1
  6
Continuous
 62
     7
100
AcDbPolyline
 90
        2
 70
     0
 43
0.0
 10
56.48129481539945
 20
2533.665147618362
 10
30.60667372110765
 20
2533.665147618362
  0
LWPOLYLINE
  5
3DA
330
1F
100
AcDbEntity
  8
Layer_1
  6
Continuous
 62
     7
100
AcDbPolyline
 90
        2
 70
     0
 43
0.0
 10
30.60667372110765
 20
2533.665147618362
 10
30.00000030742376
 20
2533.725814959726
  0
LWPOLYLINE
  5
3DB
330
1F
100
AcDbEntity
  8
Layer_1
  6
Continuous
 62
     7
100
AcDbPolyline
 90
        2
 70
     0
 43
0.0
 10
62.4873616109835
 20
2661.430568543271
 10
62.4873616109835
 20
2664.160598904894
  0
LWPOLYLINE
  5
3DC
330
1F
100
AcDbEntity
  8
Layer_1
  6
Continuous
 62
     7
100
AcDbPolyline
 90
        2
 70
     0
 43
0.0
 10
64.48938387617818
 20
2532.997806863253
 10
62.4873616109835
 20
2539.671214413983
  0
LWPOLYLINE
  5
3DD
330
1F
100
AcDbEntity
  8
Layer_1
  6
Continuous
 62
     7
100
AcDbPolyline
 90
        2
 70
     0
 43
0.0
 10
62.4873616109835
 20
2539.671214413983
 10
62.4873616109835
 20
2572.461912424347
  0
LWPOLYLINE
  5
3DE
330
1F
100
AcDbEntity
  8
Layer_1
  6
Continuous
 62
     7
100
AcDbPolyline
 90
        2
 70
     0
 43
0.0
 10
62.4873616109835
 20
2644.686382325172
 10
62.4873616109835
 20
2572.461912424347
  0
LWPOLYLINE
  5
3DF
330
1F
100
AcDbEntity
  8
Layer_1
  6
Continuous
 62
     7
100
AcDbPolyline
 90
        2
 70
     0
 43
0.0
 10
62.4873616109835
 20
2661.430568543271
 10
62.4873616109835
 20
2644.686382325172
  0
LWPOLYLINE
  5
3E0
330
1F
100
AcDbEntity
  8
Layer_1
  6
Continuous
 62
     7
100
AcDbPolyline
 90
        2
 70
     0
 43
0.0
 10
62.4873616109835
 20
2664.160598904894
 10
62.4873616109835
 20
2677.81075071318
  0
LWPOLYLINE
  5
3E1
330
1F
100
AcDbEntity
  8
Layer_1
  6
Continuous
 62
     1
100
AcDbPolyline
 90
        2
 70
     0
 43
0.0
 10
792.5
 20
2659.489213619401
 10
792.5
 20
2717.911863358655
  0
LWPOLYLINE
  5
3E2
330
1F
100
AcDbEntity
  8
Layer_1
  6
Continuous
 62
     1
100
AcDbPolyline
 90
        2
 70
     0
 43
0.0
 10
30.60667372110765
 20
3046.850188265968
 10
30.60667372110765
 20
2679.934107661057
  0
LWPOLYLINE
  5
3E3
330
1F
100
AcDbEntity
  8
Layer_1
  6
Continuous
 62
     1
100
AcDbPolyline
 90
        2
 70
     0
 43
0.0
 10
792.5
 20
2659.489213619401
 10
792.5
 20
2717.911863358655
  0
LWPOLYLINE
  5
3E4
330
1F
100
AcDbEntity
  8
Layer_1
  6
Continuous
 62
     1
100
AcDbPolyline
 90
        2
 70
     0
 43
0.0
 10
1554.393326278892
 20
2679.934107661057
 10
1554.393326278892
 20
3046.850188265968
  0
LWPOLYLINE
  5
3E5
330
1F
100
AcDbEntity
  8
Layer_1
  6
Continuous
 62
     7
100
AcDbPolyline
 90
        2
 70
     0
 43
0.0
 10
1522.512638389017
 20
2677.81075071318
 10
1522.512638389017
 20
2664.160598904894
  0
LWPOLYLINE
  5
3E6
330
1F
100
AcDbEntity
  8
Layer_1
  6
Continuous
 62
     7
100
AcDbPolyline
 90
        2
 70
     0
 43
0.0
 10
1522.512638389017
 20
2644.686382325172
 10
1522.512638389017
 20
2661.430568543271
  0
LWPOLYLINE
  5
3E7
330
1F
100
AcDbEntity
  8
Layer_1
  6
Continuous
 62
     7
100
AcDbPolyline
 90
        2
 70
     0
 43
0.0
 10
1522.512638389017
 20
2572.461912424347
 10
1522.512638389017
 20
2644.686382325172
  0
LWPOLYLINE
  5
3E8
330
1F
100
AcDbEntity
  8
Layer_1
  6
Continuous
 62
     7
100
AcDbPolyline
 90
        2
 70
     0
 43
0.0
 10
1522.512638389017
 20
2572.461912424347
 10
1522.512638389017
 20
2539.671214413983
  0
LWPOLYLINE
  5
3E9
330
1F
100
AcDbEntity
  8
Layer_1
  6
Continuous
 62
     7
100
AcDbPolyline
 90
        2
 70
     0
 43
0.0
 10
1522.512638389017
 20
2539.671214413983
 10
1520.510616123822
 20
2532.997806863253
  0
LWPOLYLINE
  5
3EA
330
1F
100
AcDbEntity
  8
Layer_1
  6
Continuous
 62
     7
100
AcDbPolyline
 90
        2
 70
     0
 43
0.0
 10
1522.512638389017
 20
2664.160598904894
 10
1522.512638389017
 20
2661.430568543271
  0
LWPOLYLINE
  5
3EB
330
1F
100
AcDbEntity
  8
Layer_1
  6
Continuous
 62
     7
100
AcDbPolyline
 90
        2
 70
     0
 43
0.0
 10
1554.999999692576
 20
2533.725814959726
 10
1554.393326278892
 20
2533.665147618362
  0
LWPOLYLINE
  5
3EC
330
1F
100
AcDbEntity
  8
Layer_1
  6
Continuous
 62
     7
100
AcDbPolyline
 90
        2
 70
     0
 43
0.0
 10
1554.393326278892
 20
2533.665147618362
 10
1528.518705184601
 20
2533.665147618362
  0
LWPOLYLINE
  5
3ED
330
1F
100
AcDbEntity
  8
Layer_1
  6
Continuous
 62
     7
100
AcDbPolyline
 90
        2
 70
     0
 43
0.0
 10
1554.999999692576
 20
2677.568081347629
 10
1554.999999692576
 20
2400.014994580561
  0
LWPOLYLINE
  5
3EE
330
1F
100
AcDbEntity
  8
Layer_1
  6
Continuous
 62
     7
100
AcDbPolyline
 90
        2
 70
     0
 43
0.0
 10
1554.999999692576
 20
2400.014994580561
 10
1585.0
 20
2400.014994580561
  0
LWPOLYLINE
  5
3EF
330
1F
100
AcDbEntity
  8
Layer_1
  6
Continuous
 62
     7
100
AcDbPolyline
 90
        2
 70
     0
 43
0.0
 10
1585.0
 20
2782.158577869259
 10
1585.0
 20
2400.014994580561
  0
LWPOLYLINE
  5
3F0
330
1F
100
AcDbEntity
  8
Layer_1
  6
Continuous
 62
     7
100
AcDbPolyline
 90
        2
 70
     0
 43
0.0
 10
0.0
 20
2400.014994580561
 10
0.0
 20
2782.158577869259
  0
LWPOLYLINE
  5
3F1
330
1F
100
AcDbEntity
  8
Layer_1
  6
Continuous
 62
     7
100
AcDbPolyline
 90
        2
 70
     0
 43
0.0
 10
1774.999999692576
 20
1200.0
 10
1805.0
 20
1200.0
  0
LWPOLYLINE
  5
3F2
330
1F
100
AcDbEntity
  8
Layer_1
  6
Continuous
 62
     7
100
AcDbPolyline
 90
        2
 70
     0
 43
0.0
 10
1774.999999692576
 20
1477.553086767069
 10
1774.999999692576
 20
1200.0
  0
LWPOLYLINE
  5
3F3
330
1F
100
AcDbEntity
  8
Layer_1
  6
Continuous
 62
     7
100
AcDbPolyline
 90
        2
 70
     0
 43
0.0
 10
1774.393326278892
 20
1333.650153037801
 10
1748.518705184601
 20
1333.650153037801
  0
LWPOLYLINE
  5
3F4
330
1F
100
AcDbEntity
  8
Layer_1
  6
Continuous
 62
     7
100
AcDbPolyline
 90
        2
 70
     0
 43
0.0
 10
1774.999999692576
 20
1333.710820379166
 10
1774.393326278892
 20
1333.650153037801
  0
LWPOLYLINE
  5
3F5
330
1F
100
AcDbEntity
  8
Layer_1
  6
Continuous
 62
     7
100
AcDbPolyline
 90
        2
 70
     0
 43
0.0
 10
1742.512638389017
 20
1464.145604324333
 10
1742.512638389017
 20
1461.41557396271
  0
LWPOLYLINE
  5
3F6
330
1F
100
AcDbEntity
  8
Layer_1
  6
Continuous
 62
     7
100
AcDbPolyline
 90
        2
 70
     0
 43
0.0
 10
1742.512638389017
 20
1339.656219833423
 10
1740.510616123822
 20
1332.982812282693
  0
LWPOLYLINE
  5
3F7
330
1F
100
AcDbEntity
  8
Layer_1
  6
Continuous
 62
     7
100
AcDbPolyline
 90
        2
 70
     0
 43
0.0
 10
1742.512638389017
 20
1372.446917843787
 10
1742.512638389017
 20
1339.656219833423
  0
LWPOLYLINE
  5
3F8
330
1F
100
AcDbEntity
  8
Layer_1
  6
Continuous
 62
     7
100
AcDbPolyline
 90
        2
 70
     0
 43
0.0
 10
1742.512638389017
 20
1372.446917843787
 10
1742.512638389017
 20
1444.671387744611
  0
LWPOLYLINE
  5
3F9
330
1F
100
AcDbEntity
  8
Layer_1
  6
Continuous
 62
     7
100
AcDbPolyline
 90
        2
 70
     0
 43
0.0
 10
1742.512638389017
 20
1444.671387744611
 10
1742.512638389017
 20
1461.41557396271
  0
LWPOLYLINE
  5
3FA
330
1F
100
AcDbEntity
  8
Layer_1
  6
Continuous
 62
     7
100
AcDbPolyline
 90
        2
 70
     0
 43
0.0
 10
1742.512638389017
 20
1477.795756132619
 10
1742.512638389017
 20
1464.145604324333
  0
LWPOLYLINE
  5
3FB
330
1F
100
AcDbEntity
  8
Layer_1
  6
Continuous
 62
     1
100
AcDbPolyline
 90
        2
 70
     0
 43
0.0
 10
1774.393326278892
 20
1479.919113080496
 10
1774.393326278892
 20
1846.835193685407
  0
LWPOLYLINE
  5
3FC
330
1F
100
AcDbEntity
  8
Layer_1
  6
Continuous
 62
     1
100
AcDbPolyline
 90
        2
 70
     0
 43
0.0
 10
902.5
 20
1459.47421903884
 10
902.5
 20
1517.896868778095
  0
LWPOLYLINE
  5
3FD
330
1F
100
AcDbEntity
  8
Layer_1
  6
Continuous
 62
     1
100
AcDbPolyline
 90
        2
 70
     0
 43
0.0
 10
30.60667372110765
 20
1846.835193685407
 10
30.60667372110765
 20
1479.919113080496
  0
LWPOLYLINE
  5
3FE
330
1F
100
AcDbEntity
  8
Layer_1
  6
Continuous
 62
     1
100
AcDbPolyline
 90
        2
 70
     0
 43
0.0
 10
902.5
 20
1459.47421903884
 10
902.5
 20
1517.896868778095
  0
LWPOLYLINE
  5
3FF
330
1F
100
AcDbEntity
  8
Layer_1
  6
Continuous
 62
     7
100
AcDbPolyline
 90
        2
 70
     0
 43
0.0
 10
62.4873616109835
 20
1464.145604324333
 10
62.4873616109835
 20
1477.795756132619
  0
LWPOLYLINE
  5
400
330
1F
100
AcDbEntity
  8
Layer_1
  6
Continuous
 62
     7
100
AcDbPolyline
 90
        2
 70
     0
 43
0.0
 10
62.4873616109835
 20
1461.41557396271
 10
62.4873616109835
 20
1444.671387744611
  0
LWPOLYLINE
  5
401
330
1F
100
AcDbEntity
  8
Layer_1
  6
Continuous
 62
     7
100
AcDbPolyline
 90
        2
 70
     0
 43
0.0
 10
62.4873616109835
 20
1444.671387744611
 10
62.4873616109835
 20
1372.446917843787
  0
LWPOLYLINE
  5
402
330
1F
100
AcDbEntity
  8
Layer_1
  6
Continuous
 62
     7
100
AcDbPolyline
 90
        2
 70
     0
 43
0.0
 10
62.4873616109835
 20
1339.656219833423
 10
62.4873616109835
 20
1372.446917843787
  0
LWPOLYLINE
  5
403
330
1F
100
AcDbEntity
  8
Layer_1
  6
Continuous
 62
     7
100
AcDbPolyline
 90
        2
 70
     0
 43
0.0
 10
64.48938387617818
 20
1332.982812282693
 10
62.4873616109835
 20
1339.656219833423
  0
LWPOLYLINE
  5
404
330
1F
100
AcDbEntity
  8
Layer_1
  6
Continuous
 62
     7
100
AcDbPolyline
 90
        2
 70
     0
 43
0.0
 10
62.4873616109835
 20
1461.41557396271
 10
62.4873616109835
 20
1464.145604324333
  0
LWPOLYLINE
  5
405
330
1F
100
AcDbEntity
  8
Layer_1
  6
Continuous
 62
     7
100
AcDbPolyline
 90
        2
 70
     0
 43
0.0
 10
30.60667372110765
 20
1333.650153037801
 10
30.00000030742376
 20
1333.710820379166
  0
LWPOLYLINE
  5
406
330
1F
100
AcDbEntity
  8
Layer_1
  6
Continuous
 62
     7
100
AcDbPolyline
 90
        2
 70
     0
 43
0.0
 10
56.48129481539945
 20
1333.650153037801
 10
30.60667372110765
 20
1333.650153037801
  0
LWPOLYLINE
  5
407
330
1F
100
AcDbEntity
  8
Layer_1
  6
Continuous
 62
     7
100
AcDbPolyline
 90
        2
 70
     0
 43
0.0
 10
30.00000030742376
 20
1200.0
 10
30.00000030742376
 20
1477.553086767069
  0
LWPOLYLINE
  5
408
330
1F
100
AcDbEntity
  8
Layer_1
  6
Continuous
 62
     7
100
AcDbPolyline
 90
        2
 70
     0
 43
0.0
 10
0.0
 20
1200.0
 10
30.00000030742376
 20
1200.0
  0
LWPOLYLINE
  5
409
330
1F
100
AcDbEntity
  8
Layer_1
  6
Continuous
 62
     7
100
AcDbPolyline
 90
        2
 70
     0
 43
0.0
 10
0.0
 20
1200.0
 10
0.0
 20
1582.143583288698
  0
LWPOLYLINE
  5
40A
330
1F
100
AcDbEntity
  8
Layer_1
  6
Continuous
 62
     7
100
AcDbPolyline
 90
        2
 70
     0
 43
0.0
 10
1805.0
 20
1582.143583288698
 10
1805.0
 20
1200.0
  0
LWPOLYLINE
  5
40B
330
1F
100
AcDbEntity
  8
Layer_1
  6
Continuous
 62
     7
100
AcDbPolyline
 90
        2
 70
     0
 43
0.0
 10
4554.999999692576
 20
2400.014994580561
 10
4585.0
 20
2400.014994580561
  0
LWPOLYLINE
  5
40C
330
1F
100
AcDbEntity
  8
Layer_1
  6
Continuous
 62
     7
100
AcDbPolyline
 90
        2
 70
     0
 43
0.0
 10
4554.999999692576
 20
2677.568081347629
 10
4554.999999692576
 20
2400.014994580561
  0
LWPOLYLINE
  5
40D
330
1F
100
AcDbEntity
  8
Layer_1
  6
Continuous
 62
     7
100
AcDbPolyline
 90
        2
 70
     0
 43
0.0
 10
4554.393326278892
 20
2533.665147618362
 10
4528.518705184601
 20
2533.665147618362
  0
LWPOLYLINE
  5
40E
330
1F
100
AcDbEntity
  8
Layer_1
  6
Continuous
 62
     7
100
AcDbPolyline
 90
        2
 70
     0
 43
0.0
 10
4554.999999692576
 20
2533.725814959726
 10
4554.393326278892
 20
2533.665147618362
  0
LWPOLYLINE
  5
40F
330
1F
100
AcDbEntity
  8
Layer_1
  6
Continuous
 62
     7
100
AcDbPolyline
 90
        2
 70
     0
 43
0.0
 10
4522.512638389017
 20
2664.160598904894
 10
4522.512638389017
 20
2661.430568543271
  0
LWPOLYLINE
  5
410
330
1F
100
AcDbEntity
  8
Layer_1
  6
Continuous
 62
     7
100
AcDbPolyline
 90
        2
 70
     0
 43
0.0
 10
4522.512638389017
 20
2539.671214413983
 10
4520.510616123822
 20
2532.997806863253
  0
LWPOLYLINE
  5
411
330
1F
100
AcDbEntity
  8
Layer_1
  6
Continuous
 62
     7
100
AcDbPolyline
 90
        2
 70
     0
 43
0.0
 10
4522.512638389017
 20
2572.461912424347
 10
4522.512638389017
 20
2539.671214413983
  0
LWPOLYLINE
  5
412
330
1F
100
AcDbEntity
  8
Layer_1
  6
Continuous
 62
     7
100
AcDbPolyline
 90
        2
 70
     0
 43
0.0
 10
4522.512638389017
 20
2572.461912424347
 10
4522.512638389017
 20
2644.686382325172
  0
LWPOLYLINE
  5
413
330
1F
100
AcDbEntity
  8
Layer_1
  6
Continuous
 62
     7
100
AcDbPolyline
 90
        2
 70
     0
 43
0.0
 10
4522.512638389017
 20
2644.686382325172
 10
4522.512638389017
 20
2661.430568543271
  0
LWPOLYLINE
  5
414
330
1F
100
AcDbEntity
  8
Layer_1
  6
Continuous
 62
     7
100
AcDbPolyline
 90
        2
 70
     0
 43
0.0
 10
4522.512638389017
 20
2677.81075071318
 10
4522.512638389017
 20
2664.160598904894
  0
LWPOLYLINE
  5
415
330
1F
100
AcDbEntity
  8
Layer_1
  6
Continuous
 62
     1
100
AcDbPolyline
 90
        2
 70
     0
 43
0.0
 10
4554.393326278892
 20
2679.934107661057
 10
4554.393326278892
 20
3046.850188265968
  0
LWPOLYLINE
  5
416
330
1F
100
AcDbEntity
  8
Layer_1
  6
Continuous
 62
     1
100
AcDbPolyline
 90
        2
 70
     0
 43
0.0
 10
3792.5
 20
2659.489213619401
 10
3792.5
 20
2717.911863358655
  0
LWPOLYLINE
  5
417
330
1F
100
AcDbEntity
  8
Layer_1
  6
Continuous
 62
     1
100
AcDbPolyline
 90
        2
 70
     0
 43
0.0
 10
3030.606673721108
 20
3046.850188265968
 10
3030.606673721108
 20
2679.934107661057
  0
LWPOLYLINE
  5
418
330
1F
100
AcDbEntity
  8
Layer_1
  6
Continuous
 62
     1
100
AcDbPolyline
 90
        2
 70
     0
 43
0.0
 10
3792.5
 20
2659.489213619401
 10
3792.5
 20
2717.911863358655
  0
LWPOLYLINE
  5
419
330
1F
100
AcDbEntity
  8
Layer_1
  6
Continuous
 62
     7
100
AcDbPolyline
 90
        2
 70
     0
 43
0.0
 10
3062.487361610984
 20
2664.160598904894
 10
3062.487361610984
 20
2677.81075071318
  0
LWPOLYLINE
  5
41A
330
1F
100
AcDbEntity
  8
Layer_1
  6
Continuous
 62
     7
100
AcDbPolyline
 90
        2
 70
     0
 43
0.0
 10
3062.487361610984
 20
2661.430568543271
 10
3062.487361610984
 20
2644.686382325172
  0
LWPOLYLINE
  5
41B
330
1F
100
AcDbEntity
  8
Layer_1
  6
Continuous
 62
     7
100
AcDbPolyline
 90
        2
 70
     0
 43
0.0
 10
3062.487361610984
 20
2644.686382325172
 10
3062.487361610984
 20
2572.461912424347
  0
LWPOLYLINE
  5
41C
330
1F
100
AcDbEntity
  8
Layer_1
  6
Continuous
 62
     7
100
AcDbPolyline
 90
        2
 70
     0
 43
0.0
 10
3062.487361610984
 20
2539.671214413983
 10
3062.487361610984
 20
2572.461912424347
  0
LWPOLYLINE
  5
41D
330
1F
100
AcDbEntity
  8
Layer_1
  6
Continuous
 62
     7
100
AcDbPolyline
 90
        2
 70
     0
 43
0.0
 10
3064.489383876178
 20
2532.997806863253
 10
3062.487361610984
 20
2539.671214413983
  0
LWPOLYLINE
  5
41E
330
1F
100
AcDbEntity
  8
Layer_1
  6
Continuous
 62
     7
100
AcDbPolyline
 90
        2
 70
     0
 43
0.0
 10
3062.487361610984
 20
2661.430568543271
 10
3062.487361610984
 20
2664.160598904894
  0
LWPOLYLINE
  5
41F
330
1F
100
AcDbEntity
  8
Layer_1
  6
Continuous
 62
     7
100
AcDbPolyline
 90
        2
 70
     0
 43
0.0
 10
3030.606673721108
 20
2533.665147618362
 10
3030.000000307424
 20
2533.725814959726
  0
LWPOLYLINE
  5
420
330
1F
100
AcDbEntity
  8
Layer_1
  6
Continuous
 62
     7
100
AcDbPolyline
 90
        2
 70
     0
 43
0.0
 10
3056.4812948154
 20
2533.665147618362
 10
3030.606673721108
 20
2533.665147618362
  0
LWPOLYLINE
  5
421
330
1F
100
AcDbEntity
  8
Layer_1
  6
Continuous
 62
     7
100
AcDbPolyline
 90
        2
 70
     0
 43
0.0
 10
3030.000000307424
 20
2400.014994580561
 10
3030.000000307424
 20
2677.568081347629
  0
LWPOLYLINE
  5
422
330
1F
100
AcDbEntity
  8
Layer_1
  6
Continuous
 62
     7
100
AcDbPolyline
 90
        2
 70
     0
 43
0.0
 10
3000.0
 20
2400.014994580561
 10
3030.000000307424
 20
2400.014994580561
  0
LWPOLYLINE
  5
423
330
1F
100
AcDbEntity
  8
Layer_1
  6
Continuous
 62
     7
100
AcDbPolyline
 90
        2
 70
     0
 43
0.0
 10
3000.0
 20
2400.014994580561
 10
3000.0
 20
2782.158577869259
  0
LWPOLYLINE
  5
424
330
1F
100
AcDbEntity
  8
Layer_1
  6
Continuous
 62
     7
100
AcDbPolyline
 90
        2
 70
     0
 43
0.0
 10
4585.0
 20
2782.158577869259
 10
4585.0
 20
2400.014994580561
  0
LWPOLYLINE
  5
425
330
1F
100
AcDbEntity
  8
Layer_1
  6
Continuous
 62
     7
100
AcDbPolyline
 90
        2
 70
     0
 43
0.0
 10
3000.0
 20
1200.0
 10
3030.000000307424
 20
1200.0
  0
LWPOLYLINE
  5
426
330
1F
100
AcDbEntity
  8
Layer_1
  6
Continuous
 62
     7
100
AcDbPolyline
 90
        2
 70
     0
 43
0.0
 10
3030.000000307424
 20
1200.0
 10
3030.000000307424
 20
1477.553086767069
  0
LWPOLYLINE
  5
427
330
1F
100
AcDbEntity
  8
Layer_1
  6
Continuous
 62
     7
100
AcDbPolyline
 90
        2
 70
     0
 43
0.0
 10
3056.4812948154
 20
1333.650153037801
 10
3030.606673721108
 20
1333.650153037801
  0
LWPOLYLINE
  5
428
330
1F
100
AcDbEntity
  8
Layer_1
  6
Continuous
 62
     7
100
AcDbPolyline
 90
        2
 70
     0
 43
0.0
 10
3030.606673721108
 20
1333.650153037801
 10
3030.000000307424
 20
1333.710820379166
  0
LWPOLYLINE
  5
429
330
1F
100
AcDbEntity
  8
Layer_1
  6
Continuous
 62
     7
100
AcDbPolyline
 90
        2
 70
     0
 43
0.0
 10
3062.487361610984
 20
1461.41557396271
 10
3062.487361610984
 20
1464.145604324333
  0
LWPOLYLINE
  5
42A
330
1F
100
AcDbEntity
  8
Layer_1
  6
Continuous
 62
     7
100
AcDbPolyline
 90
        2
 70
     0
 43
0.0
 10
3064.489383876178
 20
1332.982812282693
 10
3062.487361610984
 20
1339.656219833423
  0
LWPOLYLINE
  5
42B
330
1F
100
AcDbEntity
  8
Layer_1
  6
Continuous
 62
     7
100
AcDbPolyline
 90
        2
 70
     0
 43
0.0
 10
3062.487361610984
 20
1339.656219833423
 10
3062.487361610984
 20
1372.446917843787
  0
LWPOLYLINE
  5
42C
330
1F
100
AcDbEntity
  8
Layer_1
  6
Continuous
 62
     7
100
AcDbPolyline
 90
        2
 70
     0
 43
0.0
 10
3062.487361610984
 20
1444.671387744611
 10
3062.487361610984
 20
1372.446917843787
  0
LWPOLYLINE
  5
42D
330
1F
100
AcDbEntity
  8
Layer_1
  6
Continuous
 62
     7
100
AcDbPolyline
 90
        2
 70
     0
 43
0.0
 10
3062.487361610984
 20
1461.41557396271
 10
3062.487361610984
 20
1444.671387744611
  0
LWPOLYLINE
  5
42E
330
1F
100
AcDbEntity
  8
Layer_1
  6
Continuous
 62
     7
100
AcDbPolyline
 90
        2
 70
     0
 43
0.0
 10
3062.487361610984
 20
1464.145604324333
 10
3062.487361610984
 20
1477.795756132619
  0
LWPOLYLINE
  5
42F
330
1F
100
AcDbEntity
  8
Layer_1
  6
Continuous
 62
     1
100
AcDbPolyline
 90
        2
 70
     0
 43
0.0
 10
3902.5
 20
1459.47421903884
 10
3902.5
 20
1517.896868778095
  0
LWPOLYLINE
  5
430
330
1F
100
AcDbEntity
  8
Layer_1
  6
Continuous
 62
     1
100
AcDbPolyline
 90
        2
 70
     0
 43
0.0
 10
3030.606673721108
 20
1846.835193685407
 10
3030.606673721108
 20
1479.919113080496
  0
LWPOLYLINE
  5
431
330
1F
100
AcDbEntity
  8
Layer_1
  6
Continuous
 62
     1
100
AcDbPolyline
 90
        2
 70
     0
 43
0.0
 10
3902.5
 20
1459.47421903884
 10
3902.5
 20
1517.896868778095
  0
LWPOLYLINE
  5
432
330
1F
100
AcDbEntity
  8
Layer_1
  6
Continuous
 62
     1
100
AcDbPolyline
 90
        2
 70
     0
 43
0.0
 10
4774.393326278892
 20
1479.919113080496
 10
4774.393326278892
 20
1846.835193685407
  0
LWPOLYLINE
  5
433
330
1F
100
AcDbEntity
  8
Layer_1
  6
Continuous
 62
     7
100
AcDbPolyline
 90
        2
 70
     0
 43
0.0
 10
4742.512638389017
 20
1477.795756132619
 10
4742.512638389017
 20
1464.145604324333
  0
LWPOLYLINE
  5
434
330
1F
100
AcDbEntity
  8
Layer_1
  6
Continuous
 62
     7
100
AcDbPolyline
 90
        2
 70
     0
 43
0.0
 10
4742.512638389017
 20
1444.671387744611
 10
4742.512638389017
 20
1461.41557396271
  0
LWPOLYLINE
  5
435
330
1F
100
AcDbEntity
  8
Layer_1
  6
Continuous
 62
     7
100
AcDbPolyline
 90
        2
 70
     0
 43
0.0
 10
4742.512638389017
 20
1372.446917843787
 10
4742.512638389017
 20
1444.671387744611
  0
LWPOLYLINE
  5
436
330
1F
100
AcDbEntity
  8
Layer_1
  6
Continuous
 62
     7
100
AcDbPolyline
 90
        2
 70
     0
 43
0.0
 10
4742.512638389017
 20
1372.446917843787
 10
4742.512638389017
 20
1339.656219833423
  0
LWPOLYLINE
  5
437
330
1F
100
AcDbEntity
  8
Layer_1
  6
Continuous
 62
     7
100
AcDbPolyline
 90
        2
 70
     0
 43
0.0
 10
4742.512638389017
 20
1339.656219833423
 10
4740.510616123822
 20
1332.982812282693
  0
LWPOLYLINE
  5
438
330
1F
100
AcDbEntity
  8
Layer_1
  6
Continuous
 62
     7
100
AcDbPolyline
 90
        2
 70
     0
 43
0.0
 10
4742.512638389017
 20
1464.145604324333
 10
4742.512638389017
 20
1461.41557396271
  0
LWPOLYLINE
  5
439
330
1F
100
AcDbEntity
  8
Layer_1
  6
Continuous
 62
     7
100
AcDbPolyline
 90
        2
 70
     0
 43
0.0
 10
4774.999999692576
 20
1333.710820379166
 10
4774.393326278892
 20
1333.650153037801
  0
LWPOLYLINE
  5
43A
330
1F
100
AcDbEntity
  8
Layer_1
  6
Continuous
 62
     7
100
AcDbPolyline
 90
        2
 70
     0
 43
0.0
 10
4774.393326278892
 20
1333.650153037801
 10
4748.518705184601
 20
1333.650153037801
  0
LWPOLYLINE
  5
43B
330
1F
100
AcDbEntity
  8
Layer_1
  6
Continuous
 62
     7
100
AcDbPolyline
 90
        2
 70
     0
 43
0.0
 10
4774.999999692576
 20
1477.553086767069
 10
4774.999999692576
 20
1200.0
  0
LWPOLYLINE
  5
43C
330
1F
100
AcDbEntity
  8
Layer_1
  6
Continuous
 62
     7
100
AcDbPolyline
 90
        2
 70
     0
 43
0.0
 10
4774.999999692576
 20
1200.0
 10
4805.0
 20
1200.0
  0
LWPOLYLINE
  5
43D
330
1F
100
AcDbEntity
  8
Layer_1
  6
Continuous
 62
     7
100
AcDbPolyline
 90
        2
 70
     0
 43
0.0
 10
4805.0
 20
1582.143583288698
 10
4805.0
 20
1200.0
  0
LWPOLYLINE
  5
43E
330
1F
100
AcDbEntity
  8
Layer_1
  6
Continuous
 62
     7
100
AcDbPolyline
 90
        2
 70
     0
 43
0.0
 10
3000.0
 20
1200.0
 10
3000.0
 20
1582.143583288698
  0
LWPOLYLINE
  5
43F
330
1F
100
AcDbEntity
  8
Layer_1
  6
Continuous
 62
     7
100
AcDbPolyline
 90
        2
 70
     0
 43
0.0
 10
0.0
 20
0.0
 10
30.00000030742376
 20
0.0
  0
LWPOLYLINE
  5
440
330
1F
100
AcDbEntity
  8
Layer_1
  6
Continuous
 62
     7
100
AcDbPolyline
 90
        2
 70
     0
 43
0.0
 10
30.00000030742376
 20
0.0
 10
30.00000030742376
 20
277.5530867670684
  0
LWPOLYLINE
  5
441
330
1F
100
AcDbEntity
  8
Layer_1
  6
Continuous
 62
     7
100
AcDbPolyline
 90
        2
 70
     0
 43
0.0
 10
56.48129481539945
 20
133.6501530378008
 10
30.60667372110765
 20
133.6501530378008
  0
LWPOLYLINE
  5
442
330
1F
100
AcDbEntity
  8
Layer_1
  6
Continuous
 62
     7
100
AcDbPolyline
 90
        2
 70
     0
 43
0.0
 10
30.60667372110765
 20
133.6501530378008
 10
30.00000030742376
 20
133.7108203791659
  0
LWPOLYLINE
  5
443
330
1F
100
AcDbEntity
  8
Layer_1
  6
Continuous
 62
     7
100
AcDbPolyline
 90
        2
 70
     0
 43
0.0
 10
62.4873616109835
 20
261.4155739627099
 10
62.4873616109835
 20
264.145604324333
  0
LWPOLYLINE
  5
444
330
1F
100
AcDbEntity
  8
Layer_1
  6
Continuous
 62
     7
100
AcDbPolyline
 90
        2
 70
     0
 43
0.0
 10
64.48938387617818
 20
132.9828122826926
 10
62.4873616109835
 20
139.6562198334227
  0
LWPOLYLINE
  5
445
330
1F
100
AcDbEntity
  8
Layer_1
  6
Continuous
 62
     7
100
AcDbPolyline
 90
        2
 70
     0
 43
0.0
 10
62.4873616109835
 20
139.6562198334227
 10
62.4873616109835
 20
172.4469178437866
  0
LWPOLYLINE
  5
446
330
1F
100
AcDbEntity
  8
Layer_1
  6
Continuous
 62
     7
100
AcDbPolyline
 90
        2
 70
     0
 43
0.0
 10
62.4873616109835
 20
244.6713877446107
 10
62.4873616109835
 20
172.4469178437866
  0
LWPOLYLINE
  5
447
330
1F
100
AcDbEntity
  8
Layer_1
  6
Continuous
 62
     7
100
AcDbPolyline
 90
        2
 70
     0
 43
0.0
 10
62.4873616109835
 20
261.4155739627099
 10
62.4873616109835
 20
244.6713877446107
  0
LWPOLYLINE
  5
448
330
1F
100
AcDbEntity
  8
Layer_1
  6
Continuous
 62
     7
100
AcDbPolyline
 90
        2
 70
     0
 43
0.0
 10
62.4873616109835
 20
264.145604324333
 10
62.4873616109835
 20
277.7957561326188
  0
LWPOLYLINE
  5
449
330
1F
100
AcDbEntity
  8
Layer_1
  6
Continuous
 62
     1
100
AcDbPolyline
 90
        2
 70
     0
 43
0.0
 10
1022.493034722555
 20
259.4742190388402
 10
1022.493034722555
 20
317.8968687780948
  0
LWPOLYLINE
  5
44A
330
1F
100
AcDbEntity
  8
Layer_1
  6
Continuous
 62
     1
100
AcDbPolyline
 90
        2
 70
     0
 43
0.0
 10
30.60667372110765
 20
646.8351936854071
 10
30.60667372110765
 20
279.9191130804961
  0
LWPOLYLINE
  5
44B
330
1F
100
AcDbEntity
  8
Layer_1
  6
Continuous
 62
     1
100
AcDbPolyline
 90
        2
 70
     0
 43
0.0
 10
1022.493034722555
 20
259.4742190388402
 10
1022.493034722555
 20
317.8968687780948
  0
LWPOLYLINE
  5
44C
330
1F
100
AcDbEntity
  8
Layer_1
  6
Continuous
 62
     1
100
AcDbPolyline
 90
        2
 70
     0
 43
0.0
 10
2014.393326278893
 20
279.9191130804961
 10
2014.393326278893
 20
646.8351936854071
  0
LWPOLYLINE
  5
44D
330
1F
100
AcDbEntity
  8
Layer_1
  6
Continuous
 62
     7
100
AcDbPolyline
 90
        2
 70
     0
 43
0.0
 10
1982.512638389017
 20
277.7957561326188
 10
1982.512638389017
 20
264.145604324333
  0
LWPOLYLINE
  5
44E
330
1F
100
AcDbEntity
  8
Layer_1
  6
Continuous
 62
     7
100
AcDbPolyline
 90
        2
 70
     0
 43
0.0
 10
1982.512638389017
 20
244.6713877446107
 10
1982.512638389017
 20
261.4155739627099
  0
LWPOLYLINE
  5
44F
330
1F
100
AcDbEntity
  8
Layer_1
  6
Continuous
 62
     7
100
AcDbPolyline
 90
        2
 70
     0
 43
0.0
 10
1982.512638389017
 20
172.4469178437866
 10
1982.512638389017
 20
244.6713877446107
  0
LWPOLYLINE
  5
450
330
1F
100
AcDbEntity
  8
Layer_1
  6
Continuous
 62
     7
100
AcDbPolyline
 90
        2
 70
     0
 43
0.0
 10
1982.512638389017
 20
172.4469178437866
 10
1982.512638389017
 20
139.6562198334227
  0
LWPOLYLINE
  5
451
330
1F
100
AcDbEntity
  8
Layer_1
  6
Continuous
 62
     7
100
AcDbPolyline
 90
        2
 70
     0
 43
0.0
 10
1982.512638389017
 20
139.6562198334227
 10
1980.510616123823
 20
132.9828122826926
  0
LWPOLYLINE
  5
452
330
1F
100
AcDbEntity
  8
Layer_1
  6
Continuous
 62
     7
100
AcDbPolyline
 90
        2
 70
     0
 43
0.0
 10
1982.512638389017
 20
264.145604324333
 10
1982.512638389017
 20
261.4155739627099
  0
LWPOLYLINE
  5
453
330
1F
100
AcDbEntity
  8
Layer_1
  6
Continuous
 62
     7
100
AcDbPolyline
 90
        2
 70
     0
 43
0.0
 10
2014.999999692577
 20
133.7108203791659
 10
2014.393326278893
 20
133.6501530378008
  0
LWPOLYLINE
  5
454
330
1F
100
AcDbEntity
  8
Layer_1
  6
Continuous
 62
     7
100
AcDbPolyline
 90
        2
 70
     0
 43
0.0
 10
2014.393326278893
 20
133.6501530378008
 10
1988.518705184602
 20
133.6501530378008
  0
LWPOLYLINE
  5
455
330
1F
100
AcDbEntity
  8
Layer_1
  6
Continuous
 62
     7
100
AcDbPolyline
 90
        2
 70
     0
 43
0.0
 10
2014.999999692577
 20
277.5530867670684
 10
2014.999999692577
 20
0.0
  0
LWPOLYLINE
  5
456
330
1F
100
AcDbEntity
  8
Layer_1
  6
Continuous
 62
     7
100
AcDbPolyline
 90
        2
 70
     0
 43
0.0
 10
2014.999999692577
 20
0.0
 10
2045.000000000001
 20
0.0
  0
LWPOLYLINE
  5
457
330
1F
100
AcDbEntity
  8
Layer_1
  6
Continuous
 62
     7
100
AcDbPolyline
 90
        2
 70
     0
 43
0.0
 10
2045.000000000001
 20
382.1435832886984
 10
2045.000000000001
 20
0.0
  0
LWPOLYLINE
  5
458
330
1F
100
AcDbEntity
  8
Layer_1
  6
Continuous
 62
     7
100
AcDbPolyline
 90
        2
 70
     0
 43
0.0
 10
0.0
 20
0.0
 10
0.0
 20
382.1435832886984
  0
LWPOLYLINE
  5
459
330
1F
100
AcDbEntity
  8
Layer_1
  6
Continuous
 62
     1
100
AcDbPolyline
 90
        2
 70
     0
 43
0.0
 10
3030.606673721108
 20
646.8351936854071
 10
3030.606673721108
 20
279.9191130804961
  0
LWPOLYLINE
  5
45A
330
1F
100
AcDbEntity
  8
Layer_1
  6
Continuous
 62
     1
100
AcDbPolyline
 90
        2
 70
     0
 43
0.0
 10
4022.493034722555
 20
259.4742190388402
 10
4022.493034722555
 20
317.8968687780948
  0
LWPOLYLINE
  5
45B
330
1F
100
AcDbEntity
  8
Layer_1
  6
Continuous
 62
     7
100
AcDbPolyline
 90
        2
 70
     0
 43
0.0
 10
3062.487361610984
 20
264.145604324333
 10
3062.487361610984
 20
277.7957561326188
  0
LWPOLYLINE
  5
45C
330
1F
100
AcDbEntity
  8
Layer_1
  6
Continuous
 62
     7
100
AcDbPolyline
 90
        2
 70
     0
 43
0.0
 10
3062.487361610984
 20
261.4155739627099
 10
3062.487361610984
 20
244.6713877446107
  0
LWPOLYLINE
  5
45D
330
1F
100
AcDbEntity
  8
Layer_1
  6
Continuous
 62
     7
100
AcDbPolyline
 90
        2
 70
     0
 43
0.0
 10
3062.487361610984
 20
244.6713877446107
 10
3062.487361610984
 20
172.4469178437866
  0
LWPOLYLINE
  5
45E
330
1F
100
AcDbEntity
  8
Layer_1
  6
Continuous
 62
     7
100
AcDbPolyline
 90
        2
 70
     0
 43
0.0
 10
3062.487361610984
 20
139.6562198334227
 10
3062.487361610984
 20
172.4469178437866
  0
LWPOLYLINE
  5
45F
330
1F
100
AcDbEntity
  8
Layer_1
  6
Continuous
 62
     7
100
AcDbPolyline
 90
        2
 70
     0
 43
0.0
 10
3064.489383876178
 20
132.9828122826926
 10
3062.487361610984
 20
139.6562198334227
  0
LWPOLYLINE
  5
460
330
1F
100
AcDbEntity
  8
Layer_1
  6
Continuous
 62
     7
100
AcDbPolyline
 90
        2
 70
     0
 43
0.0
 10
3062.487361610984
 20
261.4155739627099
 10
3062.487361610984
 20
264.145604324333
  0
LWPOLYLINE
  5
461
330
1F
100
AcDbEntity
  8
Layer_1
  6
Continuous
 62
     7
100
AcDbPolyline
 90
        2
 70
     0
 43
0.0
 10
3030.606673721108
 20
133.6501530378008
 10
3030.000000307424
 20
133.7108203791659
  0
LWPOLYLINE
  5
462
330
1F
100
AcDbEntity
  8
Layer_1
  6
Continuous
 62
     7
100
AcDbPolyline
 90
        2
 70
     0
 43
0.0
 10
3056.4812948154
 20
133.6501530378008
 10
3030.606673721108
 20
133.6501530378008
  0
LWPOLYLINE
  5
463
330
1F
100
AcDbEntity
  8
Layer_1
  6
Continuous
 62
     7
100
AcDbPolyline
 90
        2
 70
     0
 43
0.0
 10
3030.000000307424
 20
0.0
 10
3030.000000307424
 20
277.5530867670684
  0
LWPOLYLINE
  5
464
330
1F
100
AcDbEntity
  8
Layer_1
  6
Continuous
 62
     7
100
AcDbPolyline
 90
        2
 70
     0
 43
0.0
 10
3000.0
 20
0.0
 10
3030.000000307424
 20
0.0
  0
LWPOLYLINE
  5
465
330
1F
100
AcDbEntity
  8
Layer_1
  6
Continuous
 62
     7
100
AcDbPolyline
 90
        2
 70
     0
 43
0.0
 10
3000.0
 20
0.0
 10
3000.0
 20
382.1435832886984
  0
LWPOLYLINE
  5
466
330
1F
100
AcDbEntity
  8
Layer_1
  6
Continuous
 62
     1
100
AcDbPolyline
 90
        2
 70
     0
 43
0.0
 10
4022.493034722555
 20
259.4742190388402
 10
4022.493034722555
 20
317.8968687780948
  0
LWPOLYLINE
  5
467
330
1F
100
AcDbEntity
  8
Layer_1
  6
Continuous
 62
     7
100
AcDbPolyline
 90
        2
 70
     0
 43
0.0
 10
5045.000000000001
 20
382.1435832886984
 10
5045.000000000001
 20
0.0
  0
LWPOLYLINE
  5
468
330
1F
100
AcDbEntity
  8
Layer_1
  6
Continuous
 62
     7
100
AcDbPolyline
 90
        2
 70
     0
 43
0.0
 10
5014.999999692577
 20
0.0
 10
5045.000000000001
 20
0.0
  0
LWPOLYLINE
  5
469
330
1F
100
AcDbEntity
  8
Layer_1
  6
Continuous
 62
     7
100
AcDbPolyline
 90
        2
 70
     0
 43
0.0
 10
5014.999999692577
 20
277.5530867670684
 10
5014.999999692577
 20
0.0
  0
LWPOLYLINE
  5
46A
330
1F
100
AcDbEntity
  8
Layer_1
  6
Continuous
 62
     7
100
AcDbPolyline
 90
        2
 70
     0
 43
0.0
 10
5014.393326278893
 20
133.6501530378008
 10
4988.518705184602
 20
133.6501530378008
  0
LWPOLYLINE
  5
46B
330
1F
100
AcDbEntity
  8
Layer_1
  6
Continuous
 62
     7
100
AcDbPolyline
 90
        2
 70
     0
 43
0.0
 10
5014.999999692577
 20
133.7108203791659
 10
5014.393326278893
 20
133.6501530378008
  0
LWPOLYLINE
  5
46C
330
1F
100
AcDbEntity
  8
Layer_1
  6
Continuous
 62
     7
100
AcDbPolyline
 90
        2
 70
     0
 43
0.0
 10
4982.512638389017
 20
264.145604324333
 10
4982.512638389017
 20
261.4155739627099
  0
LWPOLYLINE
  5
46D
330
1F
100
AcDbEntity
  8
Layer_1
  6
Continuous
 62
     7
100
AcDbPolyline
 90
        2
 70
     0
 43
0.0
 10
4982.512638389017
 20
139.6562198334227
 10
4980.510616123823
 20
132.9828122826926
  0
LWPOLYLINE
  5
46E
330
1F
100
AcDbEntity
  8
Layer_1
  6
Continuous
 62
     7
100
AcDbPolyline
 90
        2
 70
     0
 43
0.0
 10
4982.512638389017
 20
172.4469178437866
 10
4982.512638389017
 20
139.6562198334227
  0
LWPOLYLINE
  5
46F
330
1F
100
AcDbEntity
  8
Layer_1
  6
Continuous
 62
     7
100
AcDbPolyline
 90
        2
 70
     0
 43
0.0
 10
4982.512638389017
 20
172.4469178437866
 10
4982.512638389017
 20
244.6713877446107
  0
LWPOLYLINE
  5
470
330
1F
100
AcDbEntity
  8
Layer_1
  6
Continuous
 62
     7
100
AcDbPolyline
 90
        2
 70
     0
 43
0.0
 10
4982.512638389017
 20
244.6713877446107
 10
4982.512638389017
 20
261.4155739627099
  0
LWPOLYLINE
  5
471
330
1F
100
AcDbEntity
  8
Layer_1
  6
Continuous
 62
     7
100
AcDbPolyline
 90
        2
 70
     0
 43
0.0
 10
4982.512638389017
 20
277.7957561326188
 10
4982.512638389017
 20
264.145604324333
  0
LWPOLYLINE
  5
472
330
1F
100
AcDbEntity
  8
Layer_1
  6
Continuous
 62
     1
100
AcDbPolyline
 90
        2
 70
     0
 43
0.0
 10
5014.393326278893
 20
279.9191130804961
 10
5014.393326278893
 20
646.8351936854071
  0
LWPOLYLINE
  5
473
330
1F
100
AcDbEntity
  8
Layer_0
  6
Continuous
 62
     7
100
AcDbPolyline
 90
        2
 70
     0
 43
0.0
 10
3096.996246977767
 20
4345.252788222744
 10
3096.996246977767
 20
4327.143586823833
  0
LWPOLYLINE
  5
474
330
1F
100
AcDbEntity
  8
Layer_0
  6
Continuous
 62
     7
100
AcDbPolyline
 90
        2
 70
     0
 43
0.0
 10
3084.0134359246
 20
4341.370078375039
 10
3084.0134359246
 20
4327.143586823833
  0
LWPOLYLINE
  5
475
330
1F
100
AcDbEntity
  8
Layer_0
  6
Continuous
 62
     7
100
AcDbPolyline
 90
        9
 70
     0
 43
0.0
 10
3788.148933533928
 20
3599.984833164606
 10
3788.755606947612
 20
3599.984833164606
 10
3789.301613019925
 20
3599.984833164606
 10
3790.696961871436
 20
3599.984833164606
 10
3792.577649453917
 20
3599.984833164606
 10
3794.822341084597
 20
3599.984833164606
 10
3797.431036763475
 20
3599.984833164606
 10
3800.767740538809
 20
3599.984833164606
 10
3803.133766852261
 20
3599.984833164606
  0
LWPOLYLINE
  5
476
330
1F
100
AcDbEntity
  8
Layer_0
  6
Continuous
 62
     7
100
AcDbPolyline
 90
        9
 70
     0
 43
0.0
 10
3803.133766852261
 20
3599.984833164606
 10
3806.591805310338
 20
3599.984833164606
 10
3808.897164282389
 20
3599.984833164606
 10
3811.081188571727
 20
3599.984833164606
 10
3813.750551591977
 20
3599.984833164606
 10
3815.327902467601
 20
3599.984833164606
 10
3817.026588025939
 20
3599.984833164606
 10
3817.57259409831
 20
3599.984833164606
 10
3818.179267511994
 20
3599.984833164606
  0
LWPOLYLINE
  5
477
330
1F
100
AcDbEntity
  8
Layer_0
  6
Continuous
 62
     7
100
AcDbPolyline
 90
        2
 70
     0
 43
0.0
 10
3084.468440984841
 20
3712.219414698891
 10
3187.284417771443
 20
3732.19413684489
  0
LWPOLYLINE
  5
478
330
1F
100
AcDbEntity
  8
Layer_0
  6
Continuous
 62
     7
100
AcDbPolyline
 90
        2
 70
     0
 43
0.0
 10
3186.298573474196
 20
3737.093024660542
 10
3185.858735249261
 20
3739.261882114515
  0
LWPOLYLINE
  5
479
330
1F
100
AcDbEntity
  8
Layer_0
  6
Continuous
 62
     7
100
AcDbPolyline
 90
        2
 70
     0
 43
0.0
 10
3187.269250936108
 20
3732.178970009554
 10
3186.298573474196
 20
3737.093024660542
  0
LWPOLYLINE
  5
47A
330
1F
100
AcDbEntity
  8
Layer_0
  6
Continuous
 62
     7
100
AcDbPolyline
 90
        2
 70
     0
 43
0.0
 10
3106.763688938314
 20
3967.082915793697
 10
3085.393617940747
 20
3722.59353007318
  0
LWPOLYLINE
  5
47B
330
1F
100
AcDbEntity
  8
Layer_0
  6
Continuous
 62
     7
100
AcDbPolyline
 90
        2
 70
     0
 43
0.0
 10
3085.37845110544
 20
3722.59353007318
 10
3151.718188893341
 20
3735.515673784888
  0
LWPOLYLINE
  5
47C
330
1F
100
AcDbEntity
  8
Layer_0
  6
Continuous
 62
     7
100
AcDbPolyline
 90
        2
 70
     0
 43
0.0
 10
3085.37845110544
 20
3722.59353007318
 10
3084.483607820206
 20
3712.219414698891
  0
LWPOLYLINE
  5
47D
330
1F
100
AcDbEntity
  8
Layer_0
  6
Continuous
 62
     7
100
AcDbPolyline
 90
        2
 70
     0
 43
0.0
 10
3104.367328954162
 20
3997.052582430362
 10
3104.898168191168
 20
3997.052582430362
  0
LWPOLYLINE
  5
47E
330
1F
100
AcDbEntity
  8
Layer_0
  6
Continuous
 62
     7
100
AcDbPolyline
 90
        2
 70
     0
 43
0.0
 10
3084.468440984841
 20
3712.219414698891
 10
3074.685832188989
 20
3600.0
  0
LWPOLYLINE
  5
47F
330
1F
100
AcDbEntity
  8
Layer_0
  6
Continuous
 62
     7
100
AcDbPolyline
 90
        2
 70
     0
 43
0.0
 10
3078.007369128987
 20
3982.06774911203
 10
3044.776832893636
 20
3602.593528843543
  0
TEXT
  5
4A3
330
1F
100
AcDbEntity
  8
Layer_0
 62
   250
100
AcDbText
 10
1078.185602802495
 20
3528.993934587634
 30
0.0
 40
126.7316494279877
  1
43
 50
0.00000000000001
 41
1.0
  7
CONVERTER_11
100
AcDbText
  0
MTEXT
  5
4A5
330
1F
100
AcDbEntity
  8
1
 62
     2
100
AcDbMText
 10
1550.90452110948
 20
5340.79708070069
 30
0.0
 40
300.0
 41
0.0
 71
     5
 72
     1
  1
JR8810
  7
CONVERTER_12
 73
     1
 44
1.32052821128451
  0
TEXT
  5
4A6
330
1F
100
AcDbEntity
  8
Layer_0
 62
   250
100
AcDbText
 10
4131.28341632185
 20
3528.993934587634
 30
0.0
 40
126.7316494279877
  1
43
 50
0.00000000000001
 41
1.0
  7
CONVERTER_11
100
AcDbText
  0
ENDSEC
  0
SECTION
  2
OBJECTS
  0
DICTIONARY
  5
C
330
0
100
AcDbDictionary
281
     1
  3
ACAD_GROUP
350
D
  3
ACAD_LAYOUT
350
1A
  3
ACAD_MATERIAL
350
3B
  3
ACAD_MLEADERSTYLE
350
4A9
  3
ACAD_MLINESTYLE
350
17
  3
ACAD_PLOTSETTINGS
350
19
  3
ACAD_PLOTSTYLENAME
350
E
  3
ACAD_SCALELIST
350
481
  3
ACAD_VISUALSTYLE
350
2A
  3
AcDbVariableDictionary
350
4A7
  0
DICTIONARY
  5
D
102
{ACAD_REACTORS
330
C
102
}
330
C
100
AcDbDictionary
281
     1
  0
DICTIONARY
  5
1A
102
{ACAD_REACTORS
330
C
102
}
330
C
100
AcDbDictionary
281
     1
  3
Layout1
350
1E
  3
Layout2
350
26
  3
Model
350
22
  0
DICTIONARY
  5
3B
102
{ACAD_REACTORS
330
C
102
}
330
C
100
AcDbDictionary
281
     1
  3
ByBlock
350
3D
  3
ByLayer
350
3C
  3
Global
350
3E
  0
DICTIONARY
  5
4A9
102
{ACAD_REACTORS
330
C
102
}
330
C
100
AcDbDictionary
281
     1
  0
DICTIONARY
  5
17
102
{ACAD_REACTORS
330
C
102
}
330
C
100
AcDbDictionary
281
     1
  3
Standard
350
18
  0
DICTIONARY
  5
19
102
{ACAD_REACTORS
330
C
102
}
330
C
100
AcDbDictionary
281
     1
  0
ACDBDICTIONARYWDFLT
  5
E
102
{ACAD_REACTORS
330
C
102
}
330
C
100
AcDbDictionary
281
     1
  3
Normal
350
F
100
AcDbDictionaryWithDefault
340
F
  0
DICTIONARY
  5
481
102
{ACAD_REACTORS
330
C
102
}
330
C
100
AcDbDictionary
281
     1
  3
A0
350
482
  3
A1
350
483
  3
A2
350
484
  3
A3
350
485
  3
A4
350
486
  3
A5
350
487
  3
A6
350
488
  3
A7
350
489
  3
A8
350
48A
  3
A9
350
48B
  3
B0
350
48C
  3
B1
350
48D
  3
B2
350
48E
  3
B3
350
48F
  3
B4
350
490
  3
B5
350
491
  3
B6
350
492
  3
B7
350
493
  3
B8
350
494
  3
B9
350
495
  3
C0
350
496
  3
C1
350
497
  3
C2
350
498
  3
C3
350
499
  3
C4
350
49A
  3
C5
350
49B
  3
C6
350
49C
  3
C7
350
49D
  3
C8
350
49E
  3
C9
350
49F
  3
D0
350
4A0
  3
D1
350
4A1
  3
D2
350
4A2
  0
DICTIONARY
  5
2A
102
{ACAD_REACTORS
330
C
102
}
330
C
100
AcDbDictionary
281
     1
  3
2dWireframe
350
2F
  3
3D Hidden
350
31
  3
3dWireframe
350
30
  3
Basic
350
32
  3
Brighten
350
36
  3
ColorChange
350
3A
  3
Conceptual
350
34
  3
Dim
350
35
  3
Facepattern
350
39
  3
Flat
350
2B
  3
FlatWithEdges
350
2C
  3
Gouraud
350
2D
  3
GouraudWithEdges
350
2E
  3
Linepattern
350
38
  3
Realistic
350
33
  3
Thicken
350
37
  0
DICTIONARY
  5
4A7
102
{ACAD_REACTORS
330
C
102
}
330
C
100
AcDbDictionary
281
     1
  3
CANNOSCALE
350
4AA
  3
DIMASSOC
350
4AB
  3
HIDETEXT
350
4AC
  0
LAYOUT
  5
1E
102
{ACAD_REACTORS
330
1A
102
}
330
1A
100
AcDbPlotSettings
  1

  2
none_device
  4

  6

 40
0.0
 41
0.0
 42
0.0
 43
0.0
 44
0.0
 45
0.0
 46
0.0
 47
0.0
 48
0.0
 49
0.0
140
0.0
141
0.0
142
1.0
143
1.0
 70
   688
 72
     0
 73
     0
 74
     5
  7

 75
    16
147
1.0
148
0.0
149
0.0
100
AcDbLayout
  1
Layout1
 70
     1
 71
     1
 10
0.0
 20
0.0
 11
12.0
 21
9.0
 12
0.0
 22
0.0
 32
0.0
 14
1.00000000000000E+20
 24
1.00000000000000E+20
 34
1.00000000000000E+20
 15
-1.00000000000000E+20
 25
-1.00000000000000E+20
 35
-1.00000000000000E+20
146
0.0
 13
0.0
 23
0.0
 33
0.0
 16
1.0
 26
0.0
 36
0.0
 17
0.0
 27
1.0
 37
0.0
 76
     0
330
1B
  0
LAYOUT
  5
26
102
{ACAD_REACTORS
330
1A
102
}
330
1A
100
AcDbPlotSettings
  1

  2
none_device
  4

  6

 40
0.0
 41
0.0
 42
0.0
 43
0.0
 44
0.0
 45
0.0
 46
0.0
 47
0.0
 48
0.0
 49
0.0
140
0.0
141
0.0
142
1.0
143
1.0
 70
   688
 72
     0
 73
     0
 74
     5
  7

 75
    16
147
1.0
148
0.0
149
0.0
100
AcDbLayout
  1
Layout2
 70
     1
 71
     2
 10
0.0
 20
0.0
 11
0.0
 21
0.0
 12
0.0
 22
0.0
 32
0.0
 14
0.0
 24
0.0
 34
0.0
 15
0.0
 25
0.0
 35
0.0
146
0.0
 13
0.0
 23
0.0
 33
0.0
 16
1.0
 26
0.0
 36
0.0
 17
0.0
 27
1.0
 37
0.0
 76
     0
330
23
  0
LAYOUT
  5
22
102
{ACAD_REACTORS
330
1A
102
}
330
1A
100
AcDbPlotSettings
  1

  2
none_device
  4

  6

 40
0.0
 41
0.0
 42
0.0
 43
0.0
 44
0.0
 45
0.0
 46
0.0
 47
0.0
 48
0.0
 49
0.0
140
0.0
141
0.0
142
1.0
143
1.0
 70
  1712
 72
     0
 73
     0
 74
     0
  7

 75
     0
147
1.0
148
0.0
149
0.0
100
AcDbLayout
  1
Model
 70
     1
 71
     0
 10
0.0
 20
0.0
 11
12.0
 21
9.0
 12
0.0
 22
0.0
 32
0.0
 14
-173.9195303357825
 24
0.0
 34
0.0
 15
5218.919530335783
 25
5490.79708070069
 35
0.0
146
0.0
 13
0.0
 23
0.0
 33
0.0
 16
1.0
 26
0.0
 36
0.0
 17
0.0
 27
1.0
 37
0.0
 76
     0
330
1F
331
29
  0
MATERIAL
  5
3D
102
{ACAD_REACTORS
330
3B
102
}
102
{ACAD_XDICTIONARY
360
4CF
102
}
330
3B
100
AcDbMaterial
  1
ByBlock
  0
MATERIAL
  5
3C
102
{ACAD_REACTORS
330
3B
102
}
102
{ACAD_XDICTIONARY
360
4CD
102
}
330
3B
100
AcDbMaterial
  1
ByLayer
  0
MATERIAL
  5
3E
102
{ACAD_REACTORS
330
3B
102
}
102
{ACAD_XDICTIONARY
360
4D1
102
}
330
3B
100
AcDbMaterial
  1
Global
  0
MLINESTYLE
  5
18
102
{ACAD_REACTORS
330
17
102
}
330
17
100
AcDbMlineStyle
  2
Standard
 70
     0
  3

 62
   256
 51
90.0
 52
90.0
 71
     2
 49
0.5
 62
   256
  6
BYLAYER
 49
-0.5
 62
   256
  6
BYLAYER
  0
ACDBPLACEHOLDER
  5
F
102
{ACAD_REACTORS
330
E
102
}
330
E
  0
SCALE
  5
482
102
{ACAD_REACTORS
330
481
102
}
330
481
100
AcDbScale
 70
     0
300
1:1
140
1.0
141
1.0
290
     1
  0
SCALE
  5
483
102
{ACAD_REACTORS
330
481
102
}
330
481
100
AcDbScale
 70
     0
300
1:2
140
1.0
141
2.0
290
     0
  0
SCALE
  5
484
102
{ACAD_REACTORS
330
481
102
}
330
481
100
AcDbScale
 70
     0
300
1:4
140
1.0
141
4.0
290
     0
  0
SCALE
  5
485
102
{ACAD_REACTORS
330
481
102
}
330
481
100
AcDbScale
 70
     0
300
1:5
140
1.0
141
5.0
290
     0
  0
SCALE
  5
486
102
{ACAD_REACTORS
330
481
102
}
330
481
100
AcDbScale
 70
     0
300
1:8
140
1.0
141
8.0
290
     0
  0
SCALE
  5
487
102
{ACAD_REACTORS
330
481
102
}
330
481
100
AcDbScale
 70
     0
300
1:10
140
1.0
141
10.0
290
     0
  0
SCALE
  5
488
102
{ACAD_REACTORS
330
481
102
}
330
481
100
AcDbScale
 70
     0
300
1:16
140
1.0
141
16.0
290
     0
  0
SCALE
  5
489
102
{ACAD_REACTORS
330
481
102
}
330
481
100
AcDbScale
 70
     0
300
1:20
140
1.0
141
20.0
290
     0
  0
SCALE
  5
48A
102
{ACAD_REACTORS
330
481
102
}
330
481
100
AcDbScale
 70
     0
300
1:30
140
1.0
141
30.0
290
     0
  0
SCALE
  5
48B
102
{ACAD_REACTORS
330
481
102
}
330
481
100
AcDbScale
 70
     0
300
1:40
140
1.0
141
40.0
290
     0
  0
SCALE
  5
48C
102
{ACAD_REACTORS
330
481
102
}
330
481
100
AcDbScale
 70
     0
300
1:50
140
1.0
141
50.0
290
     0
  0
SCALE
  5
48D
102
{ACAD_REACTORS
330
481
102
}
330
481
100
AcDbScale
 70
     0
300
1:100
140
1.0
141
100.0
290
     0
  0
SCALE
  5
48E
102
{ACAD_REACTORS
330
481
102
}
330
481
100
AcDbScale
 70
     0
300
2:1
140
2.0
141
1.0
290
     0
  0
SCALE
  5
48F
102
{ACAD_REACTORS
330
481
102
}
330
481
100
AcDbScale
 70
     0
300
4:1
140
4.0
141
1.0
290
     0
  0
SCALE
  5
490
102
{ACAD_REACTORS
330
481
102
}
330
481
100
AcDbScale
 70
     0
300
8:1
140
8.0
141
1.0
290
     0
  0
SCALE
  5
491
102
{ACAD_REACTORS
330
481
102
}
330
481
100
AcDbScale
 70
     0
300
10:1
140
10.0
141
1.0
290
     0
  0
SCALE
  5
492
102
{ACAD_REACTORS
330
481
102
}
330
481
100
AcDbScale
 70
     0
300
100:1
140
100.0
141
1.0
290
     0
  0
SCALE
  5
493
102
{ACAD_REACTORS
330
481
102
}
330
481
100
AcDbScale
 70
     0
300
1/128" = 1'-0"
140
0.0078125
141
12.0
290
     0
  0
SCALE
  5
494
102
{ACAD_REACTORS
330
481
102
}
330
481
100
AcDbScale
 70
     0
300
1/64" = 1'-0"
140
0.015625
141
12.0
290
     0
  0
SCALE
  5
495
102
{ACAD_REACTORS
330
481
102
}
330
481
100
AcDbScale
 70
     0
300
1/32" = 1'-0"
140
0.03125
141
12.0
290
     0
  0
SCALE
  5
496
102
{ACAD_REACTORS
330
481
102
}
330
481
100
AcDbScale
 70
     0
300
1/16" = 1'-0"
140
0.0625
141
12.0
290
     0
  0
SCALE
  5
497
102
{ACAD_REACTORS
330
481
102
}
330
481
100
AcDbScale
 70
     0
300
3/32" = 1'-0"
140
0.09375
141
12.0
290
     0
  0
SCALE
  5
498
102
{ACAD_REACTORS
330
481
102
}
330
481
100
AcDbScale
 70
     0
300
1/8" = 1'-0"
140
0.125
141
12.0
290
     0
  0
SCALE
  5
499
102
{ACAD_REACTORS
330
481
102
}
330
481
100
AcDbScale
 70
     0
300
3/16" = 1'-0"
140
0.1875
141
12.0
290
     0
  0
SCALE
  5
49A
102
{ACAD_REACTORS
330
481
102
}
330
481
100
AcDbScale
 70
     0
300
1/4" = 1'-0"
140
0.25
141
12.0
290
     0
  0
SCALE
  5
49B
102
{ACAD_REACTORS
330
481
102
}
330
481
100
AcDbScale
 70
     0
300
3/8" = 1'-0"
140
0.375
141
12.0
290
     0
  0
SCALE
  5
49C
102
{ACAD_REACTORS
330
481
102
}
330
481
100
AcDbScale
 70
     0
300
1/2" = 1'-0"
140
0.5
141
12.0
290
     0
  0
SCALE
  5
49D
102
{ACAD_REACTORS
330
481
102
}
330
481
100
AcDbScale
 70
     0
300
3/4" = 1'-0"
140
0.75
141
12.0
290
     0
  0
SCALE
  5
49E
102
{ACAD_REACTORS
330
481
102
}
330
481
100
AcDbScale
 70
     0
300
1" = 1'-0"
140
1.0
141
12.0
290
     0
  0
SCALE
  5
49F
102
{ACAD_REACTORS
330
481
102
}
330
481
100
AcDbScale
 70
     0
300
1-1/2" = 1'-0"
140
1.5
141
12.0
290
     0
  0
SCALE
  5
4A0
102
{ACAD_REACTORS
330
481
102
}
330
481
100
AcDbScale
 70
     0
300
3" = 1'-0"
140
3.0
141
12.0
290
     0
  0
SCALE
  5
4A1
102
{ACAD_REACTORS
330
481
102
}
330
481
100
AcDbScale
 70
     0
300
6" = 1'-0"
140
6.0
141
12.0
290
     0
  0
SCALE
  5
4A2
102
{ACAD_REACTORS
330
481
102
}
330
481
100
AcDbScale
 70
     0
300
1'-0" = 1'-0"
140
12.0
141
12.0
290
     0
  0
VISUALSTYLE
  5
2F
102
{ACAD_REACTORS
330
2A
102
}
102
{ACAD_XDICTIONARY
360
4B5
102
}
330
2A
100
AcDbVisualStyle
  2
2dWireframe
 70
     4
 71
     0
 72
     2
 73
     0
 90
        0
 40
-0.6
 41
-30.0
 62
     5
 63
     7
 74
     1
 91
        4
 64
     7
 65
   257
 75
     1
175
     1
 42
1.0
 92
        0
 66
   257
 43
1.0
 76
     1
 77
     6
 78
     2
 67
     7
 79
     5
170
     0
171
     0
290
     0
174
     0
 93
        1
 44
0.0
173
     0
291
     0
 45
0.0
1001
ACAD
1000
AcDbSavedByObjectVersion
1070
     0
  0
VISUALSTYLE
  5
31
102
{ACAD_REACTORS
330
2A
102
}
102
{ACAD_XDICTIONARY
360
4B9
102
}
330
2A
100
AcDbVisualStyle
  2
3D Hidden
 70
     6
 71
     1
 72
     2
 73
     2
 90
        0
 40
-0.6
 41
-30.0
 62
     5
 63
     7
 74
     2
 91
        2
 64
     7
 65
   257
 75
     2
175
     1
 42
40.0
 92
        0
 66
   257
 43
1.0
 76
     1
 77
     6
 78
     2
 67
     7
 79
     3
170
     0
171
     0
290
     0
174
     0
 93
        1
 44
0.0
173
     0
291
     0
 45
0.0
1001
ACAD
1000
AcDbSavedByObjectVersion
1070
     0
  0
VISUALSTYLE
  5
30
102
{ACAD_REACTORS
330
2A
102
}
102
{ACAD_XDICTIONARY
360
4B7
102
}
330
2A
100
AcDbVisualStyle
  2
3dWireframe
 70
     5
 71
     0
 72
     2
 73
     0
 90
        0
 40
-0.6
 41
-30.0
 62
     5
 63
     7
 74
     1
 91
        4
 64
     7
 65
   257
 75
     1
175
     1
 42
1.0
 92
        0
 66
   257
 43
1.0
 76
     1
 77
     6
 78
     2
 67
     7
 79
     5
170
     0
171
     0
290
     0
174
     0
 93
        1
 44
0.0
173
     0
291
     0
 45
0.0
1001
ACAD
1000
AcDbSavedByObjectVersion
1070
     0
  0
VISUALSTYLE
  5
32
102
{ACAD_REACTORS
330
2A
102
}
102
{ACAD_XDICTIONARY
360
4BB
102
}
330
2A
100
AcDbVisualStyle
  2
Basic
 70
     7
 71
     1
 72
     0
 73
     1
 90
        0
 40
-0.6
 41
-30.0
 62
     5
 63
     7
 74
     0
 91
        4
 64
     7
 65
   257
 75
     1
175
     1
 42
1.0
 92
        8
 66
     7
 43
1.0
 76
     1
 77
     6
 78
     2
 67
     7
 79
     5
170
     0
171
     0
290
     0
174
     0
 93
        1
 44
0.0
173
     0
291
     1
 45
0.0
1001
ACAD
1000
AcDbSavedByObjectVersion
1070
     0
  0
VISUALSTYLE
  5
36
102
{ACAD_REACTORS
330
2A
102
}
102
{ACAD_XDICTIONARY
360
4C3
102
}
330
2A
100
AcDbVisualStyle
  2
Brighten
 70
    12
 71
     2
 72
     2
 73
     0
 90
        0
 40
-0.6
 41
-30.0
 62
     5
 63
     7
 74
     1
 91
        4
 64
     7
 65
   257
 75
     1
175
     1
 42
1.0
 92
        8
 66
     7
 43
1.0
 76
     1
 77
     6
 78
     2
 67
     7
 79
     5
170
     0
171
     0
290
     0
174
     0
 93
        1
 44
50.0
173
     0
291
     1
 45
0.0
1001
ACAD
1000
AcDbSavedByObjectVersion
1070
     0
  0
VISUALSTYLE
  5
3A
102
{ACAD_REACTORS
330
2A
102
}
102
{ACAD_XDICTIONARY
360
4CB
102
}
330
2A
100
AcDbVisualStyle
  2
ColorChange
 70
    16
 71
     2
 72
     2
 73
     3
 90
        0
 40
-0.6
 41
-30.0
 62
     5
 63
     8
 74
     1
 91
        4
 64
     7
 65
   257
 75
     1
175
     1
 42
1.0
 92
        8
 66
     8
 43
1.0
 76
     1
 77
     6
 78
     2
 67
     7
 79
     5
170
     0
171
     0
290
     0
174
     0
 93
        1
 44
0.0
173
     0
291
     1
 45
0.0
1001
ACAD
1000
AcDbSavedByObjectVersion
1070
     0
  0
VISUALSTYLE
  5
34
102
{ACAD_REACTORS
330
2A
102
}
102
{ACAD_XDICTIONARY
360
4BF
102
}
330
2A
100
AcDbVisualStyle
  2
Conceptual
 70
     9
 71
     3
 72
     2
 73
     0
 90
        0
 40
-0.6
 41
-30.0
 62
     5
 63
     7
 74
     2
 91
        2
 64
     7
 65
   257
 75
     1
175
     1
 42
40.0
 92
        8
 66
     7
 43
1.0
 76
     1
 77
     6
 78
     2
 67
     7
 79
     3
170
     0
171
     0
290
     0
174
     0
 93
        1
 44
0.0
173
     0
291
     0
 45
0.0
1001
ACAD
1000
AcDbSavedByObjectVersion
1070
     0
  0
VISUALSTYLE
  5
35
102
{ACAD_REACTORS
330
2A
102
}
102
{ACAD_XDICTIONARY
360
4C1
102
}
330
2A
100
AcDbVisualStyle
  2
Dim
 70
    11
 71
     2
 72
     2
 73
     0
 90
        0
 40
-0.6
 41
-30.0
 62
     5
 63
     7
 74
     1
 91
        4
 64
     7
 65
   257
 75
     1
175
     1
 42
1.0
 92
        8
 66
     7
 43
1.0
 76
     1
 77
     6
 78
     2
 67
     7
 79
     5
170
     0
171
     0
290
     0
174
     0
 93
        1
 44
-50.0
173
     0
291
     1
 45
0.0
1001
ACAD
1000
AcDbSavedByObjectVersion
1070
     0
  0
VISUALSTYLE
  5
39
102
{ACAD_REACTORS
330
2A
102
}
102
{ACAD_XDICTIONARY
360
4C9
102
}
330
2A
100
AcDbVisualStyle
  2
Facepattern
 70
    15
 71
     2
 72
     2
 73
     0
 90
        0
 40
-0.6
 41
-30.0
 62
     5
 63
     7
 74
     1
 91
        4
 64
     7
 65
   257
 75
     1
175
     1
 42
1.0
 92
        8
 66
     7
 43
1.0
 76
     1
 77
     6
 78
     2
 67
     7
 79
     5
170
     0
171
     0
290
     0
174
     0
 93
        1
 44
0.0
173
     0
291
     1
 45
0.0
1001
ACAD
1000
AcDbSavedByObjectVersion
1070
     0
  0
VISUALSTYLE
  5
2B
102
{ACAD_REACTORS
330
2A
102
}
102
{ACAD_XDICTIONARY
360
4AD
102
}
330
2A
100
AcDbVisualStyle
  2
Flat
 70
     0
 71
     2
 72
     1
 73
     1
 90
        2
 40
-0.6
 41
30.0
 62
     5
 63
     7
 74
     0
 91
        4
 64
     7
 65
   257
 75
     1
175
     1
 42
1.0
 92
        8
 66
     7
 43
1.0
 76
     1
 77
     6
 78
     2
 67
     7
 79
     5
170
     0
171
     0
290
     0
174
     0
 93
       13
 44
0.0
173
     0
291
     1
 45
0.0
1001
ACAD
1000
AcDbSavedByObjectVersion
1070
     0
  0
VISUALSTYLE
  5
2C
102
{ACAD_REACTORS
330
2A
102
}
102
{ACAD_XDICTIONARY
360
4AF
102
}
330
2A
100
AcDbVisualStyle
  2
FlatWithEdges
 70
     1
 71
     2
 72
     1
 73
     1
 90
        2
 40
-0.6
 41
30.0
 62
     5
 63
     7
 74
     1
 91
        4
 64
     7
 65
   257
 75
     1
175
     1
 42
1.0
 92
        0
 66
   257
 43
1.0
 76
     1
 77
     6
 78
     2
 67
     7
 79
     5
170
     0
171
     0
290
     0
174
     0
 93
       13
 44
0.0
173
     0
291
     1
 45
0.0
1001
ACAD
1000
AcDbSavedByObjectVersion
1070
     0
  0
VISUALSTYLE
  5
2D
102
{ACAD_REACTORS
330
2A
102
}
102
{ACAD_XDICTIONARY
360
4B1
102
}
330
2A
100
AcDbVisualStyle
  2
Gouraud
 70
     2
 71
     2
 72
     2
 73
     1
 90
        2
 40
-0.6
 41
30.0
 62
     5
 63
     7
 74
     0
 91
        4
 64
     7
 65
   257
 75
     1
175
     1
 42
1.0
 92
        0
 66
     7
 43
1.0
 76
     1
 77
     6
 78
     2
 67
     7
 79
     5
170
     0
171
     0
290
     0
174
     0
 93
       13
 44
0.0
173
     0
291
     1
 45
0.0
1001
ACAD
1000
AcDbSavedByObjectVersion
1070
     0
  0
VISUALSTYLE
  5
2E
102
{ACAD_REACTORS
330
2A
102
}
102
{ACAD_XDICTIONARY
360
4B3
102
}
330
2A
100
AcDbVisualStyle
  2
GouraudWithEdges
 70
     3
 71
     2
 72
     2
 73
     1
 90
        2
 40
-0.6
 41
30.0
 62
     5
 63
     7
 74
     1
 91
        4
 64
     7
 65
   257
 75
     1
175
     1
 42
1.0
 92
        0
 66
   257
 43
1.0
 76
     1
 77
     6
 78
     2
 67
     7
 79
     5
170
     0
171
     0
290
     0
174
     0
 93
       13
 44
0.0
173
     0
291
     1
 45
0.0
1001
ACAD
1000
AcDbSavedByObjectVersion
1070
     0
  0
VISUALSTYLE
  5
38
102
{ACAD_REACTORS
330
2A
102
}
102
{ACAD_XDICTIONARY
360
4C7
102
}
330
2A
100
AcDbVisualStyle
  2
Linepattern
 70
    14
 71
     2
 72
     2
 73
     0
 90
        0
 40
-0.6
 41
-30.0
 62
     5
 63
     7
 74
     1
 91
        4
 64
     7
 65
   257
 75
     7
175
     7
 42
1.0
 92
        8
 66
     7
 43
1.0
 76
     1
 77
     6
 78
     2
 67
     7
 79
     5
170
     0
171
     0
290
     0
174
     0
 93
        1
 44
0.0
173
     0
291
     1
 45
0.0
1001
ACAD
1000
AcDbSavedByObjectVersion
1070
     0
  0
VISUALSTYLE
  5
33
102
{ACAD_REACTORS
330
2A
102
}
102
{ACAD_XDICTIONARY
360
4BD
102
}
330
2A
100
AcDbVisualStyle
  2
Realistic
 70
     8
 71
     2
 72
     2
 73
     0
 90
        0
 40
-0.6
 41
-30.0
 62
     5
 63
     7
 74
     1
 91
        0
 64
     7
 65
   257
 75
     1
175
     1
 42
1.0
 92
        8
 66
     8
 43
1.0
 76
     1
 77
     6
 78
     2
 67
     7
 79
     5
170
     0
171
     0
290
     0
174
     0
 93
       13
 44
0.0
173
     0
291
     0
 45
0.0
1001
ACAD
1000
AcDbSavedByObjectVersion
1070
     0
  0
VISUALSTYLE
  5
37
102
{ACAD_REACTORS
330
2A
102
}
102
{ACAD_XDICTIONARY
360
4C5
102
}
330
2A
100
AcDbVisualStyle
  2
Thicken
 70
    13
 71
     2
 72
     2
 73
     0
 90
        0
 40
-0.6
 41
-30.0
 62
     5
 63
     7
 74
     1
 91
        4
 64
     7
 65
   257
 75
     1
175
     1
 42
1.0
 92
       12
 66
     7
 43
1.0
 76
     1
 77
     6
 78
     2
 67
     7
 79
     5
170
     0
171
     0
290
     0
174
     0
 93
        1
 44
0.0
173
     0
291
     1
 45
0.0
1001
ACAD
1000
AcDbSavedByObjectVersion
1070
     0
  0
DICTIONARYVAR
  5
4AA
102
{ACAD_REACTORS
330
4A7
102
}
330
4A7
100
DictionaryVariables
280
     0
  1
1:1
  0
DICTIONARYVAR
  5
4AB
102
{ACAD_REACTORS
330
4A7
102
}
330
4A7
100
DictionaryVariables
280
     0
  1
2
  0
DICTIONARYVAR
  5
4AC
102
{ACAD_REACTORS
330
4A7
102
}
330
4A7
100
DictionaryVariables
280
     0
  1
1
  0
DICTIONARY
  5
4CF
330
3D
100
AcDbDictionary
280
     1
281
     1
  3
ACAD_XREC_ROUNDTRIP
360
4D0
  0
DICTIONARY
  5
4CD
330
3C
100
AcDbDictionary
280
     1
281
     1
  3
ACAD_XREC_ROUNDTRIP
360
4CE
  0
DICTIONARY
  5
4D1
330
3E
100
AcDbDictionary
280
     1
281
     1
  3
ACAD_XREC_ROUNDTRIP
360
4D2
  0
DICTIONARY
  5
4B5
330
2F
100
AcDbDictionary
280
     1
281
     1
  3
ACAD_XREC_ROUNDTRIP
360
4B6
  0
DICTIONARY
  5
4B9
330
31
100
AcDbDictionary
280
     1
281
     1
  3
ACAD_XREC_ROUNDTRIP
360
4BA
  0
DICTIONARY
  5
4B7
330
30
100
AcDbDictionary
280
     1
281
     1
  3
ACAD_XREC_ROUNDTRIP
360
4B8
  0
DICTIONARY
  5
4BB
330
32
100
AcDbDictionary
280
     1
281
     1
  3
ACAD_XREC_ROUNDTRIP
360
4BC
  0
DICTIONARY
  5
4C3
330
36
100
AcDbDictionary
280
     1
281
     1
  3
ACAD_XREC_ROUNDTRIP
360
4C4
  0
DICTIONARY
  5
4CB
330
3A
100
AcDbDictionary
280
     1
281
     1
  3
ACAD_XREC_ROUNDTRIP
360
4CC
  0
DICTIONARY
  5
4BF
330
34
100
AcDbDictionary
280
     1
281
     1
  3
ACAD_XREC_ROUNDTRIP
360
4C0
  0
DICTIONARY
  5
4C1
330
35
100
AcDbDictionary
280
     1
281
     1
  3
ACAD_XREC_ROUNDTRIP
360
4C2
  0
DICTIONARY
  5
4C9
330
39
100
AcDbDictionary
280
     1
281
     1
  3
ACAD_XREC_ROUNDTRIP
360
4CA
  0
DICTIONARY
  5
4AD
330
2B
100
AcDbDictionary
280
     1
281
     1
  3
ACAD_XREC_ROUNDTRIP
360
4AE
  0
DICTIONARY
  5
4AF
330
2C
100
AcDbDictionary
280
     1
281
     1
  3
ACAD_XREC_ROUNDTRIP
360
4B0
  0
DICTIONARY
  5
4B1
330
2D
100
AcDbDictionary
280
     1
281
     1
  3
ACAD_XREC_ROUNDTRIP
360
4B2
  0
DICTIONARY
  5
4B3
330
2E
100
AcDbDictionary
280
     1
281
     1
  3
ACAD_XREC_ROUNDTRIP
360
4B4
  0
DICTIONARY
  5
4C7
330
38
100
AcDbDictionary
280
     1
281
     1
  3
ACAD_XREC_ROUNDTRIP
360
4C8
  0
DICTIONARY
  5
4BD
330
33
100
AcDbDictionary
280
     1
281
     1
  3
ACAD_XREC_ROUNDTRIP
360
4BE
  0
DICTIONARY
  5
4C5
330
37
100
AcDbDictionary
280
     1
281
     1
  3
ACAD_XREC_ROUNDTRIP
360
4C6
  0
XRECORD
  5
4D0
102
{ACAD_REACTORS
330
4CF
102
}
330
4CF
100
AcDbXrecord
280
     1
102
MATERIAL
148
0.0
149
0.0
149
0.0
 93
        0
 94
      127
282
     0
 72
     1
 77
     1
171
     1
175
     1
179
     1
273
     0
  0
XRECORD
  5
4CE
102
{ACAD_REACTORS
330
4CD
102
}
330
4CD
100
AcDbXrecord
280
     1
102
MATERIAL
148
0.0
149
0.0
149
0.0
 93
        0
 94
      127
282
     0
 72
     1
 77
     1
171
     1
175
     1
179
     1
273
     0
  0
XRECORD
  5
4D2
102
{ACAD_REACTORS
330
4D1
102
}
330
4D1
100
AcDbXrecord
280
     1
102
MATERIAL
148
0.0
149
0.0
149
0.0
 93
        0
 94
      127
282
     0
 72
     1
 77
     1
171
     1
175
     1
179
     1
273
     0
  0
XRECORD
  5
4B6
102
{ACAD_REACTORS
330
4B5
102
}
330
4B5
100
AcDbXrecord
280
     1
102
RTVSPropertyOp0
 70
     1
102
RTVSPropertyOp1
 70
     1
102
RTVSPropertyOp2
 70
     1
102
RTVSPropertyOp3
 70
     1
102
RTVSPropertyOp4
 70
     1
102
RTVSPropertyOp5
 70
     1
102
RTVSPropertyOp6
 70
     1
102
RTVSPropertyOp7
 70
     1
102
RTVSPropertyOp8
 70
     1
102
RTVSPropertyOp9
 70
     1
102
RTVSPropertyOp10
 70
     1
102
RTVSPropertyOp11
 70
     1
102
RTVSPropertyOp12
 70
     1
102
RTVSPropertyOp13
 70
     1
102
RTVSPropertyOp14
 70
     1
102
RTVSPropertyOp15
 70
     1
102
RTVSPropertyOp16
 70
     1
102
RTVSPropertyOp17
 70
     1
102
RTVSPropertyOp18
 70
     1
102
RTVSPropertyOp19
 70
     1
102
RTVSPropertyOp20
 70
     1
102
RTVSPropertyOp21
 70
     1
102
RTVSPropertyOp22
 70
     1
102
RTVSPropertyOp23
 70
     1
102
RTVSPropertyOp24
 70
     1
102
RTVSPropertyOp25
 70
     1
102
RTVSPropertyOp26
 70
     1
102
RTVSPropertyOp27
 70
     1
  0
XRECORD
  5
4BA
102
{ACAD_REACTORS
330
4B9
102
}
330
4B9
100
AcDbXrecord
280
     1
102
RTVSPropertyOp0
 70
     1
102
RTVSPropertyOp1
 70
     1
102
RTVSPropertyOp2
 70
     1
102
RTVSPropertyOp3
 70
     1
102
RTVSPropertyOp4
 70
     1
102
RTVSPropertyOp5
 70
     1
102
RTVSPropertyOp6
 70
     1
102
RTVSPropertyOp7
 70
     1
102
RTVSPropertyOp8
 70
     1
102
RTVSPropertyOp9
 70
     1
102
RTVSPropertyOp10
 70
     1
102
RTVSPropertyOp11
 70
     1
102
RTVSPropertyOp12
 70
     1
102
RTVSPropertyOp13
 70
     1
102
RTVSPropertyOp14
 70
     1
102
RTVSPropertyOp15
 70
     1
102
RTVSPropertyOp16
 70
     1
102
RTVSPropertyOp17
 70
     1
102
RTVSPropertyOp18
 70
     1
102
RTVSPropertyOp19
 70
     1
102
RTVSPropertyOp20
 70
     1
102
RTVSPropertyOp21
 70
     1
102
RTVSPropertyOp22
 70
     1
102
RTVSPropertyOp23
 70
     1
102
RTVSPropertyOp24
 70
     1
102
RTVSPropertyOp25
 70
     1
102
RTVSPropertyOp26
 70
     1
102
RTVSPropertyOp27
 70
     1
  0
XRECORD
  5
4B8
102
{ACAD_REACTORS
330
4B7
102
}
330
4B7
100
AcDbXrecord
280
     1
102
RTVSPropertyOp0
 70
     1
102
RTVSPropertyOp1
 70
     1
102
RTVSPropertyOp2
 70
     1
102
RTVSPropertyOp3
 70
     1
102
RTVSPropertyOp4
 70
     1
102
RTVSPropertyOp5
 70
     1
102
RTVSPropertyOp6
 70
     1
102
RTVSPropertyOp7
 70
     1
102
RTVSPropertyOp8
 70
     1
102
RTVSPropertyOp9
 70
     1
102
RTVSPropertyOp10
 70
     1
102
RTVSPropertyOp11
 70
     1
102
RTVSPropertyOp12
 70
     1
102
RTVSPropertyOp13
 70
     1
102
RTVSPropertyOp14
 70
     1
102
RTVSPropertyOp15
 70
     1
102
RTVSPropertyOp16
 70
     1
102
RTVSPropertyOp17
 70
     1
102
RTVSPropertyOp18
 70
     1
102
RTVSPropertyOp19
 70
     1
102
RTVSPropertyOp20
 70
     1
102
RTVSPropertyOp21
 70
     1
102
RTVSPropertyOp22
 70
     1
102
RTVSPropertyOp23
 70
     1
102
RTVSPropertyOp24
 70
     1
102
RTVSPropertyOp25
 70
     1
102
RTVSPropertyOp26
 70
     1
102
RTVSPropertyOp27
 70
     1
  0
XRECORD
  5
4BC
102
{ACAD_REACTORS
330
4BB
102
}
330
4BB
100
AcDbXrecord
280
     1
102
RTVSPropertyOp0
 70
     1
102
RTVSPropertyOp1
 70
     1
102
RTVSPropertyOp2
 70
     1
102
RTVSPropertyOp3
 70
     1
102
RTVSPropertyOp4
 70
     1
102
RTVSPropertyOp5
 70
     1
102
RTVSPropertyOp6
 70
     1
102
RTVSPropertyOp7
 70
     1
102
RTVSPropertyOp8
 70
     1
102
RTVSPropertyOp9
 70
     1
102
RTVSPropertyOp10
 70
     1
102
RTVSPropertyOp11
 70
     1
102
RTVSPropertyOp12
 70
     1
102
RTVSPropertyOp13
 70
     1
102
RTVSPropertyOp14
 70
     1
102
RTVSPropertyOp15
 70
     1
102
RTVSPropertyOp16
 70
     1
102
RTVSPropertyOp17
 70
     1
102
RTVSPropertyOp18
 70
     1
102
RTVSPropertyOp19
 70
     1
102
RTVSPropertyOp20
 70
     1
102
RTVSPropertyOp21
 70
     1
102
RTVSPropertyOp22
 70
     1
102
RTVSPropertyOp23
 70
     1
102
RTVSPropertyOp24
 70
     1
102
RTVSPropertyOp25
 70
     1
102
RTVSPropertyOp26
 70
     1
102
RTVSPropertyOp27
 70
     1
  0
XRECORD
  5
4C4
102
{ACAD_REACTORS
330
4C3
102
}
330
4C3
100
AcDbXrecord
280
     1
102
RTVSPropertyOp0
 70
     1
102
RTVSPropertyOp1
 70
     1
102
RTVSPropertyOp2
 70
     1
102
RTVSPropertyOp3
 70
     1
102
RTVSPropertyOp4
 70
     1
102
RTVSPropertyOp5
 70
     1
102
RTVSPropertyOp6
 70
     1
102
RTVSPropertyOp7
 70
     1
102
RTVSPropertyOp8
 70
     1
102
RTVSPropertyOp9
 70
     1
102
RTVSPropertyOp10
 70
     1
102
RTVSPropertyOp11
 70
     1
102
RTVSPropertyOp12
 70
     1
102
RTVSPropertyOp13
 70
     1
102
RTVSPropertyOp14
 70
     1
102
RTVSPropertyOp15
 70
     1
102
RTVSPropertyOp16
 70
     1
102
RTVSPropertyOp17
 70
     1
102
RTVSPropertyOp18
 70
     1
102
RTVSPropertyOp19
 70
     1
102
RTVSPropertyOp20
 70
     1
102
RTVSPropertyOp21
 70
     1
102
RTVSPropertyOp22
 70
     1
102
RTVSPropertyOp23
 70
     1
102
RTVSPropertyOp24
 70
     1
102
RTVSPropertyOp25
 70
     1
102
RTVSPropertyOp26
 70
     1
102
RTVSPropertyOp27
 70
     1
  0
XRECORD
  5
4CC
102
{ACAD_REACTORS
330
4CB
102
}
330
4CB
100
AcDbXrecord
280
     1
102
RTVSPropertyOp0
 70
     1
102
RTVSPropertyOp1
 70
     1
102
RTVSPropertyOp2
 70
     1
102
RTVSPropertyOp3
 70
     1
102
RTVSPropertyOp4
 70
     1
102
RTVSPropertyOp5
 70
     1
102
RTVSPropertyOp6
 70
     1
102
RTVSPropertyOp7
 70
     1
102
RTVSPropertyOp8
 70
     1
102
RTVSPropertyOp9
 70
     1
102
RTVSPropertyOp10
 70
     1
102
RTVSPropertyOp11
 70
     1
102
RTVSPropertyOp12
 70
     1
102
RTVSPropertyOp13
 70
     1
102
RTVSPropertyOp14
 70
     1
102
RTVSPropertyOp15
 70
     1
102
RTVSPropertyOp16
 70
     1
102
RTVSPropertyOp17
 70
     1
102
RTVSPropertyOp18
 70
     1
102
RTVSPropertyOp19
 70
     1
102
RTVSPropertyOp20
 70
     1
102
RTVSPropertyOp21
 70
     1
102
RTVSPropertyOp22
 70
     1
102
RTVSPropertyOp23
 70
     1
102
RTVSPropertyOp24
 70
     1
102
RTVSPropertyOp25
 70
     1
102
RTVSPropertyOp26
 70
     1
102
RTVSPropertyOp27
 70
     1
  0
XRECORD
  5
4C0
102
{ACAD_REACTORS
330
4BF
102
}
330
4BF
100
AcDbXrecord
280
     1
102
RTVSPropertyOp0
 70
     1
102
RTVSPropertyOp1
 70
     1
102
RTVSPropertyOp2
 70
     1
102
RTVSPropertyOp3
 70
     1
102
RTVSPropertyOp4
 70
     1
102
RTVSPropertyOp5
 70
     1
102
RTVSPropertyOp6
 70
     1
102
RTVSPropertyOp7
 70
     1
102
RTVSPropertyOp8
 70
     1
102
RTVSPropertyOp9
 70
     1
102
RTVSPropertyOp10
 70
     1
102
RTVSPropertyOp11
 70
     1
102
RTVSPropertyOp12
 70
     1
102
RTVSPropertyOp13
 70
     1
102
RTVSPropertyOp14
 70
     1
102
RTVSPropertyOp15
 70
     1
102
RTVSPropertyOp16
 70
     1
102
RTVSPropertyOp17
 70
     1
102
RTVSPropertyOp18
 70
     1
102
RTVSPropertyOp19
 70
     1
102
RTVSPropertyOp20
 70
     1
102
RTVSPropertyOp21
 70
     1
102
RTVSPropertyOp22
 70
     1
102
RTVSPropertyOp23
 70
     1
102
RTVSPropertyOp24
 70
     1
102
RTVSPropertyOp25
 70
     1
102
RTVSPropertyOp26
 70
     1
102
RTVSPropertyOp27
 70
     1
  0
XRECORD
  5
4C2
102
{ACAD_REACTORS
330
4C1
102
}
330
4C1
100
AcDbXrecord
280
     1
102
RTVSPropertyOp0
 70
     1
102
RTVSPropertyOp1
 70
     1
102
RTVSPropertyOp2
 70
     1
102
RTVSPropertyOp3
 70
     1
102
RTVSPropertyOp4
 70
     1
102
RTVSPropertyOp5
 70
     1
102
RTVSPropertyOp6
 70
     1
102
RTVSPropertyOp7
 70
     1
102
RTVSPropertyOp8
 70
     1
102
RTVSPropertyOp9
 70
     1
102
RTVSPropertyOp10
 70
     1
102
RTVSPropertyOp11
 70
     1
102
RTVSPropertyOp12
 70
     1
102
RTVSPropertyOp13
 70
     1
102
RTVSPropertyOp14
 70
     1
102
RTVSPropertyOp15
 70
     1
102
RTVSPropertyOp16
 70
     1
102
RTVSPropertyOp17
 70
     1
102
RTVSPropertyOp18
 70
     1
102
RTVSPropertyOp19
 70
     1
102
RTVSPropertyOp20
 70
     1
102
RTVSPropertyOp21
 70
     1
102
RTVSPropertyOp22
 70
     1
102
RTVSPropertyOp23
 70
     1
102
RTVSPropertyOp24
 70
     1
102
RTVSPropertyOp25
 70
     1
102
RTVSPropertyOp26
 70
     1
102
RTVSPropertyOp27
 70
     1
  0
XRECORD
  5
4CA
102
{ACAD_REACTORS
330
4C9
102
}
330
4C9
100
AcDbXrecord
280
     1
102
RTVSPropertyOp0
 70
     1
102
RTVSPropertyOp1
 70
     1
102
RTVSPropertyOp2
 70
     1
102
RTVSPropertyOp3
 70
     1
102
RTVSPropertyOp4
 70
     1
102
RTVSPropertyOp5
 70
     1
102
RTVSPropertyOp6
 70
     1
102
RTVSPropertyOp7
 70
     1
102
RTVSPropertyOp8
 70
     1
102
RTVSPropertyOp9
 70
     1
102
RTVSPropertyOp10
 70
     1
102
RTVSPropertyOp11
 70
     1
102
RTVSPropertyOp12
 70
     1
102
RTVSPropertyOp13
 70
     1
102
RTVSPropertyOp14
 70
     1
102
RTVSPropertyOp15
 70
     1
102
RTVSPropertyOp16
 70
     1
102
RTVSPropertyOp17
 70
     1
102
RTVSPropertyOp18
 70
     1
102
RTVSPropertyOp19
 70
     1
102
RTVSPropertyOp20
 70
     1
102
RTVSPropertyOp21
 70
     1
102
RTVSPropertyOp22
 70
     1
102
RTVSPropertyOp23
 70
     1
102
RTVSPropertyOp24
 70
     1
102
RTVSPropertyOp25
 70
     1
102
RTVSPropertyOp26
 70
     1
102
RTVSPropertyOp27
 70
     1
  0
XRECORD
  5
4AE
102
{ACAD_REACTORS
330
4AD
102
}
330
4AD
100
AcDbXrecord
280
     1
102
RTVSPropertyOp0
 70
     1
102
RTVSPropertyOp1
 70
     1
102
RTVSPropertyOp2
 70
     1
102
RTVSPropertyOp3
 70
     1
102
RTVSPropertyOp4
 70
     1
102
RTVSPropertyOp5
 70
     1
102
RTVSPropertyOp6
 70
     1
102
RTVSPropertyOp7
 70
     1
102
RTVSPropertyOp8
 70
     1
102
RTVSPropertyOp9
 70
     1
102
RTVSPropertyOp10
 70
     1
102
RTVSPropertyOp11
 70
     1
102
RTVSPropertyOp12
 70
     1
102
RTVSPropertyOp13
 70
     1
102
RTVSPropertyOp14
 70
     1
102
RTVSPropertyOp15
 70
     1
102
RTVSPropertyOp16
 70
     1
102
RTVSPropertyOp17
 70
     1
102
RTVSPropertyOp18
 70
     1
102
RTVSPropertyOp19
 70
     1
102
RTVSPropertyOp20
 70
     1
102
RTVSPropertyOp21
 70
     1
102
RTVSPropertyOp22
 70
     1
102
RTVSPropertyOp23
 70
     1
102
RTVSPropertyOp24
 70
     1
102
RTVSPropertyOp25
 70
     1
102
RTVSPropertyOp26
 70
     1
102
RTVSPropertyOp27
 70
     1
  0
XRECORD
  5
4B0
102
{ACAD_REACTORS
330
4AF
102
}
330
4AF
100
AcDbXrecord
280
     1
102
RTVSPropertyOp0
 70
     1
102
RTVSPropertyOp1
 70
     1
102
RTVSPropertyOp2
 70
     1
102
RTVSPropertyOp3
 70
     1
102
RTVSPropertyOp4
 70
     1
102
RTVSPropertyOp5
 70
     1
102
RTVSPropertyOp6
 70
     1
102
RTVSPropertyOp7
 70
     1
102
RTVSPropertyOp8
 70
     1
102
RTVSPropertyOp9
 70
     1
102
RTVSPropertyOp10
 70
     1
102
RTVSPropertyOp11
 70
     1
102
RTVSPropertyOp12
 70
     1
102
RTVSPropertyOp13
 70
     1
102
RTVSPropertyOp14
 70
     1
102
RTVSPropertyOp15
 70
     1
102
RTVSPropertyOp16
 70
     1
102
RTVSPropertyOp17
 70
     1
102
RTVSPropertyOp18
 70
     1
102
RTVSPropertyOp19
 70
     1
102
RTVSPropertyOp20
 70
     1
102
RTVSPropertyOp21
 70
     1
102
RTVSPropertyOp22
 70
     1
102
RTVSPropertyOp23
 70
     1
102
RTVSPropertyOp24
 70
     1
102
RTVSPropertyOp25
 70
     1
102
RTVSPropertyOp26
 70
     1
102
RTVSPropertyOp27
 70
     1
  0
XRECORD
  5
4B2
102
{ACAD_REACTORS
330
4B1
102
}
330
4B1
100
AcDbXrecord
280
     1
102
RTVSPropertyOp0
 70
     1
102
RTVSPropertyOp1
 70
     1
102
RTVSPropertyOp2
 70
     1
102
RTVSPropertyOp3
 70
     1
102
RTVSPropertyOp4
 70
     1
102
RTVSPropertyOp5
 70
     1
102
RTVSPropertyOp6
 70
     1
102
RTVSPropertyOp7
 70
     1
102
RTVSPropertyOp8
 70
     1
102
RTVSPropertyOp9
 70
     1
102
RTVSPropertyOp10
 70
     1
102
RTVSPropertyOp11
 70
     1
102
RTVSPropertyOp12
 70
     1
102
RTVSPropertyOp13
 70
     1
102
RTVSPropertyOp14
 70
     1
102
RTVSPropertyOp15
 70
     1
102
RTVSPropertyOp16
 70
     1
102
RTVSPropertyOp17
 70
     1
102
RTVSPropertyOp18
 70
     1
102
RTVSPropertyOp19
 70
     1
102
RTVSPropertyOp20
 70
     1
102
RTVSPropertyOp21
 70
     1
102
RTVSPropertyOp22
 70
     1
102
RTVSPropertyOp23
 70
     1
102
RTVSPropertyOp24
 70
     1
102
RTVSPropertyOp25
 70
     1
102
RTVSPropertyOp26
 70
     1
102
RTVSPropertyOp27
 70
     1
  0
XRECORD
  5
4B4
102
{ACAD_REACTORS
330
4B3
102
}
330
4B3
100
AcDbXrecord
280
     1
102
RTVSPropertyOp0
 70
     1
102
RTVSPropertyOp1
 70
     1
102
RTVSPropertyOp2
 70
     1
102
RTVSPropertyOp3
 70
     1
102
RTVSPropertyOp4
 70
     1
102
RTVSPropertyOp5
 70
     1
102
RTVSPropertyOp6
 70
     1
102
RTVSPropertyOp7
 70
     1
102
RTVSPropertyOp8
 70
     1
102
RTVSPropertyOp9
 70
     1
102
RTVSPropertyOp10
 70
     1
102
RTVSPropertyOp11
 70
     1
102
RTVSPropertyOp12
 70
     1
102
RTVSPropertyOp13
 70
     1
102
RTVSPropertyOp14
 70
     1
102
RTVSPropertyOp15
 70
     1
102
RTVSPropertyOp16
 70
     1
102
RTVSPropertyOp17
 70
     1
102
RTVSPropertyOp18
 70
     1
102
RTVSPropertyOp19
 70
     1
102
RTVSPropertyOp20
 70
     1
102
RTVSPropertyOp21
 70
     1
102
RTVSPropertyOp22
 70
     1
102
RTVSPropertyOp23
 70
     1
102
RTVSPropertyOp24
 70
     1
102
RTVSPropertyOp25
 70
     1
102
RTVSPropertyOp26
 70
     1
102
RTVSPropertyOp27
 70
     1
  0
XRECORD
  5
4C8
102
{ACAD_REACTORS
330
4C7
102
}
330
4C7
100
AcDbXrecord
280
     1
102
RTVSPropertyOp0
 70
     1
102
RTVSPropertyOp1
 70
     1
102
RTVSPropertyOp2
 70
     1
102
RTVSPropertyOp3
 70
     1
102
RTVSPropertyOp4
 70
     1
102
RTVSPropertyOp5
 70
     1
102
RTVSPropertyOp6
 70
     1
102
RTVSPropertyOp7
 70
     1
102
RTVSPropertyOp8
 70
     1
102
RTVSPropertyOp9
 70
     1
102
RTVSPropertyOp10
 70
     1
102
RTVSPropertyOp11
 70
     1
102
RTVSPropertyOp12
 70
     1
102
RTVSPropertyOp13
 70
     1
102
RTVSPropertyOp14
 70
     1
102
RTVSPropertyOp15
 70
     1
102
RTVSPropertyOp16
 70
     1
102
RTVSPropertyOp17
 70
     1
102
RTVSPropertyOp18
 70
     1
102
RTVSPropertyOp19
 70
     1
102
RTVSPropertyOp20
 70
     1
102
RTVSPropertyOp21
 70
     1
102
RTVSPropertyOp22
 70
     1
102
RTVSPropertyOp23
 70
     1
102
RTVSPropertyOp24
 70
     1
102
RTVSPropertyOp25
 70
     1
102
RTVSPropertyOp26
 70
     1
102
RTVSPropertyOp27
 70
     1
  0
XRECORD
  5
4BE
102
{ACAD_REACTORS
330
4BD
102
}
330
4BD
100
AcDbXrecord
280
     1
102
RTVSPropertyOp0
 70
     1
102
RTVSPropertyOp1
 70
     1
102
RTVSPropertyOp2
 70
     1
102
RTVSPropertyOp3
 70
     1
102
RTVSPropertyOp4
 70
     1
102
RTVSPropertyOp5
 70
     1
102
RTVSPropertyOp6
 70
     1
102
RTVSPropertyOp7
 70
     1
102
RTVSPropertyOp8
 70
     1
102
RTVSPropertyOp9
 70
     1
102
RTVSPropertyOp10
 70
     1
102
RTVSPropertyOp11
 70
     1
102
RTVSPropertyOp12
 70
     1
102
RTVSPropertyOp13
 70
     1
102
RTVSPropertyOp14
 70
     1
102
RTVSPropertyOp15
 70
     1
102
RTVSPropertyOp16
 70
     1
102
RTVSPropertyOp17
 70
     1
102
RTVSPropertyOp18
 70
     1
102
RTVSPropertyOp19
 70
     1
102
RTVSPropertyOp20
 70
     1
102
RTVSPropertyOp21
 70
     1
102
RTVSPropertyOp22
 70
     1
102
RTVSPropertyOp23
 70
     1
102
RTVSPropertyOp24
 70
     1
102
RTVSPropertyOp25
 70
     1
102
RTVSPropertyOp26
 70
     1
102
RTVSPropertyOp27
 70
     1
  0
XRECORD
  5
4C6
102
{ACAD_REACTORS
330
4C5
102
}
330
4C5
100
AcDbXrecord
280
     1
102
RTVSPropertyOp0
 70
     1
102
RTVSPropertyOp1
 70
     1
102
RTVSPropertyOp2
 70
     1
102
RTVSPropertyOp3
 70
     1
102
RTVSPropertyOp4
 70
     1
102
RTVSPropertyOp5
 70
     1
102
RTVSPropertyOp6
 70
     1
102
RTVSPropertyOp7
 70
     1
102
RTVSPropertyOp8
 70
     1
102
RTVSPropertyOp9
 70
     1
102
RTVSPropertyOp10
 70
     1
102
RTVSPropertyOp11
 70
     1
102
RTVSPropertyOp12
 70
     1
102
RTVSPropertyOp13
 70
     1
102
RTVSPropertyOp14
 70
     1
102
RTVSPropertyOp15
 70
     1
102
RTVSPropertyOp16
 70
     1
102
RTVSPropertyOp17
 70
     1
102
RTVSPropertyOp18
 70
     1
102
RTVSPropertyOp19
 70
     1
102
RTVSPropertyOp20
 70
     1
102
RTVSPropertyOp21
 70
     1
102
RTVSPropertyOp22
 70
     1
102
RTVSPropertyOp23
 70
     1
102
RTVSPropertyOp24
 70
     1
102
RTVSPropertyOp25
 70
     1
102
RTVSPropertyOp26
 70
     1
102
RTVSPropertyOp27
 70
     1
  0
ENDSEC
  0
EOF
