  0
SECTION
  2
HEADER
  9
$ACADVER
  1
AC1024
  9
$ACADMAINTVER
 70
     6
  9
$DWGCODEPAGE
  3
ANSI_1252
  9
$INSBASE
 10
0.0
 20
0.0
 30
0.0
  9
$EXTMIN
 10
-21767.7877415451
 20
-3940.86500953369
 30
0.0
  9
$EXTMAX
 10
-10645.2765164407
 20
7289.46928935696
 30
0.0
  9
$LIMMIN
 10
0.0
 20
0.0
  9
$LIMMAX
 10
12.0
 20
9.0
  9
$ORTHOMODE
 70
     0
  9
$REGENMODE
 70
     1
  9
$FILLMODE
 70
     1
  9
$QTEXTMODE
 70
     0
  9
$MIRRTEXT
 70
     1
  9
$LTSCALE
 40
1.0
  9
$ATTMODE
 70
     1
  9
$TEXTSIZE
 40
0.2
  9
$TRACEWID
 40
0.05
  9
$TEXTSTYLE
  7
Standard
  9
$CLAYER
  8
0
  9
$CELTYPE
  6
ByLayer
  9
$CECOLOR
 62
   256
  9
$CELTSCALE
 40
1.0
  9
$DISPSILH
 70
     0
  9
$DIMSCALE
 40
1.0
  9
$DIMASZ
 40
0.18
  9
$DIMEXO
 40
0.0625
  9
$DIMDLI
 40
0.38
  9
$DIMRND
 40
0.0
  9
$DIMDLE
 40
0.0
  9
$DIMEXE
 40
0.18
  9
$DIMTP
 40
0.0
  9
$DIMTM
 40
0.0
  9
$DIMTXT
 40
0.18
  9
$DIMCEN
 40
0.09
  9
$DIMTSZ
 40
0.0
  9
$DIMTOL
 70
     0
  9
$DIMLIM
 70
     0
  9
$DIMTIH
 70
     1
  9
$DIMTOH
 70
     1
  9
$DIMSE1
 70
     0
  9
$DIMSE2
 70
     0
  9
$DIMTAD
 70
     0
  9
$DIMZIN
 70
     0
  9
$DIMBLK
  1

  9
$DIMASO
 70
     1
  9
$DIMSHO
 70
     1
  9
$DIMPOST
  1

  9
$DIMAPOST
  1

  9
$DIMALT
 70
     0
  9
$DIMALTD
 70
     2
  9
$DIMALTF
 40
25.4
  9
$DIMLFAC
 40
1.0
  9
$DIMTOFL
 70
     0
  9
$DIMTVP
 40
0.0
  9
$DIMTIX
 70
     0
  9
$DIMSOXD
 70
     0
  9
$DIMSAH
 70
     0
  9
$DIMBLK1
  1

  9
$DIMBLK2
  1

  9
$DIMSTYLE
  2
Standard
  9
$DIMCLRD
 70
     0
  9
$DIMCLRE
 70
     0
  9
$DIMCLRT
 70
     0
  9
$DIMTFAC
 40
1.0
  9
$DIMGAP
 40
0.09
  9
$DIMJUST
 70
     0
  9
$DIMSD1
 70
     0
  9
$DIMSD2
 70
     0
  9
$DIMTOLJ
 70
     1
  9
$DIMTZIN
 70
     0
  9
$DIMALTZ
 70
     0
  9
$DIMALTTZ
 70
     0
  9
$DIMUPT
 70
     0
  9
$DIMDEC
 70
     4
  9
$DIMTDEC
 70
     4
  9
$DIMALTU
 70
     2
  9
$DIMALTTD
 70
     2
  9
$DIMTXSTY
  7
Standard
  9
$DIMAUNIT
 70
     0
  9
$DIMADEC
 70
     0
  9
$DIMALTRND
 40
0.0
  9
$DIMAZIN
 70
     0
  9
$DIMDSEP
 70
    46
  9
$DIMATFIT
 70
     3
  9
$DIMFRAC
 70
     0
  9
$DIMLDRBLK
  1

  9
$DIMLUNIT
 70
     2
  9
$DIMLWD
 70
    -2
  9
$DIMLWE
 70
    -2
  9
$DIMTMOVE
 70
     0
  9
$DIMFXL
 40
1.0
  9
$DIMFXLON
 70
     0
  9
$DIMJOGANG
 40
0.78539816339745
  9
$DIMTFILL
 70
     0
  9
$DIMTFILLCLR
 70
     0
  9
$DIMARCSYM
 70
     0
  9
$DIMLTYPE
  6

  9
$DIMLTEX1
  6

  9
$DIMLTEX2
  6

  9
$DIMTXTDIRECTION
 70
     0
  9
$LUNITS
 70
     2
  9
$LUPREC
 70
     4
  9
$SKETCHINC
 40
0.1
  9
$FILLETRAD
 40
0.5
  9
$AUNITS
 70
     0
  9
$AUPREC
 70
     0
  9
$MENU
  1
.
  9
$ELEVATION
 40
0.0
  9
$PELEVATION
 40
0.0
  9
$THICKNESS
 40
0.0
  9
$LIMCHECK
 70
     0
  9
$CHAMFERA
 40
0.5
  9
$CHAMFERB
 40
0.5
  9
$CHAMFERC
 40
1.0
  9
$CHAMFERD
 40
0.0
  9
$SKPOLY
 70
     0
  9
$TDCREATE
 40
2456903.437617477
  9
$TDUCREATE
 40
2456903.354284144
  9
$TDUPDATE
 40
2456903.437617488
  9
$TDUUPDATE
 40
2456903.354284155
  9
$TDINDWG
 40
0.0000000116
  9
$TDUSRTIMER
 40
0.0000000116
  9
$USRTIMER
 70
     1
  9
$ANGBASE
 50
0.0
  9
$ANGDIR
 70
     0
  9
$PDMODE
 70
     0
  9
$PDSIZE
 40
0.0
  9
$PLINEWID
 40
0.0
  9
$SPLFRAME
 70
     0
  9
$SPLINETYPE
 70
     6
  9
$SPLINESEGS
 70
     8
  9
$HANDSEED
  5
4CE
  9
$SURFTAB1
 70
     6
  9
$SURFTAB2
 70
     6
  9
$SURFTYPE
 70
     6
  9
$SURFU
 70
     6
  9
$SURFV
 70
     6
  9
$UCSBASE
  2

  9
$UCSNAME
  2

  9
$UCSORG
 10
0.0
 20
0.0
 30
0.0
  9
$UCSXDIR
 10
1.0
 20
0.0
 30
0.0
  9
$UCSYDIR
 10
0.0
 20
1.0
 30
0.0
  9
$UCSORTHOREF
  2

  9
$UCSORTHOVIEW
 70
     0
  9
$UCSORGTOP
 10
0.0
 20
0.0
 30
0.0
  9
$UCSORGBOTTOM
 10
0.0
 20
0.0
 30
0.0
  9
$UCSORGLEFT
 10
0.0
 20
0.0
 30
0.0
  9
$UCSORGRIGHT
 10
0.0
 20
0.0
 30
0.0
  9
$UCSORGFRONT
 10
0.0
 20
0.0
 30
0.0
  9
$UCSORGBACK
 10
0.0
 20
0.0
 30
0.0
  9
$PUCSBASE
  2

  9
$PUCSNAME
  2

  9
$PUCSORG
 10
0.0
 20
0.0
 30
0.0
  9
$PUCSXDIR
 10
1.0
 20
0.0
 30
0.0
  9
$PUCSYDIR
 10
0.0
 20
1.0
 30
0.0
  9
$PUCSORTHOREF
  2

  9
$PUCSORTHOVIEW
 70
     0
  9
$PUCSORGTOP
 10
0.0
 20
0.0
 30
0.0
  9
$PUCSORGBOTTOM
 10
0.0
 20
0.0
 30
0.0
  9
$PUCSORGLEFT
 10
0.0
 20
0.0
 30
0.0
  9
$PUCSORGRIGHT
 10
0.0
 20
0.0
 30
0.0
  9
$PUCSORGFRONT
 10
0.0
 20
0.0
 30
0.0
  9
$PUCSORGBACK
 10
0.0
 20
0.0
 30
0.0
  9
$USERI1
 70
     0
  9
$USERI2
 70
     0
  9
$USERI3
 70
     0
  9
$USERI4
 70
     0
  9
$USERI5
 70
     0
  9
$USERR1
 40
17.0
  9
$USERR2
 40
0.0
  9
$USERR3
 40
0.0
  9
$USERR4
 40
0.0
  9
$USERR5
 40
0.0
  9
$WORLDVIEW
 70
     1
  9
$SHADEDGE
 70
     3
  9
$SHADEDIF
 70
    70
  9
$TILEMODE
 70
     1
  9
$MAXACTVP
 70
    64
  9
$PINSBASE
 10
0.0
 20
0.0
 30
0.0
  9
$PLIMCHECK
 70
     0
  9
$PEXTMIN
 10
1.00000000000000E+20
 20
1.00000000000000E+20
 30
1.00000000000000E+20
  9
$PEXTMAX
 10
-1.00000000000000E+20
 20
-1.00000000000000E+20
 30
-1.00000000000000E+20
  9
$PLIMMIN
 10
0.0
 20
0.0
  9
$PLIMMAX
 10
12.0
 20
9.0
  9
$UNITMODE
 70
     0
  9
$VISRETAIN
 70
     1
  9
$PLINEGEN
 70
     0
  9
$PSLTSCALE
 70
     1
  9
$TREEDEPTH
 70
  3020
  9
$CMLSTYLE
  2
Standard
  9
$CMLJUST
 70
     0
  9
$CMLSCALE
 40
1.0
  9
$PROXYGRAPHICS
 70
     1
  9
$MEASUREMENT
 70
     1
  9
$CELWEIGHT
370
    -1
  9
$ENDCAPS
280
     0
  9
$JOINSTYLE
280
     0
  9
$LWDISPLAY
290
     0
  9
$INSUNITS
 70
     1
  9
$HYPERLINKBASE
  1

  9
$STYLESHEET
  1

  9
$XEDIT
290
     1
  9
$CEPSNTYPE
380
     0
  9
$PSTYLEMODE
290
     1
  9
$FINGERPRINTGUID
  2
{F6BA2388-D44F-4F4D-9CC3-6E527CF0728B}
  9
$VERSIONGUID
  2
{FAEB1C32-E019-11D5-929B-00C0DF256EC4}
  9
$EXTNAMES
290
     1
  9
$PSVPSCALE
 40
0.0
  9
$OLESTARTUP
290
     0
  9
$SORTENTS
280
   127
  9
$INDEXCTL
280
     0
  9
$HIDETEXT
280
     1
  9
$XCLIPFRAME
280
     2
  9
$HALOGAP
280
     0
  9
$OBSCOLOR
 70
   257
  9
$OBSLTYPE
280
     0
  9
$INTERSECTIONDISPLAY
280
     0
  9
$INTERSECTIONCOLOR
 70
   257
  9
$DIMASSOC
280
     2
  9
$PROJECTNAME
  1

  9
$CAMERADISPLAY
290
     0
  9
$LENSLENGTH
 40
50.0
  9
$CAMERAHEIGHT
 40
0.0
  9
$STEPSPERSEC
 40
2.0
  9
$STEPSIZE
 40
6.0
  9
$3DDWFPREC
 40
2.0
  9
$PSOLWIDTH
 40
0.25
  9
$PSOLHEIGHT
 40
4.0
  9
$LOFTANG1
 40
1.5707963267949
  9
$LOFTANG2
 40
1.5707963267949
  9
$LOFTMAG1
 40
0.0
  9
$LOFTMAG2
 40
0.0
  9
$LOFTPARAM
 70
     7
  9
$LOFTNORMALS
280
     1
  9
$LATITUDE
 40
37.795
  9
$LONGITUDE
 40
-122.394
  9
$NORTHDIRECTION
 40
0.0
  9
$TIMEZONE
 70
 -8000
  9
$LIGHTGLYPHDISPLAY
280
     1
  9
$TILEMODELIGHTSYNCH
280
     1
  9
$SOLIDHIST
280
     1
  9
$SHOWHIST
280
     1
  9
$DWFFRAME
280
     2
  9
$DGNFRAME
280
     2
  9
$REALWORLDSCALE
290
     1
  9
$INTERFERECOLOR
 62
   256
  9
$CSHADOW
280
     0
  9
$SHADOWPLANELOCATION
 40
0.0
  0
ENDSEC
  0
SECTION
  2
CLASSES
  0
CLASS
  1
ACDBDICTIONARYWDFLT
  2
AcDbDictionaryWithDefault
  3
ObjectDBX Classes
 90
        0
 91
        4
280
     0
281
     0
  0
CLASS
  1
VISUALSTYLE
  2
AcDbVisualStyle
  3
ObjectDBX Classes
 90
     4095
 91
        4
280
     0
281
     0
  0
CLASS
  1
MATERIAL
  2
AcDbMaterial
  3
ObjectDBX Classes
 90
     1153
 91
        4
280
     0
281
     0
  0
CLASS
  1
SCALE
  2
AcDbScale
  3
ObjectDBX Classes
 90
     1153
 91
        4
280
     0
281
     0
  0
CLASS
  1
DICTIONARYVAR
  2
AcDbDictionaryVar
  3
ObjectDBX Classes
 90
        0
 91
        4
280
     0
281
     0
  0
ENDSEC
  0
SECTION
  2
TABLES
  0
TABLE
  2
VPORT
  5
8
330
0
100
AcDbSymbolTable
 70
     1
  0
VPORT
  5
29
330
8
100
AcDbSymbolTableRecord
100
AcDbViewportTableRecord
  2
*Active
 70
     0
 10
0.0
 20
0.0
 11
1.0
 21
1.0
 12
-16206.5321289929
 22
1674.302139911635
 13
0.0
 23
0.0
 14
0.5
 24
0.5
 15
0.5
 25
0.5
 16
0.0
 26
0.0
 36
1.0
 17
0.0
 27
0.0
 37
0.0
 40
12353.36772877972
 41
1.60267857142857
 42
50.0
 43
0.0
 44
0.0
 50
0.0
 51
0.0
 71
     0
 72
   100
 73
     1
 74
     3
 75
     0
 76
     0
 77
     0
 78
     0
281
     0
 65
     1
110
0.0
120
0.0
130
0.0
111
1.0
121
0.0
131
0.0
112
0.0
122
1.0
132
0.0
 79
     0
146
0.0
 60
     3
 61
     5
292
     1
282
     1
141
0.0
142
0.0
 63
   250
  0
ENDTAB
  0
TABLE
  2
LTYPE
  5
5
330
0
100
AcDbSymbolTable
 70
     8
  0
LTYPE
  5
14
330
5
100
AcDbSymbolTableRecord
100
AcDbLinetypeTableRecord
  2
ByBlock
 70
     0
  3

 72
    65
 73
     0
 40
0.0
  0
LTYPE
  5
15
330
5
100
AcDbSymbolTableRecord
100
AcDbLinetypeTableRecord
  2
ByLayer
 70
     0
  3

 72
    65
 73
     0
 40
0.0
  0
LTYPE
  5
16
330
5
100
AcDbSymbolTableRecord
100
AcDbLinetypeTableRecord
  2
Continuous
 70
     0
  3
Solid line
 72
    65
 73
     0
 40
0.0
  0
LTYPE
  5
3F
330
5
100
AcDbSymbolTableRecord
100
AcDbLinetypeTableRecord
  2
DASHED
 70
     0
  3
Dashed
 72
    65
 73
     2
 40
15.0
 49
7.0
 74
     0
 49
-8.0
 74
     0
  0
LTYPE
  5
40
330
5
100
AcDbSymbolTableRecord
100
AcDbLinetypeTableRecord
  2
DOTTED
 70
     0
  3
Dotted
 72
    65
 73
     2
 40
1.0
 49
0.0
 74
     0
 49
-1.0
 74
     0
  0
LTYPE
  5
41
330
5
100
AcDbSymbolTableRecord
100
AcDbLinetypeTableRecord
  2
DOT_CENTER
 70
     0
  3
Dot_Center
 72
    65
 73
     4
 40
14.0
 49
12.0
 74
     0
 49
-1.0
 74
     0
 49
0.0
 74
     0
 49
-1.0
 74
     0
  0
LTYPE
  5
42
330
5
100
AcDbSymbolTableRecord
100
AcDbLinetypeTableRecord
  2
LONG_DASHED
 70
     0
  3
Long_Dashed
 72
    65
 73
     2
 40
15.0
 49
10.0
 74
     0
 49
-5.0
 74
     0
  0
LTYPE
  5
43
330
5
100
AcDbSymbolTableRecord
100
AcDbLinetypeTableRecord
  2
DASH_CENTER
 70
     0
  3
Dash_Center
 72
    65
 73
     4
 40
14.0
 49
11.0
 74
     0
 49
-1.0
 74
     0
 49
1.0
 74
     0
 49
-1.0
 74
     0
  0
LTYPE
  5
44
330
5
100
AcDbSymbolTableRecord
100
AcDbLinetypeTableRecord
  2
PHANTOM
 70
     0
  3
Phantom
 72
    65
 73
     6
 40
13.0
 49
10.0
 74
     0
 49
-1.0
 74
     0
 49
0.0
 74
     0
 49
-1.0
 74
     0
 49
0.0
 74
     0
 49
-1.0
 74
     0
  0
LTYPE
  5
45
330
5
100
AcDbSymbolTableRecord
100
AcDbLinetypeTableRecord
  2
CENTER_DASH_DASH
 70
     0
  3
Center_Dash_Dash
 72
    65
 73
     6
 40
14.0
 49
9.0
 74
     0
 49
-1.0
 74
     0
 49
1.0
 74
     0
 49
-1.0
 74
     0
 49
1.0
 74
     0
 49
-1.0
 74
     0
  0
ENDTAB
  0
TABLE
  2
LAYER
  5
2
330
0
100
AcDbSymbolTable
 70
     2
  0
LAYER
  5
10
330
2
100
AcDbSymbolTableRecord
100
AcDbLayerTableRecord
  2
0
 70
     0
 62
     7
  6
Continuous
370
    -3
390
F
347
3E
  0
LAYER
  5
46
330
2
100
AcDbSymbolTableRecord
100
AcDbLayerTableRecord
  2
1
 70
     0
 62
     7
  6
Continuous
370
    -3
390
F
347
3E
  0
ENDTAB
  0
TABLE
  2
STYLE
  5
3
330
0
100
AcDbSymbolTable
 70
     2
  0
STYLE
  5
11
330
3
100
AcDbSymbolTableRecord
100
AcDbTextStyleTableRecord
  2
Standard
 70
     0
 40
0.0
 41
1.0
 50
0.0
 71
     0
 42
0.2
  3
txt
  4

  0
STYLE
  5
4A3
330
3
100
AcDbSymbolTableRecord
100
AcDbTextStyleTableRecord
  2
CONVERTER_11
 70
     0
 40
0.0
 41
0.9
 50
0.0
 71
     0
 42
0.2
  3
txt.shx
  4

  0
ENDTAB
  0
TABLE
  2
VIEW
  5
6
330
0
100
AcDbSymbolTable
 70
     0
  0
ENDTAB
  0
TABLE
  2
UCS
  5
7
330
0
100
AcDbSymbolTable
 70
     0
  0
ENDTAB
  0
TABLE
  2
APPID
  5
9
330
0
100
AcDbSymbolTable
 70
     1
  0
APPID
  5
12
330
9
100
AcDbSymbolTableRecord
100
AcDbRegAppTableRecord
  2
ACAD
 70
     0
  0
ENDTAB
  0
TABLE
  2
DIMSTYLE
  5
A
330
0
100
AcDbSymbolTable
 70
     1
100
AcDbDimStyleTable
  0
DIMSTYLE
105
27
330
A
100
AcDbSymbolTableRecord
100
AcDbDimStyleTableRecord
  2
Standard
 70
     0
340
11
  0
ENDTAB
  0
TABLE
  2
BLOCK_RECORD
  5
1
330
0
100
AcDbSymbolTable
 70
     1
  0
BLOCK_RECORD
  5
1F
330
1
100
AcDbSymbolTableRecord
100
AcDbBlockTableRecord
  2
*Model_Space
340
22
 70
     0
280
     1
281
     0
  0
BLOCK_RECORD
  5
1B
330
1
100
AcDbSymbolTableRecord
100
AcDbBlockTableRecord
  2
*Paper_Space
340
1E
 70
     0
280
     1
281
     0
  0
BLOCK_RECORD
  5
23
330
1
100
AcDbSymbolTableRecord
100
AcDbBlockTableRecord
  2
*Paper_Space0
340
26
 70
     0
280
     1
281
     0
  0
ENDTAB
  0
ENDSEC
  0
SECTION
  2
BLOCKS
  0
BLOCK
  5
20
330
1F
100
AcDbEntity
  8
0
100
AcDbBlockBegin
  2
*Model_Space
 70
     0
 10
0.0
 20
0.0
 30
0.0
  3
*Model_Space
  1

  0
ENDBLK
  5
21
330
1F
100
AcDbEntity
  8
0
100
AcDbBlockEnd
  0
BLOCK
  5
1C
330
1B
100
AcDbEntity
 67
     1
  8
0
100
AcDbBlockBegin
  2
*Paper_Space
 70
     0
 10
0.0
 20
0.0
 30
0.0
  3
*Paper_Space
  1

  0
ENDBLK
  5
1D
330
1B
100
AcDbEntity
 67
     1
  8
0
100
AcDbBlockEnd
  0
BLOCK
  5
24
330
23
100
AcDbEntity
  8
0
100
AcDbBlockBegin
  2
*Paper_Space0
 70
     0
 10
0.0
 20
0.0
 30
0.0
  3
*Paper_Space0
  1

  0
ENDBLK
  5
25
330
23
100
AcDbEntity
  8
0
100
AcDbBlockEnd
  0
ENDSEC
  0
SECTION
  2
ENTITIES
  0
LINE
  5
47
330
1F
100
AcDbEntity
  8
1
  6
Continuous
 62
     7
100
AcDbLine
 10
-11344.2765159507
 20
-2483.36627416902
 30
0.0
 11
-11344.2765159507
 21
-1846.17264716757
 31
0.0
  0
LINE
  5
48
330
1F
100
AcDbEntity
  8
1
  6
Continuous
 62
     7
100
AcDbLine
 10
-11254.2765159506
 20
-1843.26064896427
 30
0.0
 11
-11254.2765159506
 21
-2483.3273938443
 31
0.0
  0
LINE
  5
49
330
1F
100
AcDbEntity
  8
1
  6
Continuous
 62
     7
100
AcDbLine
 10
-10735.2765164408
 20
-2483.3273938443
 30
0.0
 11
-10735.2765164408
 21
-1843.26064896427
 31
0.0
  0
LINE
  5
4A
330
1F
100
AcDbEntity
  8
1
  6
Continuous
 62
     7
100
AcDbLine
 10
-10645.2765164407
 20
-1846.17264716757
 30
0.0
 11
-10645.2765164407
 21
-2483.36627416902
 31
0.0
  0
LINE
  5
4B
330
1F
100
AcDbEntity
  8
1
  6
Continuous
 62
     7
100
AcDbLine
 10
-11161.573205023
 20
-1761.98543195892
 30
0.0
 11
-10827.9798273684
 21
-1761.98543195892
 31
0.0
  0
LINE
  5
4C
330
1F
100
AcDbEntity
  8
1
  6
Continuous
 62
     7
100
AcDbLine
 10
-11233.1665384063
 20
-1694.06315217631
 30
0.0
 11
-11228.3067068252
 21
-1704.29637431646
 31
0.0
  0
LINE
  5
4D
330
1F
100
AcDbEntity
  8
1
  6
Continuous
 62
     7
100
AcDbLine
 10
-10761.2212404354
 20
-1704.24355320302
 30
0.0
 11
-10756.386493985
 21
-1694.06315217631
 31
0.0
  0
LINE
  5
4E
330
1F
100
AcDbEntity
  8
1
  6
Continuous
 62
     7
100
AcDbLine
 10
-11205.4722560099
 20
-2524.79788273068
 30
0.0
 11
-10784.0807763814
 21
-2524.79788273068
 31
0.0
  0
LINE
  5
4F
330
1F
100
AcDbEntity
  8
1
  6
Continuous
 62
     7
100
AcDbLine
 10
-11246.7764825215
 20
-2508.98572169826
 30
0.0
 11
-11246.7764825215
 21
-1934.84088457406
 31
0.0
  0
LINE
  5
50
330
1F
100
AcDbEntity
  8
1
  6
Continuous
 62
     7
100
AcDbLine
 10
-10742.7765498698
 20
-2508.98572169826
 30
0.0
 11
-10742.7765498698
 21
-1934.84082802927
 31
0.0
  0
LINE
  5
51
330
1F
100
AcDbEntity
  8
1
  6
Continuous
 62
     7
100
AcDbLine
 10
-19344.2765159506
 20
-2543.36627416902
 30
0.0
 11
-19344.2765159506
 21
-1906.17264716757
 31
0.0
  0
LINE
  5
52
330
1F
100
AcDbEntity
  8
1
  6
Continuous
 62
     7
100
AcDbLine
 10
-19254.2765159506
 20
-1903.26064896427
 30
0.0
 11
-19254.2765159506
 21
-2543.3273938443
 31
0.0
  0
LINE
  5
53
330
1F
100
AcDbEntity
  8
1
  6
Continuous
 62
     7
100
AcDbLine
 10
-18735.2765164408
 20
-2543.3273938443
 30
0.0
 11
-18735.2765164408
 21
-1903.26064896427
 31
0.0
  0
LINE
  5
54
330
1F
100
AcDbEntity
  8
1
  6
Continuous
 62
     7
100
AcDbLine
 10
-18645.2765164407
 20
-1906.17264716757
 30
0.0
 11
-18645.2765164407
 21
-2543.36627416902
 31
0.0
  0
LINE
  5
55
330
1F
100
AcDbEntity
  8
1
  6
Continuous
 62
     7
100
AcDbLine
 10
-19161.573205023
 20
-1861.98543195892
 30
0.0
 11
-18827.9798273684
 21
-1861.98543195892
 31
0.0
  0
LINE
  5
56
330
1F
100
AcDbEntity
  8
1
  6
Continuous
 62
     7
100
AcDbLine
 10
-19233.1665384063
 20
-1794.06315217631
 30
0.0
 11
-19228.3067068252
 21
-1804.29637431646
 31
0.0
  0
LINE
  5
57
330
1F
100
AcDbEntity
  8
1
  6
Continuous
 62
     7
100
AcDbLine
 10
-18761.2212404354
 20
-1804.24355320302
 30
0.0
 11
-18756.386493985
 21
-1794.06315217631
 31
0.0
  0
LINE
  5
58
330
1F
100
AcDbEntity
  8
1
  6
Continuous
 62
     7
100
AcDbLine
 10
-19205.4722560099
 20
-2584.79788273068
 30
0.0
 11
-18784.0807763814
 21
-2584.79788273068
 31
0.0
  0
LINE
  5
59
330
1F
100
AcDbEntity
  8
1
  6
Continuous
 62
     7
100
AcDbLine
 10
-19246.7764825215
 20
-2568.98572169826
 30
0.0
 11
-19246.7764825215
 21
-2034.84088457404
 31
0.0
  0
LINE
  5
5A
330
1F
100
AcDbEntity
  8
1
  6
Continuous
 62
     7
100
AcDbLine
 10
-18742.7765498698
 20
-2568.98572169826
 30
0.0
 11
-18742.7765498698
 21
-2034.84088834091
 31
0.0
  0
LINE
  5
5B
330
1F
100
AcDbEntity
  8
1
  6
Continuous
 62
     7
100
AcDbLine
 10
-14742.7765498698
 20
-2548.98572462305
 30
0.0
 11
-14742.7765498698
 21
-1974.84083095406
 31
0.0
  0
LINE
  5
5C
330
1F
100
AcDbEntity
  8
1
  6
Continuous
 62
     7
100
AcDbLine
 10
-15246.7764825215
 20
-2548.98572462305
 30
0.0
 11
-15246.7764825215
 21
-1974.84088749884
 31
0.0
  0
LINE
  5
5D
330
1F
100
AcDbEntity
  8
1
  6
Continuous
 62
     7
100
AcDbLine
 10
-15205.4722560099
 20
-2564.79788565547
 30
0.0
 11
-14784.0807763814
 21
-2564.79788565547
 31
0.0
  0
LINE
  5
5E
330
1F
100
AcDbEntity
  8
1
  6
Continuous
 62
     7
100
AcDbLine
 10
-14761.2212404354
 20
-1744.24355612781
 30
0.0
 11
-14756.386493985
 21
-1734.0631551011
 31
0.0
  0
LINE
  5
5F
330
1F
100
AcDbEntity
  8
1
  6
Continuous
 62
     7
100
AcDbLine
 10
-15233.1665384063
 20
-1734.0631551011
 30
0.0
 11
-15228.3067068252
 21
-1744.29637724124
 31
0.0
  0
LINE
  5
60
330
1F
100
AcDbEntity
  8
1
  6
Continuous
 62
     7
100
AcDbLine
 10
-15161.573205023
 20
-1801.98543488371
 30
0.0
 11
-14827.9798273684
 21
-1801.98543488371
 31
0.0
  0
LINE
  5
61
330
1F
100
AcDbEntity
  8
1
  6
Continuous
 62
     7
100
AcDbLine
 10
-14645.2765164407
 20
-1886.17265009235
 30
0.0
 11
-14645.2765164407
 21
-2523.36627709381
 31
0.0
  0
LINE
  5
62
330
1F
100
AcDbEntity
  8
1
  6
Continuous
 62
     7
100
AcDbLine
 10
-14735.2765164408
 20
-2523.32739676909
 30
0.0
 11
-14735.2765164408
 21
-1883.26065188905
 31
0.0
  0
LINE
  5
63
330
1F
100
AcDbEntity
  8
1
  6
Continuous
 62
     7
100
AcDbLine
 10
-15254.2765159506
 20
-1883.26065188905
 30
0.0
 11
-15254.2765159506
 21
-2523.32739676909
 31
0.0
  0
LINE
  5
64
330
1F
100
AcDbEntity
  8
1
  6
Continuous
 62
     7
100
AcDbLine
 10
-15344.2765159507
 20
-2523.36627709381
 30
0.0
 11
-15344.2765159507
 21
-1886.17265009235
 31
0.0
  0
LINE
  5
65
330
1F
100
AcDbEntity
  8
1
  6
Continuous
 62
     7
100
AcDbLine
 10
-17384.2730689273
 20
109.550547610666
 30
0.0
 11
-17352.2430682912
 21
407.837161463735
 31
0.0
  0
LINE
  5
66
330
1F
100
AcDbEntity
  8
1
  6
Continuous
 62
     7
100
AcDbLine
 10
-17312.6854449974
 20
411.376668188701
 30
0.0
 11
-17339.7653637743
 21
132.086268477316
 31
0.0
  0
LINE
  5
67
330
1F
100
AcDbEntity
  8
1
  6
Continuous
 62
     7
100
AcDbLine
 10
-17352.2430682912
 20
407.837161463735
 30
0.0
 11
-17317.051910522
 21
412.768991209756
 31
0.0
  0
LINE
  5
68
330
1F
100
AcDbEntity
  8
1
  6
Continuous
 62
     7
100
AcDbLine
 10
-17225.53777021
 20
-536.100192708157
 30
0.0
 11
-17169.8736207541
 21
-528.299327099898
 31
0.0
  0
LINE
  5
69
330
1F
100
AcDbEntity
  8
1
  6
DASHED
 62
     3
100
AcDbLine
 10
-17807.2575345406
 20
87.90696749583
 30
0.0
 11
-17780.2430345252
 21
110.992835872423
 31
0.0
  0
LINE
  5
6A
330
1F
100
AcDbEntity
  8
1
  6
DASHED
 62
     3
100
AcDbLine
 10
-17775.8130909292
 20
112.16764832863
 30
0.0
 11
-17648.4209283682
 21
-137.847723778678
 31
0.0
  0
LINE
  5
6B
330
1F
100
AcDbEntity
  8
1
  6
DASHED
 62
     3
100
AcDbLine
 10
-17673.8209827226
 20
-180.785257147125
 30
0.0
 11
-17807.2575345406
 21
87.90696749583
 31
0.0
  0
LINE
  5
6C
330
1F
100
AcDbEntity
  8
1
  6
DASHED
 62
     3
100
AcDbLine
 10
-17251.0109116386
 20
-497.528694758546
 30
0.0
 11
-17232.509990763
 21
-479.291764432268
 31
0.0
  0
LINE
  5
6D
330
1F
100
AcDbEntity
  8
1
  6
DASHED
 62
     3
100
AcDbLine
 10
-17192.7277258863
 20
-639.70905448153
 30
0.0
 11
-17153.1206786915
 21
-605.862090832468
 31
0.0
  0
LINE
  5
6E
330
1F
100
AcDbEntity
  8
1
  6
Continuous
 62
     5
100
AcDbLine
 10
-14685.4364773866
 20
-732.933730943872
 30
0.0
 11
-14682.2765336603
 21
-732.933720366841
 31
0.0
  0
LINE
  5
6F
330
1F
100
AcDbEntity
  8
1
  6
Continuous
 62
     5
100
AcDbLine
 10
-14700.0358692293
 20
-736.493751801614
 30
0.0
 11
-14690.7765226356
 21
-736.493751795891
 31
0.0
  0
LINE
  5
70
330
1F
100
AcDbEntity
  8
1
  6
Continuous
 62
     5
100
AcDbLine
 10
-15298.7765173431
 20
-736.493747619313
 30
0.0
 11
-15289.517189258
 21
-736.493760892602
 31
0.0
  0
LINE
  5
71
330
1F
100
AcDbEntity
  8
1
  6
Continuous
 62
     5
100
AcDbLine
 10
-15307.2765173431
 20
-732.933725513013
 30
0.0
 11
-15304.1165596623
 21
-732.933743968558
 31
0.0
  0
LINE
  5
72
330
1F
100
AcDbEntity
  8
0
  6
Continuous
 62
     5
100
AcDbLine
 10
-14994.7765277228
 20
-741.493763373582
 30
0.0
 11
-14700.0358532765
 21
-741.493763782852
 31
0.0
  0
LINE
  5
73
330
1F
100
AcDbEntity
  8
0
  6
Continuous
 62
     5
100
AcDbLine
 10
-15289.5171782378
 20
-741.493747619313
 30
0.0
 11
-14994.7765277228
 21
-741.493763373582
 31
0.0
  0
LINE
  5
74
330
1F
100
AcDbEntity
  8
0
  6
Continuous
 62
     5
100
AcDbLine
 10
-15023.7906365063
 20
-688.699167186769
 30
0.0
 11
-14930.8674307838
 21
-688.699151712904
 31
0.0
  0
LINE
  5
75
330
1F
100
AcDbEntity
  8
0
  6
Continuous
 62
     5
100
AcDbLine
 10
-15058.6856025811
 20
-688.699154797122
 30
0.0
 11
-15023.7906365063
 21
-688.699167186769
 31
0.0
  0
LINE
  5
76
330
1F
100
AcDbEntity
  8
0
  6
Continuous
 62
     5
100
AcDbLine
 10
-15307.2765173431
 20
-729.431235513012
 30
0.0
 11
-15307.2724089738
 21
-729.274225698518
 31
0.0
  0
LINE
  5
77
330
1F
100
AcDbEntity
  8
0
  6
Continuous
 62
     5
100
AcDbLine
 10
-15307.2724089738
 20
-729.274225698518
 30
0.0
 11
-15307.2600811092
 21
-729.11764426451
 31
0.0
  0
LINE
  5
78
330
1F
100
AcDbEntity
  8
0
  6
Continuous
 62
     5
100
AcDbLine
 10
-15307.2600811092
 20
-729.11764426451
 30
0.0
 11
-15307.2395819032
 21
-728.96193224878
 31
0.0
  0
LINE
  5
79
330
1F
100
AcDbEntity
  8
0
  6
Continuous
 62
     5
100
AcDbLine
 10
-15307.2395819032
 20
-728.96193224878
 30
0.0
 11
-15307.2109779296
 21
-728.807518519533
 31
0.0
  0
LINE
  5
7A
330
1F
100
AcDbEntity
  8
0
  6
Continuous
 62
     5
100
AcDbLine
 10
-15307.2109779296
 20
-728.807518519533
 30
0.0
 11
-15307.174301511
 21
-728.654779171963
 31
0.0
  0
LINE
  5
7B
330
1F
100
AcDbEntity
  8
0
  6
Continuous
 62
     5
100
AcDbLine
 10
-15307.174301511
 20
-728.654779171963
 30
0.0
 11
-15307.129696768
 21
-728.504180982982
 31
0.0
  0
LINE
  5
7C
330
1F
100
AcDbEntity
  8
0
  6
Continuous
 62
     5
100
AcDbLine
 10
-15307.129696768
 20
-728.504180982982
 30
0.0
 11
-15307.0772591381
 21
-728.356142911266
 31
0.0
  0
LINE
  5
7D
330
1F
100
AcDbEntity
  8
0
  6
Continuous
 62
     5
100
AcDbLine
 10
-15307.0772591381
 20
-728.356142911266
 30
0.0
 11
-15307.0171706507
 21
-728.211054186896
 31
0.0
  0
LINE
  5
7E
330
1F
100
AcDbEntity
  8
0
  6
Continuous
 62
     5
100
AcDbLine
 10
-15307.0171706507
 20
-728.211054186896
 30
0.0
 11
-15306.949535788
 21
-728.069266131248
 31
0.0
  0
LINE
  5
7F
330
1F
100
AcDbEntity
  8
0
  6
Continuous
 62
     5
100
AcDbLine
 10
-15306.949535788
 20
-728.069266131248
 30
0.0
 11
-15306.8745852622
 21
-727.931215792649
 31
0.0
  0
LINE
  5
80
330
1F
100
AcDbEntity
  8
0
  6
Continuous
 62
     5
100
AcDbLine
 10
-15306.8745852622
 20
-727.931215792649
 30
0.0
 11
-15306.7925353537
 21
-727.797345174189
 31
0.0
  0
LINE
  5
81
330
1F
100
AcDbEntity
  8
0
  6
Continuous
 62
     5
100
AcDbLine
 10
-15306.7925353537
 20
-727.797345174189
 30
0.0
 11
-15306.7035861812
 21
-727.667908231356
 31
0.0
  0
LINE
  5
82
330
1F
100
AcDbEntity
  8
0
  6
Continuous
 62
     5
100
AcDbLine
 10
-15306.7035861812
 20
-727.667908231356
 30
0.0
 11
-15306.6079630698
 21
-727.543279329946
 31
0.0
  0
LINE
  5
83
330
1F
100
AcDbEntity
  8
0
  6
Continuous
 62
     5
100
AcDbLine
 10
-15306.6079630698
 20
-727.543279329946
 30
0.0
 11
-15306.5059688915
 21
-727.423870744458
 31
0.0
  0
LINE
  5
84
330
1F
100
AcDbEntity
  8
0
  6
Continuous
 62
     5
100
AcDbLine
 10
-15306.5059688915
 20
-727.423870744458
 30
0.0
 11
-15306.3978470608
 21
-727.309921566092
 31
0.0
  0
LINE
  5
85
330
1F
100
AcDbEntity
  8
0
  6
Continuous
 62
     5
100
AcDbLine
 10
-15306.3978470608
 20
-727.309921566092
 30
0.0
 11
-15306.2839094946
 21
-727.201776432055
 31
0.0
  0
LINE
  5
86
330
1F
100
AcDbEntity
  8
0
  6
Continuous
 62
     5
100
AcDbLine
 10
-15306.2839094946
 20
-727.201776432055
 30
0.0
 11
-15306.1644825415
 21
-727.099775024786
 31
0.0
  0
LINE
  5
87
330
1F
100
AcDbEntity
  8
0
  6
Continuous
 62
     5
100
AcDbLine
 10
-15306.1644825415
 20
-727.099775024786
 30
0.0
 11
-15306.039887163
 21
-727.004194344193
 31
0.0
  0
LINE
  5
88
330
1F
100
AcDbEntity
  8
0
  6
Continuous
 62
     5
100
AcDbLine
 10
-15306.039887163
 20
-727.004194344193
 30
0.0
 11
-15305.9104389335
 21
-726.915248707654
 31
0.0
  0
LINE
  5
89
330
1F
100
AcDbEntity
  8
0
  6
Continuous
 62
     5
100
AcDbLine
 10
-15305.9104389335
 20
-726.915248707654
 30
0.0
 11
-15305.7765309743
 21
-726.833190341253
 31
0.0
  0
LINE
  5
8A
330
1F
100
AcDbEntity
  8
0
  6
Continuous
 62
     5
100
AcDbLine
 10
-15305.7765309743
 20
-726.833190341253
 30
0.0
 11
-15305.6384932918
 21
-726.758228607603
 31
0.0
  0
LINE
  5
8B
330
1F
100
AcDbEntity
  8
0
  6
Continuous
 62
     5
100
AcDbLine
 10
-15305.6384932918
 20
-726.758228607603
 30
0.0
 11
-15305.4967334391
 21
-726.690610778022
 31
0.0
  0
LINE
  5
8C
330
1F
100
AcDbEntity
  8
0
  6
Continuous
 62
     5
100
AcDbLine
 10
-15305.4967334391
 20
-726.690610778022
 30
0.0
 11
-15305.3516391504
 21
-726.630526396067
 31
0.0
  0
LINE
  5
8D
330
1F
100
AcDbEntity
  8
0
  6
Continuous
 62
     5
100
AcDbLine
 10
-15305.3516391504
 20
-726.630526396067
 30
0.0
 11
-15305.2035729535
 21
-726.578044594989
 31
0.0
  0
LINE
  5
8E
330
1F
100
AcDbEntity
  8
0
  6
Continuous
 62
     5
100
AcDbLine
 10
-15305.2035729535
 20
-726.578044594989
 30
0.0
 11
-15305.0529766528
 21
-726.533465419113
 31
0.0
  0
LINE
  5
8F
330
1F
100
AcDbEntity
  8
0
  6
Continuous
 62
     5
100
AcDbLine
 10
-15305.0529766528
 20
-726.533465419113
 30
0.0
 11
-15304.9002506849
 21
-726.496780454866
 31
0.0
  0
LINE
  5
90
330
1F
100
AcDbEntity
  8
0
  6
Continuous
 62
     5
100
AcDbLine
 10
-15304.9002506849
 20
-726.496780454866
 30
0.0
 11
-15304.7458260797
 21
-726.468164381507
 31
0.0
  0
LINE
  5
91
330
1F
100
AcDbEntity
  8
0
  6
Continuous
 62
     5
100
AcDbLine
 10
-14682.2765246728
 20
-729.431247322502
 30
0.0
 11
-14682.2806282788
 21
-729.274219476005
 31
0.0
  0
LINE
  5
92
330
1F
100
AcDbEntity
  8
0
  6
Continuous
 62
     5
100
AcDbLine
 10
-14682.2806282788
 20
-729.274219476005
 30
0.0
 11
-14682.2929586278
 21
-729.117658363477
 31
0.0
  0
LINE
  5
93
330
1F
100
AcDbEntity
  8
0
  6
Continuous
 62
     5
100
AcDbLine
 10
-14682.2929586278
 20
-729.117658363477
 30
0.0
 11
-14682.3134515413
 21
-728.961940944816
 31
0.0
  0
LINE
  5
94
330
1F
100
AcDbEntity
  8
0
  6
Continuous
 62
     5
100
AcDbLine
 10
-14682.3134515413
 20
-728.961940944816
 30
0.0
 11
-14682.3420915238
 21
-728.807491998162
 31
0.0
  0
LINE
  5
95
330
1F
100
AcDbEntity
  8
0
  6
Continuous
 62
     5
100
AcDbLine
 10
-14682.3420915238
 20
-728.807491998162
 30
0.0
 11
-14682.3787476241
 21
-728.654775939771
 31
0.0
  0
LINE
  5
96
330
1F
100
AcDbEntity
  8
0
  6
Continuous
 62
     5
100
AcDbLine
 10
-14682.3787476241
 20
-728.654775939771
 30
0.0
 11
-14682.4233556639
 21
-728.504169729541
 31
0.0
  0
LINE
  5
97
330
1F
100
AcDbEntity
  8
0
  6
Continuous
 62
     5
100
AcDbLine
 10
-14682.4233556639
 20
-728.504169729541
 30
0.0
 11
-14682.475784692
 21
-728.356137783727
 31
0.0
  0
LINE
  5
98
330
1F
100
AcDbEntity
  8
0
  6
Continuous
 62
     5
100
AcDbLine
 10
-14682.475784692
 20
-728.356137783727
 30
0.0
 11
-14682.535892983
 21
-728.211019153519
 31
0.0
  0
LINE
  5
99
330
1F
100
AcDbEntity
  8
0
  6
Continuous
 62
     5
100
AcDbLine
 10
-14682.535892983
 20
-728.211019153519
 30
0.0
 11
-14682.6035108126
 21
-728.069259300817
 31
0.0
  0
LINE
  5
9A
330
1F
100
AcDbEntity
  8
0
  6
Continuous
 62
     5
100
AcDbLine
 10
-14682.6035108126
 20
-728.069259300817
 30
0.0
 11
-14682.6784486372
 21
-727.931245959748
 31
0.0
  0
LINE
  5
9B
330
1F
100
AcDbEntity
  8
0
  6
Continuous
 62
     5
100
AcDbLine
 10
-14682.6784486372
 20
-727.931245959748
 30
0.0
 11
-14682.760497094
 21
-727.797309136679
 31
0.0
  0
LINE
  5
9C
330
1F
100
AcDbEntity
  8
0
  6
Continuous
 62
     5
100
AcDbLine
 10
-14682.760497094
 20
-727.797309136679
 30
0.0
 11
-14682.8494765492
 21
-727.667865429623
 31
0.0
  0
LINE
  5
9D
330
1F
100
AcDbEntity
  8
0
  6
Continuous
 62
     5
100
AcDbLine
 10
-14682.8494765492
 20
-727.667865429623
 30
0.0
 11
-14682.9450910485
 21
-727.543274573531
 31
0.0
  0
LINE
  5
9E
330
1F
100
AcDbEntity
  8
0
  6
Continuous
 62
     5
100
AcDbLine
 10
-14682.9450910485
 20
-727.543274573531
 30
0.0
 11
-14683.0470924557
 21
-727.423847620409
 31
0.0
  0
LINE
  5
9F
330
1F
100
AcDbEntity
  8
0
  6
Continuous
 62
     5
100
AcDbLine
 10
-14683.0470924557
 20
-727.423847620409
 30
0.0
 11
-14683.1552037711
 21
-727.309905531791
 31
0.0
  0
LINE
  5
A0
330
1F
100
AcDbEntity
  8
0
  6
Continuous
 62
     5
100
AcDbLine
 10
-14683.1552037711
 20
-727.309905531791
 30
0.0
 11
-14683.2691290404
 21
-727.20180804263
 31
0.0
  0
LINE
  5
A1
330
1F
100
AcDbEntity
  8
0
  6
Continuous
 62
     5
100
AcDbLine
 10
-14683.2691290404
 20
-727.20180804263
 30
0.0
 11
-14683.388561535
 21
-727.099789522808
 31
0.0
  0
LINE
  5
A2
330
1F
100
AcDbEntity
  8
0
  6
Continuous
 62
     5
100
AcDbLine
 10
-14683.388561535
 20
-727.099789522808
 30
0.0
 11
-14683.5131665272
 21
-727.004190752918
 31
0.0
  0
LINE
  5
A3
330
1F
100
AcDbEntity
  8
0
  6
Continuous
 62
     5
100
AcDbLine
 10
-14683.5131665272
 20
-727.004190752918
 30
0.0
 11
-14683.6425985153
 21
-726.91522714849
 31
0.0
  0
LINE
  5
A4
330
1F
100
AcDbEntity
  8
0
  6
Continuous
 62
     5
100
AcDbLine
 10
-14683.6425985153
 20
-726.91522714849
 30
0.0
 11
-14683.7765219068
 21
-726.833142988934
 31
0.0
  0
LINE
  5
A5
330
1F
100
AcDbEntity
  8
0
  6
Continuous
 62
     5
100
AcDbLine
 10
-14683.7765219068
 20
-726.833142988934
 30
0.0
 11
-14683.9145433815
 21
-726.758202372721
 31
0.0
  0
LINE
  5
A6
330
1F
100
AcDbEntity
  8
0
  6
Continuous
 62
     5
100
AcDbLine
 10
-14683.9145433815
 20
-726.758202372721
 30
0.0
 11
-14684.056307528
 21
-726.690591851496
 31
0.0
  0
LINE
  5
A7
330
1F
100
AcDbEntity
  8
0
  6
Continuous
 62
     5
100
AcDbLine
 10
-14684.056307528
 20
-726.690591851496
 30
0.0
 11
-14684.2014201615
 21
-726.630479022548
 31
0.0
  0
LINE
  5
A8
330
1F
100
AcDbEntity
  8
0
  6
Continuous
 62
     5
100
AcDbLine
 10
-14684.2014201615
 20
-726.630479022548
 30
0.0
 11
-14684.3494681428
 21
-726.578070256577
 31
0.0
  0
LINE
  5
A9
330
1F
100
AcDbEntity
  8
0
  6
Continuous
 62
     5
100
AcDbLine
 10
-14684.3494681428
 20
-726.578070256577
 30
0.0
 11
-14684.5000663317
 21
-726.533465513574
 31
0.0
  0
LINE
  5
AA
330
1F
100
AcDbEntity
  8
0
  6
Continuous
 62
     5
100
AcDbLine
 10
-14684.5000663317
 20
-726.533465513574
 30
0.0
 11
-14684.6527718607
 21
-726.49678457259
 31
0.0
  0
LINE
  5
AB
330
1F
100
AcDbEntity
  8
0
  6
Continuous
 62
     5
100
AcDbLine
 10
-14684.6527718607
 20
-726.49678457259
 30
0.0
 11
-14684.807209499
 21
-726.468156257499
 31
0.0
  0
LINE
  5
AC
330
1F
100
AcDbEntity
  8
0
  6
Continuous
 62
     5
100
AcDbLine
 10
-14700.0358692293
 20
-736.493751801614
 30
0.0
 11
-14700.0358532765
 21
-741.493763782852
 31
0.0
  0
LINE
  5
AD
330
1F
100
AcDbEntity
  8
0
  6
Continuous
 62
     5
100
AcDbLine
 10
-15289.5171782378
 20
-741.493747619313
 30
0.0
 11
-15289.517189258
 21
-736.493760892602
 31
0.0
  0
LINE
  5
AE
330
1F
100
AcDbEntity
  8
0
  6
Continuous
 62
     5
100
AcDbLine
 10
-14685.4364773866
 20
-732.933730943872
 30
0.0
 11
-14690.7765226356
 21
-736.493751795891
 31
0.0
  0
LINE
  5
AF
330
1F
100
AcDbEntity
  8
0
  6
Continuous
 62
     5
100
AcDbLine
 10
-15298.7765173431
 20
-736.493747619313
 30
0.0
 11
-15304.1165596623
 21
-732.933743968558
 31
0.0
  0
LINE
  5
B0
330
1F
100
AcDbEntity
  8
0
  6
Continuous
 62
     5
100
AcDbLine
 10
-15304.7316713005
 20
-726.465964045663
 30
0.0
 11
-15058.6856025811
 21
-688.699154797122
 31
0.0
  0
LINE
  5
B1
330
1F
100
AcDbEntity
  8
0
  6
Continuous
 62
     5
100
AcDbLine
 10
-14930.8674307838
 20
-688.699151712904
 30
0.0
 11
-14684.8213671044
 21
-726.465973757543
 31
0.0
  0
LINE
  5
B2
330
1F
100
AcDbEntity
  8
0
  6
Continuous
 62
     5
100
AcDbLine
 10
-15307.2765173431
 20
-732.933725513013
 30
0.0
 11
-15307.2765173431
 21
-729.431235513012
 31
0.0
  0
LINE
  5
B3
330
1F
100
AcDbEntity
  8
0
  6
Continuous
 62
     5
100
AcDbLine
 10
-14682.2765246728
 20
-729.431247322502
 30
0.0
 11
-14682.2765336603
 21
-732.933720366841
 31
0.0
  0
LINE
  5
B4
330
1F
100
AcDbEntity
  8
0
  6
Continuous
 62
     5
100
AcDbLine
 10
-14931.6641621968
 20
-688.664903212947
 30
0.0
 11
-15057.8888727719
 21
-688.664880283476
 31
0.0
  0
LINE
  5
B5
330
1F
100
AcDbEntity
  8
0
  6
Continuous
 62
     5
100
AcDbLine
 10
-15057.8888727719
 20
-688.664880283476
 30
0.0
 11
-15026.5065127746
 21
-688.664878992599
 31
0.0
  0
LINE
  5
B6
330
1F
100
AcDbEntity
  8
0
  6
Continuous
 62
     5
100
AcDbLine
 10
-14963.046525802
 20
-688.66490326513
 30
0.0
 11
-14931.6641621968
 21
-688.664903212947
 31
0.0
  0
LINE
  5
B7
330
1F
100
AcDbEntity
  8
0
  6
Continuous
 62
     5
100
AcDbLine
 10
-15057.3218311821
 20
-688.809770148236
 30
0.0
 11
-15057.6211021861
 21
-688.729578578675
 31
0.0
  0
LINE
  5
B8
330
1F
100
AcDbEntity
  8
0
  6
Continuous
 62
     5
100
AcDbLine
 10
-15026.5065127746
 20
-688.664878992599
 30
0.0
 11
-15024.7765154066
 21
-688.664882155318
 31
0.0
  0
LINE
  5
B9
330
1F
100
AcDbEntity
  8
0
  6
Continuous
 62
     5
100
AcDbLine
 10
-15057.6211021861
 20
-688.729578578675
 30
0.0
 11
-15057.9271151259
 21
-688.681113020113
 31
0.0
  0
LINE
  5
BA
330
1F
100
AcDbEntity
  8
0
  6
Continuous
 62
     5
100
AcDbLine
 10
-15058.5459218595
 20
-688.681104172733
 30
0.0
 11
-15058.2365148237
 21
-688.664880049585
 31
0.0
  0
LINE
  5
BB
330
1F
100
AcDbEntity
  8
0
  6
Continuous
 62
     5
100
AcDbLine
 10
-15058.2365148237
 20
-688.664880049585
 30
0.0
 11
-15057.8888727719
 21
-688.664880283476
 31
0.0
  0
LINE
  5
BC
330
1F
100
AcDbEntity
  8
0
  6
Continuous
 62
     5
100
AcDbLine
 10
-15058.2365148237
 20
-688.664880049585
 30
0.0
 11
-15058.1252597246
 21
-688.670717161765
 31
0.0
  0
LINE
  5
BD
330
1F
100
AcDbEntity
  8
0
  6
Continuous
 62
     5
100
AcDbLine
 10
-15058.1252597246
 20
-688.670717161765
 30
0.0
 11
-15057.9271151259
 21
-688.681113020113
 31
0.0
  0
LINE
  5
BE
330
1F
100
AcDbEntity
  8
0
  6
Continuous
 62
     5
100
AcDbLine
 10
-15057.8888727719
 20
-688.664880283476
 30
0.0
 11
-15057.9271151259
 21
-688.681113020113
 31
0.0
  0
LINE
  5
BF
330
1F
100
AcDbEntity
  8
0
  6
Continuous
 62
     5
100
AcDbLine
 10
-15058.6856025811
 20
-688.699154797122
 30
0.0
 11
-15058.5459218595
 21
-688.681104172733
 31
0.0
  0
LINE
  5
C0
330
1F
100
AcDbEntity
  8
0
  6
Continuous
 62
     5
100
AcDbLine
 10
-15304.7458260797
 20
-726.468164381507
 30
0.0
 11
-15304.7316713005
 21
-726.465964045663
 31
0.0
  0
LINE
  5
C1
330
1F
100
AcDbEntity
  8
0
  6
Continuous
 62
     5
100
AcDbLine
 10
-14931.6641621968
 20
-688.664903212947
 30
0.0
 11
-14931.3165273609
 21
-688.664900969453
 31
0.0
  0
LINE
  5
C2
330
1F
100
AcDbEntity
  8
0
  6
Continuous
 62
     5
100
AcDbLine
 10
-14931.6641621968
 20
-688.664903212947
 30
0.0
 11
-14931.6259208792
 21
-688.681097467409
 31
0.0
  0
LINE
  5
C3
330
1F
100
AcDbEntity
  8
0
  6
Continuous
 62
     5
100
AcDbLine
 10
-14931.6259208792
 20
-688.681097467409
 30
0.0
 11
-14931.9319460727
 21
-688.729587082571
 31
0.0
  0
LINE
  5
C4
330
1F
100
AcDbEntity
  8
0
  6
Continuous
 62
     5
100
AcDbLine
 10
-14931.9319460727
 20
-688.729587082571
 30
0.0
 11
-14932.2312003929
 21
-688.809763344666
 31
0.0
  0
LINE
  5
C5
330
1F
100
AcDbEntity
  8
0
  6
Continuous
 62
     5
100
AcDbLine
 10
-14932.2312003929
 20
-688.809763344666
 30
0.0
 11
-14932.5204626545
 21
-688.920796187772
 31
0.0
  0
LINE
  5
C6
330
1F
100
AcDbEntity
  8
0
  6
Continuous
 62
     5
100
AcDbLine
 10
-15057.8888727719
 20
-688.664880283476
 30
0.0
 11
-15058.5459218595
 21
-688.681104172733
 31
0.0
  0
LINE
  5
C7
330
1F
100
AcDbEntity
  8
0
  6
Continuous
 62
     5
100
AcDbLine
 10
-15057.8888727719
 20
-688.664880283476
 30
0.0
 11
-15058.2365148237
 21
-688.664880049585
 31
0.0
  0
LINE
  5
C8
330
1F
100
AcDbEntity
  8
0
  6
Continuous
 62
     5
100
AcDbLine
 10
-14964.7765157619
 20
-688.664900102427
 30
0.0
 11
-14963.046525802
 21
-688.66490326513
 31
0.0
  0
LINE
  5
C9
330
1F
100
AcDbEntity
  8
0
  6
Continuous
 62
     5
100
AcDbLine
 10
-14684.807209499
 20
-726.468156257499
 30
0.0
 11
-14684.8213671044
 21
-726.465973757543
 31
0.0
  0
LINE
  5
CA
330
1F
100
AcDbEntity
  8
0
  6
Continuous
 62
     5
100
AcDbLine
 10
-14931.0071105376
 20
-688.681107553478
 30
0.0
 11
-14931.4278833996
 21
-688.670730368295
 31
0.0
  0
LINE
  5
CB
330
1F
100
AcDbEntity
  8
0
  6
Continuous
 62
     5
100
AcDbLine
 10
-14931.4278833996
 20
-688.670730368295
 30
0.0
 11
-14931.6641621968
 21
-688.664903212947
 31
0.0
  0
LINE
  5
CC
330
1F
100
AcDbEntity
  8
0
  6
Continuous
 62
     5
100
AcDbLine
 10
-14931.0071105376
 20
-688.681107553478
 30
0.0
 11
-14931.3165273609
 21
-688.664900969453
 31
0.0
  0
LINE
  5
CD
330
1F
100
AcDbEntity
  8
0
  6
Continuous
 62
     5
100
AcDbLine
 10
-14931.6641621968
 20
-688.664903212947
 30
0.0
 11
-14931.3165273609
 21
-688.664900969453
 31
0.0
  0
LINE
  5
CE
330
1F
100
AcDbEntity
  8
0
  6
Continuous
 62
     5
100
AcDbLine
 10
-14931.3165273609
 20
-688.664900969453
 30
0.0
 11
-14931.6259208792
 21
-688.681097467409
 31
0.0
  0
LINE
  5
CF
330
1F
100
AcDbEntity
  8
0
  6
Continuous
 62
     5
100
AcDbLine
 10
-14930.8674307838
 20
-688.699151712904
 30
0.0
 11
-14931.0071105376
 21
-688.681107553478
 31
0.0
  0
LINE
  5
D0
330
1F
100
AcDbEntity
  8
0
  6
Continuous
 62
     5
100
AcDbLine
 10
-14964.7765157619
 20
-688.664900102427
 30
0.0
 11
-14964.7765160167
 21
-682.661955987832
 31
0.0
  0
LINE
  5
D1
330
1F
100
AcDbEntity
  8
0
  6
Continuous
 62
     5
100
AcDbLine
 10
-15024.7765156083
 20
-682.661955987832
 30
0.0
 11
-15024.7765154066
 21
-688.664882155318
 31
0.0
  0
LINE
  5
D2
330
1F
100
AcDbEntity
  8
1
  6
Continuous
 62
     7
100
AcDbLine
 10
-15344.2764712174
 20
-180.572244151696
 30
0.0
 11
-15344.2764712174
 21
-364.549198300707
 31
0.0
  0
LINE
  5
D3
330
1F
100
AcDbEntity
  8
1
  6
Continuous
 62
     7
100
AcDbLine
 10
-15254.2764652784
 20
-180.572244151696
 30
0.0
 11
-15254.2765113256
 21
-364.549198300707
 31
0.0
  0
LINE
  5
D4
330
1F
100
AcDbEntity
  8
1
  6
Continuous
 62
     7
100
AcDbLine
 10
-15225.3571102075
 20
384.286111729833
 30
0.0
 11
-15246.7764899418
 21
-288.672840536613
 31
0.0
  0
LINE
  5
D5
330
1F
100
AcDbEntity
  8
1
  6
Continuous
 62
     7
100
AcDbLine
 10
-14742.7765424496
 20
-288.672840536613
 30
0.0
 11
-14764.1959221839
 21
384.286111729833
 31
0.0
  0
LINE
  5
D6
330
1F
100
AcDbEntity
  8
0
  6
Continuous
 62
     5
100
AcDbLine
 10
-17026.5065193528
 20
-688.664903265131
 30
0.0
 11
-17024.7765293929
 21
-688.664900102427
 31
0.0
  0
LINE
  5
D7
330
1F
100
AcDbEntity
  8
0
  6
Continuous
 62
     5
100
AcDbLine
 10
-17024.7765215311
 20
-545.608094054822
 30
0.0
 11
-17024.7765293929
 21
-688.664900102427
 31
0.0
  0
LINE
  5
D8
330
1F
100
AcDbEntity
  8
0
  6
Continuous
 62
     5
100
AcDbLine
 10
-16964.7765297482
 20
-688.664882155318
 30
0.0
 11
-16964.7765236236
 21
-545.608094054822
 31
0.0
  0
LINE
  5
D9
330
1F
100
AcDbEntity
  8
1
  6
Continuous
 62
     5
100
AcDbLine
 10
-17307.2765114944
 20
-732.933720366841
 30
0.0
 11
-17304.1165677682
 21
-732.933730943872
 31
0.0
  0
LINE
  5
DA
330
1F
100
AcDbEntity
  8
1
  6
Continuous
 62
     5
100
AcDbLine
 10
-17298.7765225192
 20
-736.493751795891
 30
0.0
 11
-17289.5171759255
 21
-736.493751801614
 31
0.0
  0
LINE
  5
DB
330
1F
100
AcDbEntity
  8
1
  6
Continuous
 62
     5
100
AcDbLine
 10
-16700.0358558968
 20
-736.493760892602
 30
0.0
 11
-16690.7765278116
 21
-736.493747619314
 31
0.0
  0
LINE
  5
DC
330
1F
100
AcDbEntity
  8
1
  6
Continuous
 62
     5
100
AcDbLine
 10
-16685.4364854925
 20
-732.933743968558
 30
0.0
 11
-16682.2765278116
 21
-732.933725513013
 31
0.0
  0
LINE
  5
DD
330
1F
100
AcDbEntity
  8
0
  6
Continuous
 62
     5
100
AcDbLine
 10
-17289.5171918783
 20
-741.493763782852
 30
0.0
 11
-16994.776517432
 21
-741.493763373582
 31
0.0
  0
LINE
  5
DE
330
1F
100
AcDbEntity
  8
0
  6
Continuous
 62
     5
100
AcDbLine
 10
-16994.776517432
 20
-741.493763373582
 30
0.0
 11
-16700.035866917
 21
-741.493747619313
 31
0.0
  0
LINE
  5
DF
330
1F
100
AcDbEntity
  8
0
  6
Continuous
 62
     5
100
AcDbLine
 10
-17058.6856143709
 20
-688.699151712904
 30
0.0
 11
-16965.7624086485
 21
-688.699167186769
 31
0.0
  0
LINE
  5
E0
330
1F
100
AcDbEntity
  8
0
  6
Continuous
 62
     5
100
AcDbLine
 10
-16965.7624086485
 20
-688.699167186769
 30
0.0
 11
-16930.8674425737
 21
-688.699154797122
 31
0.0
  0
LINE
  5
E1
330
1F
100
AcDbEntity
  8
0
  6
Continuous
 62
     5
100
AcDbLine
 10
-16682.280636181
 20
-729.274225698518
 30
0.0
 11
-16682.2765278116
 21
-729.431235513012
 31
0.0
  0
LINE
  5
E2
330
1F
100
AcDbEntity
  8
0
  6
Continuous
 62
     5
100
AcDbLine
 10
-16682.2929640456
 20
-729.11764426451
 30
0.0
 11
-16682.280636181
 21
-729.274225698518
 31
0.0
  0
LINE
  5
E3
330
1F
100
AcDbEntity
  8
0
  6
Continuous
 62
     5
100
AcDbLine
 10
-16682.3134632516
 20
-728.96193224878
 30
0.0
 11
-16682.2929640456
 21
-729.11764426451
 31
0.0
  0
LINE
  5
E4
330
1F
100
AcDbEntity
  8
0
  6
Continuous
 62
     5
100
AcDbLine
 10
-16682.3420672252
 20
-728.807518519533
 30
0.0
 11
-16682.3134632516
 21
-728.96193224878
 31
0.0
  0
LINE
  5
E5
330
1F
100
AcDbEntity
  8
0
  6
Continuous
 62
     5
100
AcDbLine
 10
-16682.3787436438
 20
-728.654779171963
 30
0.0
 11
-16682.3420672252
 21
-728.807518519533
 31
0.0
  0
LINE
  5
E6
330
1F
100
AcDbEntity
  8
0
  6
Continuous
 62
     5
100
AcDbLine
 10
-16682.4233483868
 20
-728.504180982982
 30
0.0
 11
-16682.3787436438
 21
-728.654779171963
 31
0.0
  0
LINE
  5
E7
330
1F
100
AcDbEntity
  8
0
  6
Continuous
 62
     5
100
AcDbLine
 10
-16682.4757860166
 20
-728.356142911266
 30
0.0
 11
-16682.4233483868
 21
-728.504180982982
 31
0.0
  0
LINE
  5
E8
330
1F
100
AcDbEntity
  8
0
  6
Continuous
 62
     5
100
AcDbLine
 10
-16682.5358745041
 20
-728.211054186896
 30
0.0
 11
-16682.4757860166
 21
-728.356142911266
 31
0.0
  0
LINE
  5
E9
330
1F
100
AcDbEntity
  8
0
  6
Continuous
 62
     5
100
AcDbLine
 10
-16682.6035093668
 20
-728.069266131248
 30
0.0
 11
-16682.5358745041
 21
-728.211054186896
 31
0.0
  0
LINE
  5
EA
330
1F
100
AcDbEntity
  8
0
  6
Continuous
 62
     5
100
AcDbLine
 10
-16682.6784598926
 20
-727.931215792649
 30
0.0
 11
-16682.6035093668
 21
-728.069266131248
 31
0.0
  0
LINE
  5
EB
330
1F
100
AcDbEntity
  8
0
  6
Continuous
 62
     5
100
AcDbLine
 10
-16682.7605098011
 20
-727.797345174189
 30
0.0
 11
-16682.6784598926
 21
-727.931215792649
 31
0.0
  0
LINE
  5
EC
330
1F
100
AcDbEntity
  8
0
  6
Continuous
 62
     5
100
AcDbLine
 10
-16682.8494589736
 20
-727.667908231357
 30
0.0
 11
-16682.7605098011
 21
-727.797345174189
 31
0.0
  0
LINE
  5
ED
330
1F
100
AcDbEntity
  8
0
  6
Continuous
 62
     5
100
AcDbLine
 10
-16682.9450820849
 20
-727.543279329946
 30
0.0
 11
-16682.8494589736
 21
-727.667908231357
 31
0.0
  0
LINE
  5
EE
330
1F
100
AcDbEntity
  8
0
  6
Continuous
 62
     5
100
AcDbLine
 10
-16683.0470762633
 20
-727.423870744458
 30
0.0
 11
-16682.9450820849
 21
-727.543279329946
 31
0.0
  0
LINE
  5
EF
330
1F
100
AcDbEntity
  8
0
  6
Continuous
 62
     5
100
AcDbLine
 10
-16683.1551980939
 20
-727.309921566092
 30
0.0
 11
-16683.0470762633
 21
-727.423870744458
 31
0.0
  0
LINE
  5
F0
330
1F
100
AcDbEntity
  8
0
  6
Continuous
 62
     5
100
AcDbLine
 10
-16683.2691356601
 20
-727.201776432055
 30
0.0
 11
-16683.1551980939
 21
-727.309921566092
 31
0.0
  0
LINE
  5
F1
330
1F
100
AcDbEntity
  8
0
  6
Continuous
 62
     5
100
AcDbLine
 10
-16683.3885626133
 20
-727.099775024786
 30
0.0
 11
-16683.2691356601
 21
-727.201776432055
 31
0.0
  0
LINE
  5
F2
330
1F
100
AcDbEntity
  8
0
  6
Continuous
 62
     5
100
AcDbLine
 10
-16683.5131579918
 20
-727.004194344194
 30
0.0
 11
-16683.3885626133
 21
-727.099775024786
 31
0.0
  0
LINE
  5
F3
330
1F
100
AcDbEntity
  8
0
  6
Continuous
 62
     5
100
AcDbLine
 10
-16683.6426062212
 20
-726.915248707654
 30
0.0
 11
-16683.5131579918
 21
-727.004194344194
 31
0.0
  0
LINE
  5
F4
330
1F
100
AcDbEntity
  8
0
  6
Continuous
 62
     5
100
AcDbLine
 10
-16683.7765141804
 20
-726.833190341253
 30
0.0
 11
-16683.6426062212
 21
-726.915248707654
 31
0.0
  0
LINE
  5
F5
330
1F
100
AcDbEntity
  8
0
  6
Continuous
 62
     5
100
AcDbLine
 10
-16683.914551863
 20
-726.758228607603
 30
0.0
 11
-16683.7765141804
 21
-726.833190341253
 31
0.0
  0
LINE
  5
F6
330
1F
100
AcDbEntity
  8
0
  6
Continuous
 62
     5
100
AcDbLine
 10
-16684.0563117157
 20
-726.690610778022
 30
0.0
 11
-16683.914551863
 21
-726.758228607603
 31
0.0
  0
LINE
  5
F7
330
1F
100
AcDbEntity
  8
0
  6
Continuous
 62
     5
100
AcDbLine
 10
-16684.2014060044
 20
-726.630526396067
 30
0.0
 11
-16684.0563117157
 21
-726.690610778022
 31
0.0
  0
LINE
  5
F8
330
1F
100
AcDbEntity
  8
0
  6
Continuous
 62
     5
100
AcDbLine
 10
-16684.3494722012
 20
-726.578044594989
 30
0.0
 11
-16684.2014060044
 21
-726.630526396067
 31
0.0
  0
LINE
  5
F9
330
1F
100
AcDbEntity
  8
0
  6
Continuous
 62
     5
100
AcDbLine
 10
-16684.5000685019
 20
-726.533465419113
 30
0.0
 11
-16684.3494722012
 21
-726.578044594989
 31
0.0
  0
LINE
  5
FA
330
1F
100
AcDbEntity
  8
0
  6
Continuous
 62
     5
100
AcDbLine
 10
-16684.6527944698
 20
-726.496780454867
 30
0.0
 11
-16684.5000685019
 21
-726.533465419113
 31
0.0
  0
LINE
  5
FB
330
1F
100
AcDbEntity
  8
0
  6
Continuous
 62
     5
100
AcDbLine
 10
-16684.807219075
 20
-726.468164381507
 30
0.0
 11
-16684.6527944698
 21
-726.496780454867
 31
0.0
  0
LINE
  5
FC
330
1F
100
AcDbEntity
  8
0
  6
Continuous
 62
     5
100
AcDbLine
 10
-17307.272416876
 20
-729.274219476005
 30
0.0
 11
-17307.276520482
 21
-729.431247322502
 31
0.0
  0
LINE
  5
FD
330
1F
100
AcDbEntity
  8
0
  6
Continuous
 62
     5
100
AcDbLine
 10
-17307.260086527
 20
-729.117658363477
 30
0.0
 11
-17307.272416876
 21
-729.274219476005
 31
0.0
  0
LINE
  5
FE
330
1F
100
AcDbEntity
  8
0
  6
Continuous
 62
     5
100
AcDbLine
 10
-17307.2395936135
 20
-728.961940944816
 30
0.0
 11
-17307.260086527
 21
-729.117658363477
 31
0.0
  0
LINE
  5
FF
330
1F
100
AcDbEntity
  8
0
  6
Continuous
 62
     5
100
AcDbLine
 10
-17307.210953631
 20
-728.807491998162
 30
0.0
 11
-17307.2395936135
 21
-728.961940944816
 31
0.0
  0
LINE
  5
100
330
1F
100
AcDbEntity
  8
0
  6
Continuous
 62
     5
100
AcDbLine
 10
-17307.1742975306
 20
-728.654775939771
 30
0.0
 11
-17307.210953631
 21
-728.807491998162
 31
0.0
  0
LINE
  5
101
330
1F
100
AcDbEntity
  8
0
  6
Continuous
 62
     5
100
AcDbLine
 10
-17307.1296894909
 20
-728.504169729541
 30
0.0
 11
-17307.1742975306
 21
-728.654775939771
 31
0.0
  0
LINE
  5
102
330
1F
100
AcDbEntity
  8
0
  6
Continuous
 62
     5
100
AcDbLine
 10
-17307.0772604628
 20
-728.356137783727
 30
0.0
 11
-17307.1296894909
 21
-728.504169729541
 31
0.0
  0
LINE
  5
103
330
1F
100
AcDbEntity
  8
0
  6
Continuous
 62
     5
100
AcDbLine
 10
-17307.0171521717
 20
-728.211019153519
 30
0.0
 11
-17307.0772604628
 21
-728.356137783727
 31
0.0
  0
LINE
  5
104
330
1F
100
AcDbEntity
  8
0
  6
Continuous
 62
     5
100
AcDbLine
 10
-17306.9495343421
 20
-728.069259300817
 30
0.0
 11
-17307.0171521717
 21
-728.211019153519
 31
0.0
  0
LINE
  5
105
330
1F
100
AcDbEntity
  8
0
  6
Continuous
 62
     5
100
AcDbLine
 10
-17306.8745965176
 20
-727.931245959748
 30
0.0
 11
-17306.9495343421
 21
-728.069259300817
 31
0.0
  0
LINE
  5
106
330
1F
100
AcDbEntity
  8
0
  6
Continuous
 62
     5
100
AcDbLine
 10
-17306.7925480607
 20
-727.797309136679
 30
0.0
 11
-17306.8745965176
 21
-727.931245959748
 31
0.0
  0
LINE
  5
107
330
1F
100
AcDbEntity
  8
0
  6
Continuous
 62
     5
100
AcDbLine
 10
-17306.7035686056
 20
-727.667865429623
 30
0.0
 11
-17306.7925480607
 21
-727.797309136679
 31
0.0
  0
LINE
  5
108
330
1F
100
AcDbEntity
  8
0
  6
Continuous
 62
     5
100
AcDbLine
 10
-17306.6079541063
 20
-727.543274573532
 30
0.0
 11
-17306.7035686056
 21
-727.667865429623
 31
0.0
  0
LINE
  5
109
330
1F
100
AcDbEntity
  8
0
  6
Continuous
 62
     5
100
AcDbLine
 10
-17306.505952699
 20
-727.423847620409
 30
0.0
 11
-17306.6079541063
 21
-727.543274573532
 31
0.0
  0
LINE
  5
10A
330
1F
100
AcDbEntity
  8
0
  6
Continuous
 62
     5
100
AcDbLine
 10
-17306.3978413836
 20
-727.309905531791
 30
0.0
 11
-17306.505952699
 21
-727.423847620409
 31
0.0
  0
LINE
  5
10B
330
1F
100
AcDbEntity
  8
0
  6
Continuous
 62
     5
100
AcDbLine
 10
-17306.2839161144
 20
-727.20180804263
 30
0.0
 11
-17306.3978413836
 21
-727.309905531791
 31
0.0
  0
LINE
  5
10C
330
1F
100
AcDbEntity
  8
0
  6
Continuous
 62
     5
100
AcDbLine
 10
-17306.1644836198
 20
-727.099789522808
 30
0.0
 11
-17306.2839161144
 21
-727.20180804263
 31
0.0
  0
LINE
  5
10D
330
1F
100
AcDbEntity
  8
0
  6
Continuous
 62
     5
100
AcDbLine
 10
-17306.0398786275
 20
-727.004190752919
 30
0.0
 11
-17306.1644836198
 21
-727.099789522808
 31
0.0
  0
LINE
  5
10E
330
1F
100
AcDbEntity
  8
0
  6
Continuous
 62
     5
100
AcDbLine
 10
-17305.9104466394
 20
-726.91522714849
 30
0.0
 11
-17306.0398786275
 21
-727.004190752919
 31
0.0
  0
LINE
  5
10F
330
1F
100
AcDbEntity
  8
0
  6
Continuous
 62
     5
100
AcDbLine
 10
-17305.776523248
 20
-726.833142988935
 30
0.0
 11
-17305.9104466394
 21
-726.91522714849
 31
0.0
  0
LINE
  5
110
330
1F
100
AcDbEntity
  8
0
  6
Continuous
 62
     5
100
AcDbLine
 10
-17305.6385017733
 20
-726.758202372721
 30
0.0
 11
-17305.776523248
 21
-726.833142988935
 31
0.0
  0
LINE
  5
111
330
1F
100
AcDbEntity
  8
0
  6
Continuous
 62
     5
100
AcDbLine
 10
-17305.4967376267
 20
-726.690591851496
 30
0.0
 11
-17305.6385017733
 21
-726.758202372721
 31
0.0
  0
LINE
  5
112
330
1F
100
AcDbEntity
  8
0
  6
Continuous
 62
     5
100
AcDbLine
 10
-17305.3516249932
 20
-726.630479022548
 30
0.0
 11
-17305.4967376267
 21
-726.690591851496
 31
0.0
  0
LINE
  5
113
330
1F
100
AcDbEntity
  8
0
  6
Continuous
 62
     5
100
AcDbLine
 10
-17305.203577012
 20
-726.578070256577
 30
0.0
 11
-17305.3516249932
 21
-726.630479022548
 31
0.0
  0
LINE
  5
114
330
1F
100
AcDbEntity
  8
0
  6
Continuous
 62
     5
100
AcDbLine
 10
-17305.052978823
 20
-726.533465513574
 30
0.0
 11
-17305.203577012
 21
-726.578070256577
 31
0.0
  0
LINE
  5
115
330
1F
100
AcDbEntity
  8
0
  6
Continuous
 62
     5
100
AcDbLine
 10
-17304.9002732941
 20
-726.496784572591
 30
0.0
 11
-17305.052978823
 21
-726.533465513574
 31
0.0
  0
LINE
  5
116
330
1F
100
AcDbEntity
  8
0
  6
Continuous
 62
     5
100
AcDbLine
 10
-17304.7458356557
 20
-726.4681562575
 30
0.0
 11
-17304.9002732941
 21
-726.496784572591
 31
0.0
  0
LINE
  5
117
330
1F
100
AcDbEntity
  8
0
  6
Continuous
 62
     5
100
AcDbLine
 10
-17289.5171918783
 20
-741.493763782852
 30
0.0
 11
-17289.5171759255
 21
-736.493751801614
 31
0.0
  0
LINE
  5
118
330
1F
100
AcDbEntity
  8
0
  6
Continuous
 62
     5
100
AcDbLine
 10
-16700.0358558968
 20
-736.493760892602
 30
0.0
 11
-16700.035866917
 21
-741.493747619313
 31
0.0
  0
LINE
  5
119
330
1F
100
AcDbEntity
  8
0
  6
Continuous
 62
     5
100
AcDbLine
 10
-17298.7765225192
 20
-736.493751795891
 30
0.0
 11
-17304.1165677682
 21
-732.933730943872
 31
0.0
  0
LINE
  5
11A
330
1F
100
AcDbEntity
  8
0
  6
Continuous
 62
     5
100
AcDbLine
 10
-16685.4364854925
 20
-732.933743968558
 30
0.0
 11
-16690.7765278116
 21
-736.493747619314
 31
0.0
  0
LINE
  5
11B
330
1F
100
AcDbEntity
  8
0
  6
Continuous
 62
     5
100
AcDbLine
 10
-16930.8674425737
 20
-688.699154797122
 30
0.0
 11
-16684.8213738543
 21
-726.465964045663
 31
0.0
  0
LINE
  5
11C
330
1F
100
AcDbEntity
  8
0
  6
Continuous
 62
     5
100
AcDbLine
 10
-17304.7316780503
 20
-726.465973757543
 30
0.0
 11
-17058.6856143709
 21
-688.699151712904
 31
0.0
  0
LINE
  5
11D
330
1F
100
AcDbEntity
  8
0
  6
Continuous
 62
     5
100
AcDbLine
 10
-16682.2765278116
 20
-729.431235513012
 30
0.0
 11
-16682.2765278116
 21
-732.933725513013
 31
0.0
  0
LINE
  5
11E
330
1F
100
AcDbEntity
  8
0
  6
Continuous
 62
     5
100
AcDbLine
 10
-17307.2765114944
 20
-732.933720366841
 30
0.0
 11
-17307.276520482
 21
-729.431247322502
 31
0.0
  0
LINE
  5
11F
330
1F
100
AcDbEntity
  8
0
  6
Continuous
 62
     5
100
AcDbLine
 10
-16931.6641723829
 20
-688.664880283476
 30
0.0
 11
-17057.888882958
 21
-688.664903212947
 31
0.0
  0
LINE
  5
120
330
1F
100
AcDbEntity
  8
0
  6
Continuous
 62
     5
100
AcDbLine
 10
-16963.0465323801
 20
-688.664878992599
 30
0.0
 11
-16931.6641723829
 21
-688.664880283476
 31
0.0
  0
LINE
  5
121
330
1F
100
AcDbEntity
  8
0
  6
Continuous
 62
     5
100
AcDbLine
 10
-17057.888882958
 20
-688.664903212947
 30
0.0
 11
-17026.5065193528
 21
-688.664903265131
 31
0.0
  0
LINE
  5
122
330
1F
100
AcDbEntity
  8
0
  6
Continuous
 62
     5
100
AcDbLine
 10
-16931.9319429687
 20
-688.729578578676
 30
0.0
 11
-16932.2312139726
 21
-688.809770148237
 31
0.0
  0
LINE
  5
123
330
1F
100
AcDbEntity
  8
0
  6
Continuous
 62
     5
100
AcDbLine
 10
-16964.7765297482
 20
-688.664882155318
 30
0.0
 11
-16963.0465323801
 21
-688.664878992599
 31
0.0
  0
LINE
  5
124
330
1F
100
AcDbEntity
  8
0
  6
Continuous
 62
     5
100
AcDbLine
 10
-16931.6259300288
 20
-688.681113020113
 30
0.0
 11
-16931.9319429687
 21
-688.729578578676
 31
0.0
  0
LINE
  5
125
330
1F
100
AcDbEntity
  8
0
  6
Continuous
 62
     5
100
AcDbLine
 10
-16931.3165303311
 20
-688.664880049585
 30
0.0
 11
-16931.0071232953
 21
-688.681104172734
 31
0.0
  0
LINE
  5
126
330
1F
100
AcDbEntity
  8
0
  6
Continuous
 62
     5
100
AcDbLine
 10
-16931.6641723829
 20
-688.664880283476
 30
0.0
 11
-16931.3165303311
 21
-688.664880049585
 31
0.0
  0
LINE
  5
127
330
1F
100
AcDbEntity
  8
0
  6
Continuous
 62
     5
100
AcDbLine
 10
-16931.4277854301
 20
-688.670717161766
 30
0.0
 11
-16931.3165303311
 21
-688.664880049585
 31
0.0
  0
LINE
  5
128
330
1F
100
AcDbEntity
  8
0
  6
Continuous
 62
     5
100
AcDbLine
 10
-16931.6259300288
 20
-688.681113020113
 30
0.0
 11
-16931.4277854301
 21
-688.670717161766
 31
0.0
  0
LINE
  5
129
330
1F
100
AcDbEntity
  8
0
  6
Continuous
 62
     5
100
AcDbLine
 10
-16931.6259300288
 20
-688.681113020113
 30
0.0
 11
-16931.6641723829
 21
-688.664880283476
 31
0.0
  0
LINE
  5
12A
330
1F
100
AcDbEntity
  8
0
  6
Continuous
 62
     5
100
AcDbLine
 10
-16931.0071232953
 20
-688.681104172734
 30
0.0
 11
-16930.8674425737
 21
-688.699154797122
 31
0.0
  0
LINE
  5
12B
330
1F
100
AcDbEntity
  8
0
  6
Continuous
 62
     5
100
AcDbLine
 10
-16684.8213738543
 20
-726.465964045663
 30
0.0
 11
-16684.807219075
 21
-726.468164381507
 31
0.0
  0
LINE
  5
12C
330
1F
100
AcDbEntity
  8
0
  6
Continuous
 62
     5
100
AcDbLine
 10
-17058.2365177939
 20
-688.664900969453
 30
0.0
 11
-17057.888882958
 21
-688.664903212947
 31
0.0
  0
LINE
  5
12D
330
1F
100
AcDbEntity
  8
0
  6
Continuous
 62
     5
100
AcDbLine
 10
-17057.9271242756
 20
-688.681097467409
 30
0.0
 11
-17057.888882958
 21
-688.664903212947
 31
0.0
  0
LINE
  5
12E
330
1F
100
AcDbEntity
  8
0
  6
Continuous
 62
     5
100
AcDbLine
 10
-17057.621099082
 20
-688.729587082571
 30
0.0
 11
-17057.9271242756
 21
-688.681097467409
 31
0.0
  0
LINE
  5
12F
330
1F
100
AcDbEntity
  8
0
  6
Continuous
 62
     5
100
AcDbLine
 10
-17057.3218447619
 20
-688.809763344666
 30
0.0
 11
-17057.621099082
 21
-688.729587082571
 31
0.0
  0
LINE
  5
130
330
1F
100
AcDbEntity
  8
0
  6
Continuous
 62
     5
100
AcDbLine
 10
-17057.0325825003
 20
-688.920796187773
 30
0.0
 11
-17057.3218447619
 21
-688.809763344666
 31
0.0
  0
LINE
  5
131
330
1F
100
AcDbEntity
  8
0
  6
Continuous
 62
     5
100
AcDbLine
 10
-16931.0071232953
 20
-688.681104172734
 30
0.0
 11
-16931.6641723829
 21
-688.664880283476
 31
0.0
  0
LINE
  5
132
330
1F
100
AcDbEntity
  8
0
  6
Continuous
 62
     5
100
AcDbLine
 10
-16931.3165303311
 20
-688.664880049585
 30
0.0
 11
-16931.6641723829
 21
-688.664880283476
 31
0.0
  0
LINE
  5
133
330
1F
100
AcDbEntity
  8
0
  6
Continuous
 62
     5
100
AcDbLine
 10
-17026.5065193528
 20
-688.664903265131
 30
0.0
 11
-17024.7765293929
 21
-688.664900102427
 31
0.0
  0
LINE
  5
134
330
1F
100
AcDbEntity
  8
0
  6
Continuous
 62
     5
100
AcDbLine
 10
-17304.7316780503
 20
-726.465973757543
 30
0.0
 11
-17304.7458356557
 21
-726.4681562575
 31
0.0
  0
LINE
  5
135
330
1F
100
AcDbEntity
  8
0
  6
Continuous
 62
     5
100
AcDbLine
 10
-17058.1251617552
 20
-688.670730368295
 30
0.0
 11
-17058.5459346171
 21
-688.681107553479
 31
0.0
  0
LINE
  5
136
330
1F
100
AcDbEntity
  8
0
  6
Continuous
 62
     5
100
AcDbLine
 10
-17057.888882958
 20
-688.664903212947
 30
0.0
 11
-17058.1251617552
 21
-688.670730368295
 31
0.0
  0
LINE
  5
137
330
1F
100
AcDbEntity
  8
0
  6
Continuous
 62
     5
100
AcDbLine
 10
-17058.2365177939
 20
-688.664900969453
 30
0.0
 11
-17058.5459346171
 21
-688.681107553479
 31
0.0
  0
LINE
  5
138
330
1F
100
AcDbEntity
  8
0
  6
Continuous
 62
     5
100
AcDbLine
 10
-17058.2365177939
 20
-688.664900969453
 30
0.0
 11
-17057.888882958
 21
-688.664903212947
 31
0.0
  0
LINE
  5
139
330
1F
100
AcDbEntity
  8
0
  6
Continuous
 62
     5
100
AcDbLine
 10
-17057.9271242756
 20
-688.681097467409
 30
0.0
 11
-17058.2365177939
 21
-688.664900969453
 31
0.0
  0
LINE
  5
13A
330
1F
100
AcDbEntity
  8
0
  6
Continuous
 62
     5
100
AcDbLine
 10
-17058.5459346171
 20
-688.681107553479
 30
0.0
 11
-17058.6856143709
 21
-688.699151712904
 31
0.0
  0
LINE
  5
13B
330
1F
100
AcDbEntity
  8
1
  6
Continuous
 62
     7
100
AcDbLine
 10
-17094.8941334168
 20
-504.022656329912
 30
0.0
 11
-17050.3243797447
 21
-488.732465626459
 31
0.0
  0
LINE
  5
13C
330
1F
100
AcDbEntity
  8
1
  6
Continuous
 62
     7
100
AcDbLine
 10
-16965.3852292512
 20
-500.629949738175
 30
0.0
 11
-16918.627011959
 21
-460.694659462229
 31
0.0
  0
LINE
  5
13D
330
1F
100
AcDbEntity
  8
1
  6
Continuous
 62
     7
100
AcDbLine
 10
-16861.5667121966
 20
-451.310552021929
 30
0.0
 11
-16945.952464857
 21
-523.3827934975
 31
0.0
  0
LINE
  5
13E
330
1F
100
AcDbEntity
  8
1
  6
Continuous
 62
     7
100
AcDbLine
 10
-17094.8941334168
 20
-504.022656329912
 30
0.0
 11
-17080.5115307041
 21
-545.608094054822
 31
0.0
  0
LINE
  5
13F
330
1F
100
AcDbEntity
  8
1
  6
Continuous
 62
     7
100
AcDbLine
 10
-17080.5115307041
 20
-545.608094054822
 30
0.0
 11
-16956.6513960962
 21
-545.608094054822
 31
0.0
  0
LINE
  5
140
330
1F
100
AcDbEntity
  8
1
  6
Continuous
 62
     7
100
AcDbLine
 10
-16956.6513960962
 20
-545.608094054822
 30
0.0
 11
-16735.2136710828
 21
-469.095671836244
 31
0.0
  0
LINE
  5
141
330
1F
100
AcDbEntity
  8
1
  6
Continuous
 62
     7
100
AcDbLine
 10
-16759.1967210212
 20
-676.025340277928
 30
0.0
 11
-16753.7601845047
 21
-679.718808667974
 31
0.0
  0
LINE
  5
142
330
1F
100
AcDbEntity
  8
1
  6
Continuous
 62
     1
100
AcDbLine
 10
-16731.8408224131
 20
-678.231453960868
 30
0.0
 11
-16557.3883528001
 21
-409.594441499939
 31
0.0
  0
LINE
  5
143
330
1F
100
AcDbEntity
  8
1
  6
Continuous
 62
     7
100
AcDbLine
 10
-17148.3149080715
 20
-390.754028701815
 30
0.0
 11
-16656.5466883006
 21
-309.87808116446
 31
0.0
  0
LINE
  5
144
330
1F
100
AcDbEntity
  8
1
  6
Continuous
 62
     7
100
AcDbLine
 10
-16764.1603418976
 20
-653.117114032789
 30
0.0
 11
-16614.4130156401
 21
-407.382603456086
 31
0.0
  0
LINE
  5
145
330
1F
100
AcDbEntity
  8
1
  6
Continuous
 62
     7
100
AcDbLine
 10
-17148.6491553422
 20
-498.523982409035
 30
0.0
 11
-16688.6992257426
 21
-422.880854446344
 31
0.0
  0
LINE
  5
146
330
1F
100
AcDbEntity
  8
1
  6
Continuous
 62
     7
100
AcDbLine
 10
-16652.6797684672
 20
-424.847272844313
 30
0.0
 11
-16626.0136049664
 21
-426.419104538636
 31
0.0
  0
LINE
  5
147
330
1F
100
AcDbEntity
  8
1
  6
Continuous
 62
     1
100
AcDbLine
 10
-16614.4130156401
 20
-407.382603456086
 30
0.0
 11
-16631.255917457
 21
-406.389801964429
 31
0.0
  0
LINE
  5
148
330
1F
100
AcDbEntity
  8
1
  6
Continuous
 62
     1
100
AcDbLine
 10
-16689.0283917059
 20
-402.984414980973
 30
0.0
 11
-17146.7064724039
 21
-478.253915846184
 31
0.0
  0
LINE
  5
149
330
1F
100
AcDbEntity
  8
1
  6
Continuous
 62
     7
100
AcDbLine
 10
-17058.0157912157
 20
-345.623698819415
 30
0.0
 11
-16749.4873184051
 21
-291.184277426725
 31
0.0
  0
LINE
  5
14A
330
1F
100
AcDbEntity
  8
1
  6
Continuous
 62
     7
100
AcDbLine
 10
-16632.9374934
 20
-580.337933232336
 30
0.0
 11
-16554.0916468605
 21
-459.27039235867
 31
0.0
  0
LINE
  5
14B
330
1F
100
AcDbEntity
  8
1
  6
DASHED
 62
     3
100
AcDbLine
 10
-16247.8436705763
 20
-292.044878198043
 30
0.0
 11
-16248.0994379636
 21
-286.047268723833
 31
0.0
  0
LINE
  5
14C
330
1F
100
AcDbEntity
  8
1
  6
DASHED
 62
     3
100
AcDbLine
 10
-16527.9567700821
 20
-339.048378388696
 30
0.0
 11
-16262.9547978925
 21
-309.665639383026
 31
0.0
  0
LINE
  5
14D
330
1F
100
AcDbEntity
  8
1
  6
DASHED
 62
     3
100
AcDbLine
 10
-16560.8856348965
 20
-292.577667827465
 30
0.0
 11
-16266.9184338443
 21
-269.383902143022
 31
0.0
  0
LINE
  5
14E
330
1F
100
AcDbEntity
  8
1
  6
DASHED
 62
     3
100
AcDbLine
 10
-16936.8122230245
 20
-324.237497205838
 30
0.0
 11
-16737.5941985644
 21
-258.054543683906
 31
0.0
  0
LINE
  5
14F
330
1F
100
AcDbEntity
  8
1
  6
DASHED
 62
     3
100
AcDbLine
 10
-16566.9374148523
 20
-263.721484830435
 30
0.0
 11
-16413.6235957309
 21
-251.480158315995
 31
0.0
  0
LINE
  5
150
330
1F
100
AcDbEntity
  8
1
  6
Continuous
 62
     7
100
AcDbLine
 10
-17113.8890140855
 20
-258.256973487703
 30
0.0
 11
-17058.0871003758
 21
-345.512195535956
 31
0.0
  0
LINE
  5
151
330
1F
100
AcDbEntity
  8
1
  6
Continuous
 62
     7
100
AcDbLine
 10
-16933.2360073534
 20
-220.781725618647
 30
0.0
 11
-17196.630846919
 21
-275.421208673385
 31
0.0
  0
LINE
  5
152
330
1F
100
AcDbEntity
  8
1
  6
Continuous
 62
     7
100
AcDbLine
 10
-17209.2242209318
 20
-214.713656169825
 30
0.0
 11
-16945.8293797596
 21
-160.0741727818
 31
0.0
  0
LINE
  5
153
330
1F
100
AcDbEntity
  8
1
  6
Continuous
 62
     1
100
AcDbLine
 10
-17237.9737387793
 20
-249.273662078915
 30
0.0
 11
-16940.1420499782
 21
-187.49048689876
 31
0.0
  0
LINE
  5
154
330
1F
100
AcDbEntity
  8
1
  6
Continuous
 62
     1
100
AcDbLine
 10
-16563.7027036377
 20
-393.225912409939
 30
0.0
 11
-16579.7354733421
 21
-361.425656414313
 31
0.0
  0
LINE
  5
155
330
1F
100
AcDbEntity
  8
1
  6
Continuous
 62
     7
100
AcDbLine
 10
-16625.4180718436
 20
-368.361708715685
 30
0.0
 11
-16697.7445078367
 21
-430.673712545188
 31
0.0
  0
LINE
  5
156
330
1F
100
AcDbEntity
  8
1
  6
Continuous
 62
     7
100
AcDbLine
 10
-16681.4267825814
 20
-449.61393013882
 30
0.0
 11
-16608.0933157794
 21
-386.434330571091
 31
0.0
  0
LINE
  5
157
330
1F
100
AcDbEntity
  8
1
  6
Continuous
 62
     1
100
AcDbLine
 10
-16689.0283917059
 20
-402.984414980973
 30
0.0
 11
-16667.1050931567
 21
-404.276679445748
 31
0.0
  0
LINE
  5
158
330
1F
100
AcDbEntity
  8
1
  6
Continuous
 62
     7
100
AcDbLine
 10
-16712.2270572795
 20
-450.850409761575
 30
0.0
 11
-16698.2097384581
 21
-449.192302747847
 31
0.0
  0
LINE
  5
159
330
1F
100
AcDbEntity
  8
1
  6
Continuous
 62
     7
100
AcDbLine
 10
-16735.5066518157
 20
-466.618868926974
 30
0.0
 11
-16718.3441948468
 21
-461.207567030494
 31
0.0
  0
LINE
  5
15A
330
1F
100
AcDbEntity
  8
1
  6
Continuous
 62
     1
100
AcDbLine
 10
-17193.0585306805
 20
-398.112541776219
 30
0.0
 11
-17153.2223603754
 21
-391.561105774138
 31
0.0
  0
LINE
  5
15B
330
1F
100
AcDbEntity
  8
1
  6
Continuous
 62
     1
100
AcDbLine
 10
-21153.5887376849
 20
-411.621359997317
 30
0.0
 11
-21113.7525673798
 21
-405.069923995236
 31
0.0
  0
LINE
  5
15C
330
1F
100
AcDbEntity
  8
1
  6
Continuous
 62
     7
100
AcDbLine
 10
-20735.5066518157
 20
-486.618868926974
 30
0.0
 11
-20718.3441948468
 21
-481.207567030494
 31
0.0
  0
LINE
  5
15D
330
1F
100
AcDbEntity
  8
1
  6
Continuous
 62
     7
100
AcDbLine
 10
-20712.2270572795
 20
-470.850409761575
 30
0.0
 11
-20698.2097384581
 21
-469.192302747847
 31
0.0
  0
LINE
  5
15E
330
1F
100
AcDbEntity
  8
1
  6
Continuous
 62
     1
100
AcDbLine
 10
-20689.0283917059
 20
-422.984414980973
 30
0.0
 11
-20667.1050931567
 21
-424.276679445748
 31
0.0
  0
LINE
  5
15F
330
1F
100
AcDbEntity
  8
1
  6
Continuous
 62
     7
100
AcDbLine
 10
-20681.4267825814
 20
-469.61393013882
 30
0.0
 11
-20608.0933157794
 21
-406.434330571091
 31
0.0
  0
LINE
  5
160
330
1F
100
AcDbEntity
  8
1
  6
Continuous
 62
     7
100
AcDbLine
 10
-20625.4180718436
 20
-388.361708715685
 30
0.0
 11
-20697.7445078367
 21
-450.673712545188
 31
0.0
  0
LINE
  5
161
330
1F
100
AcDbEntity
  8
1
  6
Continuous
 62
     1
100
AcDbLine
 10
-20563.7027036377
 20
-413.225912409939
 30
0.0
 11
-20579.7354733421
 21
-381.425656414313
 31
0.0
  0
LINE
  5
162
330
1F
100
AcDbEntity
  8
1
  6
Continuous
 62
     1
100
AcDbLine
 10
-21237.9737387793
 20
-269.273662078915
 30
0.0
 11
-20940.1420499782
 21
-207.49048689876
 31
0.0
  0
LINE
  5
163
330
1F
100
AcDbEntity
  8
1
  6
Continuous
 62
     7
100
AcDbLine
 10
-21209.2242209318
 20
-234.713656169825
 30
0.0
 11
-20945.8293797596
 21
-180.0741727818
 31
0.0
  0
LINE
  5
164
330
1F
100
AcDbEntity
  8
1
  6
Continuous
 62
     7
100
AcDbLine
 10
-20933.2360073534
 20
-240.781725618647
 30
0.0
 11
-21196.630846919
 21
-295.421208673385
 31
0.0
  0
LINE
  5
165
330
1F
100
AcDbEntity
  8
1
  6
Continuous
 62
     7
100
AcDbLine
 10
-21075.377132803
 20
-270.267943451135
 30
0.0
 11
-21018.6173073803
 21
-359.021013757054
 31
0.0
  0
LINE
  5
166
330
1F
100
AcDbEntity
  8
1
  6
DASHED
 62
     3
100
AcDbLine
 10
-20566.9374148523
 20
-283.721484830435
 30
0.0
 11
-20433.5017797176
 21
-273.684200373351
 31
0.0
  0
LINE
  5
167
330
1F
100
AcDbEntity
  8
1
  6
DASHED
 62
     3
100
AcDbLine
 10
-20936.8122230245
 20
-344.237497205838
 30
0.0
 11
-20737.5941985644
 21
-278.054543683906
 31
0.0
  0
LINE
  5
168
330
1F
100
AcDbEntity
  8
1
  6
DASHED
 62
     3
100
AcDbLine
 10
-20560.8856348965
 20
-312.577667827465
 30
0.0
 11
-20286.796617831
 21
-291.587944200377
 31
0.0
  0
LINE
  5
169
330
1F
100
AcDbEntity
  8
1
  6
DASHED
 62
     3
100
AcDbLine
 10
-20527.9567700821
 20
-359.048378388696
 30
0.0
 11
-20282.8329818792
 21
-331.869681440381
 31
0.0
  0
LINE
  5
16A
330
1F
100
AcDbEntity
  8
1
  6
DASHED
 62
     3
100
AcDbLine
 10
-20267.721854563
 20
-314.248920255399
 30
0.0
 11
-20267.9776219503
 21
-308.251310781189
 31
0.0
  0
LINE
  5
16B
330
1F
100
AcDbEntity
  8
1
  6
Continuous
 62
     7
100
AcDbLine
 10
-20622.5299450563
 20
-583.259205601913
 30
0.0
 11
-20554.0916468605
 21
-479.27039235867
 31
0.0
  0
LINE
  5
16C
330
1F
100
AcDbEntity
  8
1
  6
Continuous
 62
     7
100
AcDbLine
 10
-21018.8179401416
 20
-358.707292327434
 30
0.0
 11
-20749.4873184051
 21
-311.184277426725
 31
0.0
  0
LINE
  5
16D
330
1F
100
AcDbEntity
  8
1
  6
Continuous
 62
     1
100
AcDbLine
 10
-20689.0283917059
 20
-422.984414980973
 30
0.0
 11
-21107.2366794084
 21
-491.762734067291
 31
0.0
  0
LINE
  5
16E
330
1F
100
AcDbEntity
  8
1
  6
Continuous
 62
     1
100
AcDbLine
 10
-20614.4130156401
 20
-427.382603456086
 30
0.0
 11
-20631.255917457
 21
-426.389801964429
 31
0.0
  0
LINE
  5
16F
330
1F
100
AcDbEntity
  8
1
  6
Continuous
 62
     7
100
AcDbLine
 10
-20652.6797684672
 20
-444.847272844313
 30
0.0
 11
-20626.0136049664
 21
-446.419104538636
 31
0.0
  0
LINE
  5
170
330
1F
100
AcDbEntity
  8
1
  6
Continuous
 62
     7
100
AcDbLine
 10
-21109.1793623467
 20
-512.032800630144
 30
0.0
 11
-20688.6992257426
 21
-442.880854446344
 31
0.0
  0
LINE
  5
171
330
1F
100
AcDbEntity
  8
1
  6
Continuous
 62
     7
100
AcDbLine
 10
-20753.7527935539
 20
-656.038386402366
 30
0.0
 11
-20614.4130156401
 21
-427.382603456086
 31
0.0
  0
LINE
  5
172
330
1F
100
AcDbEntity
  8
1
  6
Continuous
 62
     7
100
AcDbLine
 10
-21108.8451150759
 20
-404.262846922919
 30
0.0
 11
-20656.5466883006
 21
-329.87808116446
 31
0.0
  0
LINE
  5
173
330
1F
100
AcDbEntity
  8
1
  6
Continuous
 62
     1
100
AcDbLine
 10
-20721.4332740694
 20
-681.152726330445
 30
0.0
 11
-20557.3883528001
 21
-429.594441499939
 31
0.0
  0
LINE
  5
174
330
1F
100
AcDbEntity
  8
1
  6
Continuous
 62
     7
100
AcDbLine
 10
-20748.7891726776
 20
-678.946612647505
 30
0.0
 11
-20743.352636161
 21
-682.640081037551
 31
0.0
  0
LINE
  5
175
330
1F
100
AcDbEntity
  8
1
  6
Continuous
 62
     7
100
AcDbLine
 10
-20956.6513960962
 20
-565.608094054822
 30
0.0
 11
-20735.2136710828
 21
-489.095671836244
 31
0.0
  0
LINE
  5
176
330
1F
100
AcDbEntity
  8
1
  6
Continuous
 62
     7
100
AcDbLine
 10
-21080.5115307041
 20
-565.608094054822
 30
0.0
 11
-20956.6513960962
 21
-565.608094054822
 31
0.0
  0
LINE
  5
177
330
1F
100
AcDbEntity
  8
1
  6
Continuous
 62
     7
100
AcDbLine
 10
-21094.8941334168
 20
-524.022656329912
 30
0.0
 11
-21080.5115307041
 21
-565.608094054822
 31
0.0
  0
LINE
  5
178
330
1F
100
AcDbEntity
  8
1
  6
Continuous
 62
     7
100
AcDbLine
 10
-20861.5667121966
 20
-471.310552021929
 30
0.0
 11
-20945.952464857
 21
-543.3827934975
 31
0.0
  0
LINE
  5
179
330
1F
100
AcDbEntity
  8
1
  6
Continuous
 62
     7
100
AcDbLine
 10
-20965.3852292512
 20
-520.629949738175
 30
0.0
 11
-20918.627011959
 21
-480.694659462229
 31
0.0
  0
LINE
  5
17A
330
1F
100
AcDbEntity
  8
1
  6
Continuous
 62
     7
100
AcDbLine
 10
-21094.8941334168
 20
-524.022656329912
 30
0.0
 11
-21050.3243797447
 21
-508.732465626459
 31
0.0
  0
LINE
  5
17B
330
1F
100
AcDbEntity
  8
0
  6
Continuous
 62
     5
100
AcDbLine
 10
-21058.5459346171
 20
-688.681107553479
 30
0.0
 11
-21058.6856143709
 21
-688.699151712904
 31
0.0
  0
LINE
  5
17C
330
1F
100
AcDbEntity
  8
0
  6
Continuous
 62
     5
100
AcDbLine
 10
-21057.9271242756
 20
-688.681097467409
 30
0.0
 11
-21058.2365177939
 21
-688.664900969453
 31
0.0
  0
LINE
  5
17D
330
1F
100
AcDbEntity
  8
0
  6
Continuous
 62
     5
100
AcDbLine
 10
-21058.2365177939
 20
-688.664900969453
 30
0.0
 11
-21057.888882958
 21
-688.664903212947
 31
0.0
  0
LINE
  5
17E
330
1F
100
AcDbEntity
  8
0
  6
Continuous
 62
     5
100
AcDbLine
 10
-21058.2365177939
 20
-688.664900969453
 30
0.0
 11
-21058.5459346171
 21
-688.681107553479
 31
0.0
  0
LINE
  5
17F
330
1F
100
AcDbEntity
  8
0
  6
Continuous
 62
     5
100
AcDbLine
 10
-21057.888882958
 20
-688.664903212947
 30
0.0
 11
-21058.1251617552
 21
-688.670730368295
 31
0.0
  0
LINE
  5
180
330
1F
100
AcDbEntity
  8
0
  6
Continuous
 62
     5
100
AcDbLine
 10
-21058.1251617552
 20
-688.670730368295
 30
0.0
 11
-21058.5459346171
 21
-688.681107553479
 31
0.0
  0
LINE
  5
181
330
1F
100
AcDbEntity
  8
0
  6
Continuous
 62
     5
100
AcDbLine
 10
-21304.7316780503
 20
-726.465973757543
 30
0.0
 11
-21304.7458356557
 21
-726.4681562575
 31
0.0
  0
LINE
  5
182
330
1F
100
AcDbEntity
  8
0
  6
Continuous
 62
     5
100
AcDbLine
 10
-21026.5065193528
 20
-688.664903265131
 30
0.0
 11
-21024.7765293929
 21
-688.664900102427
 31
0.0
  0
LINE
  5
183
330
1F
100
AcDbEntity
  8
0
  6
Continuous
 62
     5
100
AcDbLine
 10
-20931.3165303311
 20
-688.664880049585
 30
0.0
 11
-20931.6641723829
 21
-688.664880283476
 31
0.0
  0
LINE
  5
184
330
1F
100
AcDbEntity
  8
0
  6
Continuous
 62
     5
100
AcDbLine
 10
-20931.0071232953
 20
-688.681104172734
 30
0.0
 11
-20931.6641723829
 21
-688.664880283476
 31
0.0
  0
LINE
  5
185
330
1F
100
AcDbEntity
  8
0
  6
Continuous
 62
     5
100
AcDbLine
 10
-21057.0325825003
 20
-688.920796187773
 30
0.0
 11
-21057.3218447619
 21
-688.809763344666
 31
0.0
  0
LINE
  5
186
330
1F
100
AcDbEntity
  8
0
  6
Continuous
 62
     5
100
AcDbLine
 10
-21057.3218447619
 20
-688.809763344666
 30
0.0
 11
-21057.621099082
 21
-688.729587082571
 31
0.0
  0
LINE
  5
187
330
1F
100
AcDbEntity
  8
0
  6
Continuous
 62
     5
100
AcDbLine
 10
-21057.621099082
 20
-688.729587082571
 30
0.0
 11
-21057.9271242756
 21
-688.681097467409
 31
0.0
  0
LINE
  5
188
330
1F
100
AcDbEntity
  8
0
  6
Continuous
 62
     5
100
AcDbLine
 10
-21057.9271242756
 20
-688.681097467409
 30
0.0
 11
-21057.888882958
 21
-688.664903212947
 31
0.0
  0
LINE
  5
189
330
1F
100
AcDbEntity
  8
0
  6
Continuous
 62
     5
100
AcDbLine
 10
-21058.2365177939
 20
-688.664900969453
 30
0.0
 11
-21057.888882958
 21
-688.664903212947
 31
0.0
  0
LINE
  5
18A
330
1F
100
AcDbEntity
  8
0
  6
Continuous
 62
     5
100
AcDbLine
 10
-20684.8213738543
 20
-726.465964045663
 30
0.0
 11
-20684.807219075
 21
-726.468164381507
 31
0.0
  0
LINE
  5
18B
330
1F
100
AcDbEntity
  8
0
  6
Continuous
 62
     5
100
AcDbLine
 10
-20931.0071232953
 20
-688.681104172734
 30
0.0
 11
-20930.8674425737
 21
-688.699154797122
 31
0.0
  0
LINE
  5
18C
330
1F
100
AcDbEntity
  8
0
  6
Continuous
 62
     5
100
AcDbLine
 10
-20931.6259300288
 20
-688.681113020113
 30
0.0
 11
-20931.6641723829
 21
-688.664880283476
 31
0.0
  0
LINE
  5
18D
330
1F
100
AcDbEntity
  8
0
  6
Continuous
 62
     5
100
AcDbLine
 10
-20931.6259300288
 20
-688.681113020113
 30
0.0
 11
-20931.4277854301
 21
-688.670717161766
 31
0.0
  0
LINE
  5
18E
330
1F
100
AcDbEntity
  8
0
  6
Continuous
 62
     5
100
AcDbLine
 10
-20931.4277854301
 20
-688.670717161766
 30
0.0
 11
-20931.3165303311
 21
-688.664880049585
 31
0.0
  0
LINE
  5
18F
330
1F
100
AcDbEntity
  8
0
  6
Continuous
 62
     5
100
AcDbLine
 10
-20931.6641723829
 20
-688.664880283476
 30
0.0
 11
-20931.3165303311
 21
-688.664880049585
 31
0.0
  0
LINE
  5
190
330
1F
100
AcDbEntity
  8
0
  6
Continuous
 62
     5
100
AcDbLine
 10
-20931.3165303311
 20
-688.664880049585
 30
0.0
 11
-20931.0071232953
 21
-688.681104172734
 31
0.0
  0
LINE
  5
191
330
1F
100
AcDbEntity
  8
0
  6
Continuous
 62
     5
100
AcDbLine
 10
-20931.6259300288
 20
-688.681113020113
 30
0.0
 11
-20931.9319429687
 21
-688.729578578676
 31
0.0
  0
LINE
  5
192
330
1F
100
AcDbEntity
  8
0
  6
Continuous
 62
     5
100
AcDbLine
 10
-20964.7765297482
 20
-688.664882155318
 30
0.0
 11
-20963.0465323801
 21
-688.664878992599
 31
0.0
  0
LINE
  5
193
330
1F
100
AcDbEntity
  8
0
  6
Continuous
 62
     5
100
AcDbLine
 10
-20931.9319429687
 20
-688.729578578676
 30
0.0
 11
-20932.2312139726
 21
-688.809770148237
 31
0.0
  0
LINE
  5
194
330
1F
100
AcDbEntity
  8
0
  6
Continuous
 62
     5
100
AcDbLine
 10
-21057.888882958
 20
-688.664903212947
 30
0.0
 11
-21026.5065193528
 21
-688.664903265131
 31
0.0
  0
LINE
  5
195
330
1F
100
AcDbEntity
  8
0
  6
Continuous
 62
     5
100
AcDbLine
 10
-20963.0465323801
 20
-688.664878992599
 30
0.0
 11
-20931.6641723829
 21
-688.664880283476
 31
0.0
  0
LINE
  5
196
330
1F
100
AcDbEntity
  8
0
  6
Continuous
 62
     5
100
AcDbLine
 10
-20931.6641723829
 20
-688.664880283476
 30
0.0
 11
-21057.888882958
 21
-688.664903212947
 31
0.0
  0
LINE
  5
197
330
1F
100
AcDbEntity
  8
0
  6
Continuous
 62
     5
100
AcDbLine
 10
-21307.2765114944
 20
-732.933720366841
 30
0.0
 11
-21307.276520482
 21
-729.431247322502
 31
0.0
  0
LINE
  5
198
330
1F
100
AcDbEntity
  8
0
  6
Continuous
 62
     5
100
AcDbLine
 10
-20682.2765278116
 20
-729.431235513012
 30
0.0
 11
-20682.2765278116
 21
-732.933725513013
 31
0.0
  0
LINE
  5
199
330
1F
100
AcDbEntity
  8
0
  6
Continuous
 62
     5
100
AcDbLine
 10
-21304.7316780503
 20
-726.465973757543
 30
0.0
 11
-21058.6856143709
 21
-688.699151712904
 31
0.0
  0
LINE
  5
19A
330
1F
100
AcDbEntity
  8
0
  6
Continuous
 62
     5
100
AcDbLine
 10
-20930.8674425737
 20
-688.699154797122
 30
0.0
 11
-20684.8213738543
 21
-726.465964045663
 31
0.0
  0
LINE
  5
19B
330
1F
100
AcDbEntity
  8
0
  6
Continuous
 62
     5
100
AcDbLine
 10
-20685.4364854925
 20
-732.933743968558
 30
0.0
 11
-20690.7765278116
 21
-736.493747619314
 31
0.0
  0
LINE
  5
19C
330
1F
100
AcDbEntity
  8
0
  6
Continuous
 62
     5
100
AcDbLine
 10
-21298.7765225192
 20
-736.493751795891
 30
0.0
 11
-21304.1165677682
 21
-732.933730943872
 31
0.0
  0
LINE
  5
19D
330
1F
100
AcDbEntity
  8
0
  6
Continuous
 62
     5
100
AcDbLine
 10
-20700.0358558968
 20
-736.493760892602
 30
0.0
 11
-20700.035866917
 21
-741.493747619313
 31
0.0
  0
LINE
  5
19E
330
1F
100
AcDbEntity
  8
0
  6
Continuous
 62
     5
100
AcDbLine
 10
-21289.5171918783
 20
-741.493763782852
 30
0.0
 11
-21289.5171759255
 21
-736.493751801614
 31
0.0
  0
LINE
  5
19F
330
1F
100
AcDbEntity
  8
0
  6
Continuous
 62
     5
100
AcDbLine
 10
-21304.7458356557
 20
-726.4681562575
 30
0.0
 11
-21304.9002732941
 21
-726.496784572591
 31
0.0
  0
LINE
  5
1A0
330
1F
100
AcDbEntity
  8
0
  6
Continuous
 62
     5
100
AcDbLine
 10
-21304.9002732941
 20
-726.496784572591
 30
0.0
 11
-21305.052978823
 21
-726.533465513574
 31
0.0
  0
LINE
  5
1A1
330
1F
100
AcDbEntity
  8
0
  6
Continuous
 62
     5
100
AcDbLine
 10
-21305.052978823
 20
-726.533465513574
 30
0.0
 11
-21305.203577012
 21
-726.578070256577
 31
0.0
  0
LINE
  5
1A2
330
1F
100
AcDbEntity
  8
0
  6
Continuous
 62
     5
100
AcDbLine
 10
-21305.203577012
 20
-726.578070256577
 30
0.0
 11
-21305.3516249932
 21
-726.630479022548
 31
0.0
  0
LINE
  5
1A3
330
1F
100
AcDbEntity
  8
0
  6
Continuous
 62
     5
100
AcDbLine
 10
-21305.3516249932
 20
-726.630479022548
 30
0.0
 11
-21305.4967376267
 21
-726.690591851496
 31
0.0
  0
LINE
  5
1A4
330
1F
100
AcDbEntity
  8
0
  6
Continuous
 62
     5
100
AcDbLine
 10
-21305.4967376267
 20
-726.690591851496
 30
0.0
 11
-21305.6385017733
 21
-726.758202372721
 31
0.0
  0
LINE
  5
1A5
330
1F
100
AcDbEntity
  8
0
  6
Continuous
 62
     5
100
AcDbLine
 10
-21305.6385017733
 20
-726.758202372721
 30
0.0
 11
-21305.776523248
 21
-726.833142988935
 31
0.0
  0
LINE
  5
1A6
330
1F
100
AcDbEntity
  8
0
  6
Continuous
 62
     5
100
AcDbLine
 10
-21305.776523248
 20
-726.833142988935
 30
0.0
 11
-21305.9104466394
 21
-726.91522714849
 31
0.0
  0
LINE
  5
1A7
330
1F
100
AcDbEntity
  8
0
  6
Continuous
 62
     5
100
AcDbLine
 10
-21305.9104466394
 20
-726.91522714849
 30
0.0
 11
-21306.0398786275
 21
-727.004190752919
 31
0.0
  0
LINE
  5
1A8
330
1F
100
AcDbEntity
  8
0
  6
Continuous
 62
     5
100
AcDbLine
 10
-21306.0398786275
 20
-727.004190752919
 30
0.0
 11
-21306.1644836198
 21
-727.099789522808
 31
0.0
  0
LINE
  5
1A9
330
1F
100
AcDbEntity
  8
0
  6
Continuous
 62
     5
100
AcDbLine
 10
-21306.1644836198
 20
-727.099789522808
 30
0.0
 11
-21306.2839161144
 21
-727.20180804263
 31
0.0
  0
LINE
  5
1AA
330
1F
100
AcDbEntity
  8
0
  6
Continuous
 62
     5
100
AcDbLine
 10
-21306.2839161144
 20
-727.20180804263
 30
0.0
 11
-21306.3978413836
 21
-727.309905531791
 31
0.0
  0
LINE
  5
1AB
330
1F
100
AcDbEntity
  8
0
  6
Continuous
 62
     5
100
AcDbLine
 10
-21306.3978413836
 20
-727.309905531791
 30
0.0
 11
-21306.505952699
 21
-727.423847620409
 31
0.0
  0
LINE
  5
1AC
330
1F
100
AcDbEntity
  8
0
  6
Continuous
 62
     5
100
AcDbLine
 10
-21306.505952699
 20
-727.423847620409
 30
0.0
 11
-21306.6079541063
 21
-727.543274573532
 31
0.0
  0
LINE
  5
1AD
330
1F
100
AcDbEntity
  8
0
  6
Continuous
 62
     5
100
AcDbLine
 10
-21306.6079541063
 20
-727.543274573532
 30
0.0
 11
-21306.7035686056
 21
-727.667865429623
 31
0.0
  0
LINE
  5
1AE
330
1F
100
AcDbEntity
  8
0
  6
Continuous
 62
     5
100
AcDbLine
 10
-21306.7035686056
 20
-727.667865429623
 30
0.0
 11
-21306.7925480607
 21
-727.797309136679
 31
0.0
  0
LINE
  5
1AF
330
1F
100
AcDbEntity
  8
0
  6
Continuous
 62
     5
100
AcDbLine
 10
-21306.7925480607
 20
-727.797309136679
 30
0.0
 11
-21306.8745965176
 21
-727.931245959748
 31
0.0
  0
LINE
  5
1B0
330
1F
100
AcDbEntity
  8
0
  6
Continuous
 62
     5
100
AcDbLine
 10
-21306.8745965176
 20
-727.931245959748
 30
0.0
 11
-21306.9495343421
 21
-728.069259300817
 31
0.0
  0
LINE
  5
1B1
330
1F
100
AcDbEntity
  8
0
  6
Continuous
 62
     5
100
AcDbLine
 10
-21306.9495343421
 20
-728.069259300817
 30
0.0
 11
-21307.0171521717
 21
-728.211019153519
 31
0.0
  0
LINE
  5
1B2
330
1F
100
AcDbEntity
  8
0
  6
Continuous
 62
     5
100
AcDbLine
 10
-21307.0171521717
 20
-728.211019153519
 30
0.0
 11
-21307.0772604628
 21
-728.356137783727
 31
0.0
  0
LINE
  5
1B3
330
1F
100
AcDbEntity
  8
0
  6
Continuous
 62
     5
100
AcDbLine
 10
-21307.0772604628
 20
-728.356137783727
 30
0.0
 11
-21307.1296894909
 21
-728.504169729541
 31
0.0
  0
LINE
  5
1B4
330
1F
100
AcDbEntity
  8
0
  6
Continuous
 62
     5
100
AcDbLine
 10
-21307.1296894909
 20
-728.504169729541
 30
0.0
 11
-21307.1742975306
 21
-728.654775939771
 31
0.0
  0
LINE
  5
1B5
330
1F
100
AcDbEntity
  8
0
  6
Continuous
 62
     5
100
AcDbLine
 10
-21307.1742975306
 20
-728.654775939771
 30
0.0
 11
-21307.210953631
 21
-728.807491998162
 31
0.0
  0
LINE
  5
1B6
330
1F
100
AcDbEntity
  8
0
  6
Continuous
 62
     5
100
AcDbLine
 10
-21307.210953631
 20
-728.807491998162
 30
0.0
 11
-21307.2395936135
 21
-728.961940944816
 31
0.0
  0
LINE
  5
1B7
330
1F
100
AcDbEntity
  8
0
  6
Continuous
 62
     5
100
AcDbLine
 10
-21307.2395936135
 20
-728.961940944816
 30
0.0
 11
-21307.260086527
 21
-729.117658363477
 31
0.0
  0
LINE
  5
1B8
330
1F
100
AcDbEntity
  8
0
  6
Continuous
 62
     5
100
AcDbLine
 10
-21307.260086527
 20
-729.117658363477
 30
0.0
 11
-21307.272416876
 21
-729.274219476005
 31
0.0
  0
LINE
  5
1B9
330
1F
100
AcDbEntity
  8
0
  6
Continuous
 62
     5
100
AcDbLine
 10
-21307.272416876
 20
-729.274219476005
 30
0.0
 11
-21307.276520482
 21
-729.431247322502
 31
0.0
  0
LINE
  5
1BA
330
1F
100
AcDbEntity
  8
0
  6
Continuous
 62
     5
100
AcDbLine
 10
-20684.807219075
 20
-726.468164381507
 30
0.0
 11
-20684.6527944698
 21
-726.496780454867
 31
0.0
  0
LINE
  5
1BB
330
1F
100
AcDbEntity
  8
0
  6
Continuous
 62
     5
100
AcDbLine
 10
-20684.6527944698
 20
-726.496780454867
 30
0.0
 11
-20684.5000685019
 21
-726.533465419113
 31
0.0
  0
LINE
  5
1BC
330
1F
100
AcDbEntity
  8
0
  6
Continuous
 62
     5
100
AcDbLine
 10
-20684.5000685019
 20
-726.533465419113
 30
0.0
 11
-20684.3494722012
 21
-726.578044594989
 31
0.0
  0
LINE
  5
1BD
330
1F
100
AcDbEntity
  8
0
  6
Continuous
 62
     5
100
AcDbLine
 10
-20684.3494722012
 20
-726.578044594989
 30
0.0
 11
-20684.2014060044
 21
-726.630526396067
 31
0.0
  0
LINE
  5
1BE
330
1F
100
AcDbEntity
  8
0
  6
Continuous
 62
     5
100
AcDbLine
 10
-20684.2014060044
 20
-726.630526396067
 30
0.0
 11
-20684.0563117157
 21
-726.690610778022
 31
0.0
  0
LINE
  5
1BF
330
1F
100
AcDbEntity
  8
0
  6
Continuous
 62
     5
100
AcDbLine
 10
-20684.0563117157
 20
-726.690610778022
 30
0.0
 11
-20683.914551863
 21
-726.758228607603
 31
0.0
  0
LINE
  5
1C0
330
1F
100
AcDbEntity
  8
0
  6
Continuous
 62
     5
100
AcDbLine
 10
-20683.914551863
 20
-726.758228607603
 30
0.0
 11
-20683.7765141804
 21
-726.833190341253
 31
0.0
  0
LINE
  5
1C1
330
1F
100
AcDbEntity
  8
0
  6
Continuous
 62
     5
100
AcDbLine
 10
-20683.7765141804
 20
-726.833190341253
 30
0.0
 11
-20683.6426062212
 21
-726.915248707654
 31
0.0
  0
LINE
  5
1C2
330
1F
100
AcDbEntity
  8
0
  6
Continuous
 62
     5
100
AcDbLine
 10
-20683.6426062212
 20
-726.915248707654
 30
0.0
 11
-20683.5131579918
 21
-727.004194344194
 31
0.0
  0
LINE
  5
1C3
330
1F
100
AcDbEntity
  8
0
  6
Continuous
 62
     5
100
AcDbLine
 10
-20683.5131579918
 20
-727.004194344194
 30
0.0
 11
-20683.3885626133
 21
-727.099775024786
 31
0.0
  0
LINE
  5
1C4
330
1F
100
AcDbEntity
  8
0
  6
Continuous
 62
     5
100
AcDbLine
 10
-20683.3885626133
 20
-727.099775024786
 30
0.0
 11
-20683.2691356601
 21
-727.201776432055
 31
0.0
  0
LINE
  5
1C5
330
1F
100
AcDbEntity
  8
0
  6
Continuous
 62
     5
100
AcDbLine
 10
-20683.2691356601
 20
-727.201776432055
 30
0.0
 11
-20683.1551980939
 21
-727.309921566092
 31
0.0
  0
LINE
  5
1C6
330
1F
100
AcDbEntity
  8
0
  6
Continuous
 62
     5
100
AcDbLine
 10
-20683.1551980939
 20
-727.309921566092
 30
0.0
 11
-20683.0470762633
 21
-727.423870744458
 31
0.0
  0
LINE
  5
1C7
330
1F
100
AcDbEntity
  8
0
  6
Continuous
 62
     5
100
AcDbLine
 10
-20683.0470762633
 20
-727.423870744458
 30
0.0
 11
-20682.9450820849
 21
-727.543279329946
 31
0.0
  0
LINE
  5
1C8
330
1F
100
AcDbEntity
  8
0
  6
Continuous
 62
     5
100
AcDbLine
 10
-20682.9450820849
 20
-727.543279329946
 30
0.0
 11
-20682.8494589736
 21
-727.667908231357
 31
0.0
  0
LINE
  5
1C9
330
1F
100
AcDbEntity
  8
0
  6
Continuous
 62
     5
100
AcDbLine
 10
-20682.8494589736
 20
-727.667908231357
 30
0.0
 11
-20682.7605098011
 21
-727.797345174189
 31
0.0
  0
LINE
  5
1CA
330
1F
100
AcDbEntity
  8
0
  6
Continuous
 62
     5
100
AcDbLine
 10
-20682.7605098011
 20
-727.797345174189
 30
0.0
 11
-20682.6784598926
 21
-727.931215792649
 31
0.0
  0
LINE
  5
1CB
330
1F
100
AcDbEntity
  8
0
  6
Continuous
 62
     5
100
AcDbLine
 10
-20682.6784598926
 20
-727.931215792649
 30
0.0
 11
-20682.6035093668
 21
-728.069266131248
 31
0.0
  0
LINE
  5
1CC
330
1F
100
AcDbEntity
  8
0
  6
Continuous
 62
     5
100
AcDbLine
 10
-20682.6035093668
 20
-728.069266131248
 30
0.0
 11
-20682.5358745041
 21
-728.211054186896
 31
0.0
  0
LINE
  5
1CD
330
1F
100
AcDbEntity
  8
0
  6
Continuous
 62
     5
100
AcDbLine
 10
-20682.5358745041
 20
-728.211054186896
 30
0.0
 11
-20682.4757860166
 21
-728.356142911266
 31
0.0
  0
LINE
  5
1CE
330
1F
100
AcDbEntity
  8
0
  6
Continuous
 62
     5
100
AcDbLine
 10
-20682.4757860166
 20
-728.356142911266
 30
0.0
 11
-20682.4233483868
 21
-728.504180982982
 31
0.0
  0
LINE
  5
1CF
330
1F
100
AcDbEntity
  8
0
  6
Continuous
 62
     5
100
AcDbLine
 10
-20682.4233483868
 20
-728.504180982982
 30
0.0
 11
-20682.3787436438
 21
-728.654779171963
 31
0.0
  0
LINE
  5
1D0
330
1F
100
AcDbEntity
  8
0
  6
Continuous
 62
     5
100
AcDbLine
 10
-20682.3787436438
 20
-728.654779171963
 30
0.0
 11
-20682.3420672252
 21
-728.807518519533
 31
0.0
  0
LINE
  5
1D1
330
1F
100
AcDbEntity
  8
0
  6
Continuous
 62
     5
100
AcDbLine
 10
-20682.3420672252
 20
-728.807518519533
 30
0.0
 11
-20682.3134632516
 21
-728.96193224878
 31
0.0
  0
LINE
  5
1D2
330
1F
100
AcDbEntity
  8
0
  6
Continuous
 62
     5
100
AcDbLine
 10
-20682.3134632516
 20
-728.96193224878
 30
0.0
 11
-20682.2929640456
 21
-729.11764426451
 31
0.0
  0
LINE
  5
1D3
330
1F
100
AcDbEntity
  8
0
  6
Continuous
 62
     5
100
AcDbLine
 10
-20682.2929640456
 20
-729.11764426451
 30
0.0
 11
-20682.280636181
 21
-729.274225698518
 31
0.0
  0
LINE
  5
1D4
330
1F
100
AcDbEntity
  8
0
  6
Continuous
 62
     5
100
AcDbLine
 10
-20682.280636181
 20
-729.274225698518
 30
0.0
 11
-20682.2765278116
 21
-729.431235513012
 31
0.0
  0
LINE
  5
1D5
330
1F
100
AcDbEntity
  8
0
  6
Continuous
 62
     5
100
AcDbLine
 10
-20965.7624086485
 20
-688.699167186769
 30
0.0
 11
-20930.8674425737
 21
-688.699154797122
 31
0.0
  0
LINE
  5
1D6
330
1F
100
AcDbEntity
  8
0
  6
Continuous
 62
     5
100
AcDbLine
 10
-21058.6856143709
 20
-688.699151712904
 30
0.0
 11
-20965.7624086485
 21
-688.699167186769
 31
0.0
  0
LINE
  5
1D7
330
1F
100
AcDbEntity
  8
0
  6
Continuous
 62
     5
100
AcDbLine
 10
-20994.776517432
 20
-741.493763373582
 30
0.0
 11
-20700.035866917
 21
-741.493747619313
 31
0.0
  0
LINE
  5
1D8
330
1F
100
AcDbEntity
  8
0
  6
Continuous
 62
     5
100
AcDbLine
 10
-21289.5171918783
 20
-741.493763782852
 30
0.0
 11
-20994.776517432
 21
-741.493763373582
 31
0.0
  0
LINE
  5
1D9
330
1F
100
AcDbEntity
  8
1
  6
Continuous
 62
     5
100
AcDbLine
 10
-20685.4364854925
 20
-732.933743968558
 30
0.0
 11
-20682.2765278116
 21
-732.933725513013
 31
0.0
  0
LINE
  5
1DA
330
1F
100
AcDbEntity
  8
1
  6
Continuous
 62
     5
100
AcDbLine
 10
-20700.0358558968
 20
-736.493760892602
 30
0.0
 11
-20690.7765278116
 21
-736.493747619314
 31
0.0
  0
LINE
  5
1DB
330
1F
100
AcDbEntity
  8
1
  6
Continuous
 62
     5
100
AcDbLine
 10
-21298.7765225192
 20
-736.493751795891
 30
0.0
 11
-21289.5171759255
 21
-736.493751801614
 31
0.0
  0
LINE
  5
1DC
330
1F
100
AcDbEntity
  8
1
  6
Continuous
 62
     5
100
AcDbLine
 10
-21307.2765114944
 20
-732.933720366841
 30
0.0
 11
-21304.1165677682
 21
-732.933730943872
 31
0.0
  0
LINE
  5
1DD
330
1F
100
AcDbEntity
  8
0
  6
Continuous
 62
     5
100
AcDbLine
 10
-20964.7765297482
 20
-688.664882155318
 30
0.0
 11
-20964.7765236236
 21
-565.608094054822
 31
0.0
  0
LINE
  5
1DE
330
1F
100
AcDbEntity
  8
0
  6
Continuous
 62
     5
100
AcDbLine
 10
-21024.7765215311
 20
-565.608094054822
 30
0.0
 11
-21024.7765293929
 21
-688.664900102427
 31
0.0
  0
LINE
  5
1DF
330
1F
100
AcDbEntity
  8
0
  6
Continuous
 62
     5
100
AcDbLine
 10
-21026.5065193528
 20
-688.664903265131
 30
0.0
 11
-21024.7765293929
 21
-688.664900102427
 31
0.0
  0
LINE
  5
1E0
330
1F
100
AcDbEntity
  8
1
  6
DASHED
 62
     3
100
AcDbLine
 10
-21153.2579328907
 20
-653.217872702627
 30
0.0
 11
-21113.6508856959
 21
-619.370909053566
 31
0.0
  0
LINE
  5
1E1
330
1F
100
AcDbEntity
  8
1
  6
DASHED
 62
     3
100
AcDbLine
 10
-21211.5411186431
 20
-511.037512979644
 30
0.0
 11
-21193.0401977674
 21
-492.800582653366
 31
0.0
  0
LINE
  5
1E2
330
1F
100
AcDbEntity
  8
1
  6
DASHED
 62
     3
100
AcDbLine
 10
-21634.351189727
 20
-194.294075368222
 30
0.0
 11
-21767.7877415451
 21
74.3981492747325
 31
0.0
  0
LINE
  5
1E3
330
1F
100
AcDbEntity
  8
1
  6
DASHED
 62
     3
100
AcDbLine
 10
-21736.3432979336
 20
98.6588301075326
 30
0.0
 11
-21608.9511353726
 21
-151.356541999775
 31
0.0
  0
LINE
  5
1E4
330
1F
100
AcDbEntity
  8
1
  6
DASHED
 62
     3
100
AcDbLine
 10
-21767.7877415451
 20
74.3981492747325
 30
0.0
 11
-21740.7732415296
 21
97.4840176513253
 31
0.0
  0
LINE
  5
1E5
330
1F
100
AcDbEntity
  8
1
  6
Continuous
 62
     7
100
AcDbLine
 10
-21186.0679772144
 20
-549.609010929255
 30
0.0
 11
-21130.4038277585
 21
-541.808145320995
 31
0.0
  0
LINE
  5
1E6
330
1F
100
AcDbEntity
  8
1
  6
Continuous
 62
     7
100
AcDbLine
 10
-21312.7732752956
 20
394.328343242638
 30
0.0
 11
-21277.5821175264
 21
399.260172988659
 31
0.0
  0
LINE
  5
1E7
330
1F
100
AcDbEntity
  8
1
  6
Continuous
 62
     7
100
AcDbLine
 10
-21273.2156520019
 20
397.867849967604
 30
0.0
 11
-21300.2955707787
 21
118.577450256218
 31
0.0
  0
LINE
  5
1E8
330
1F
100
AcDbEntity
  8
1
  6
Continuous
 62
     7
100
AcDbLine
 10
-21344.8032759318
 20
96.0417293895689
 30
0.0
 11
-21312.7732752956
 21
394.328343242638
 31
0.0
  0
LINE
  5
1E9
330
1F
100
AcDbEntity
  8
1
  6
Continuous
 62
     1
100
AcDbLine
 10
-13193.0585306805
 20
-358.112541776219
 30
0.0
 11
-13153.2223603754
 21
-351.561105774138
 31
0.0
  0
LINE
  5
1EA
330
1F
100
AcDbEntity
  8
1
  6
Continuous
 62
     7
100
AcDbLine
 10
-12735.5066518157
 20
-426.618868926974
 30
0.0
 11
-12718.3441948468
 21
-421.207567030494
 31
0.0
  0
LINE
  5
1EB
330
1F
100
AcDbEntity
  8
1
  6
Continuous
 62
     7
100
AcDbLine
 10
-12712.2270572795
 20
-410.850409761575
 30
0.0
 11
-12698.2097384581
 21
-409.192302747847
 31
0.0
  0
LINE
  5
1EC
330
1F
100
AcDbEntity
  8
1
  6
Continuous
 62
     1
100
AcDbLine
 10
-12689.0283917059
 20
-362.984414980973
 30
0.0
 11
-12667.1050931567
 21
-364.276679445748
 31
0.0
  0
LINE
  5
1ED
330
1F
100
AcDbEntity
  8
1
  6
Continuous
 62
     7
100
AcDbLine
 10
-12681.4267825814
 20
-409.61393013882
 30
0.0
 11
-12608.0933157794
 21
-346.434330571091
 31
0.0
  0
LINE
  5
1EE
330
1F
100
AcDbEntity
  8
1
  6
Continuous
 62
     7
100
AcDbLine
 10
-12625.4180718436
 20
-328.361708715685
 30
0.0
 11
-12697.7445078367
 21
-390.673712545188
 31
0.0
  0
LINE
  5
1EF
330
1F
100
AcDbEntity
  8
1
  6
Continuous
 62
     1
100
AcDbLine
 10
-12563.7027036377
 20
-353.225912409939
 30
0.0
 11
-12579.7354733422
 21
-321.425656414313
 31
0.0
  0
LINE
  5
1F0
330
1F
100
AcDbEntity
  8
1
  6
Continuous
 62
     1
100
AcDbLine
 10
-13237.9737387793
 20
-209.273662078915
 30
0.0
 11
-12940.1420499782
 21
-147.49048689876
 31
0.0
  0
LINE
  5
1F1
330
1F
100
AcDbEntity
  8
1
  6
Continuous
 62
     7
100
AcDbLine
 10
-13209.2242209318
 20
-174.713656169825
 30
0.0
 11
-12945.8293797596
 21
-120.0741727818
 31
0.0
  0
LINE
  5
1F2
330
1F
100
AcDbEntity
  8
1
  6
Continuous
 62
     7
100
AcDbLine
 10
-12933.2360073534
 20
-180.781725618647
 30
0.0
 11
-13196.630846919
 21
-235.421208673385
 31
0.0
  0
LINE
  5
1F3
330
1F
100
AcDbEntity
  8
1
  6
Continuous
 62
     7
100
AcDbLine
 10
-13113.8890140855
 20
-218.256973487703
 30
0.0
 11
-13058.0871003758
 21
-305.512195535956
 31
0.0
  0
LINE
  5
1F4
330
1F
100
AcDbEntity
  8
1
  6
DASHED
 62
     3
100
AcDbLine
 10
-12566.9374148523
 20
-223.721484830435
 30
0.0
 11
-12373.8672277575
 21
-207.072074201282
 31
0.0
  0
LINE
  5
1F5
330
1F
100
AcDbEntity
  8
1
  6
DASHED
 62
     3
100
AcDbLine
 10
-12936.8122230245
 20
-284.237497205838
 30
0.0
 11
-12737.5941985644
 21
-218.054543683906
 31
0.0
  0
LINE
  5
1F6
330
1F
100
AcDbEntity
  8
1
  6
DASHED
 62
     3
100
AcDbLine
 10
-12560.8856348965
 20
-252.577667827465
 30
0.0
 11
-12227.1620658709
 21
-224.975818028309
 31
0.0
  0
LINE
  5
1F7
330
1F
100
AcDbEntity
  8
1
  6
DASHED
 62
     3
100
AcDbLine
 10
-12527.9567700821
 20
-299.048378388696
 30
0.0
 11
-12223.1984299191
 21
-265.257555268313
 31
0.0
  0
LINE
  5
1F8
330
1F
100
AcDbEntity
  8
1
  6
DASHED
 62
     3
100
AcDbLine
 10
-12208.0873026029
 20
-247.63679408333
 30
0.0
 11
-12208.3430699902
 21
-241.63918460912
 31
0.0
  0
LINE
  5
1F9
330
1F
100
AcDbEntity
  8
1
  6
Continuous
 62
     7
100
AcDbLine
 10
-12653.7525900873
 20
-574.495388493182
 30
0.0
 11
-12554.0916468605
 21
-419.27039235867
 31
0.0
  0
LINE
  5
1FA
330
1F
100
AcDbEntity
  8
1
  6
Continuous
 62
     7
100
AcDbLine
 10
-13058.0157912157
 20
-305.623698819415
 30
0.0
 11
-12749.4873184051
 21
-251.184277426725
 31
0.0
  0
LINE
  5
1FB
330
1F
100
AcDbEntity
  8
1
  6
Continuous
 62
     1
100
AcDbLine
 10
-12689.0283917059
 20
-362.984414980973
 30
0.0
 11
-13146.7064724039
 21
-438.253915846184
 31
0.0
  0
LINE
  5
1FC
330
1F
100
AcDbEntity
  8
1
  6
Continuous
 62
     1
100
AcDbLine
 10
-12614.4130156401
 20
-367.382603456086
 30
0.0
 11
-12631.2559174571
 21
-366.389801964429
 31
0.0
  0
LINE
  5
1FD
330
1F
100
AcDbEntity
  8
1
  6
Continuous
 62
     7
100
AcDbLine
 10
-12652.6797684672
 20
-384.847272844313
 30
0.0
 11
-12626.0136049664
 21
-386.419104538636
 31
0.0
  0
LINE
  5
1FE
330
1F
100
AcDbEntity
  8
1
  6
Continuous
 62
     7
100
AcDbLine
 10
-13148.6491553422
 20
-458.523982409035
 30
0.0
 11
-12688.6992257426
 21
-382.880854446344
 31
0.0
  0
LINE
  5
1FF
330
1F
100
AcDbEntity
  8
1
  6
Continuous
 62
     7
100
AcDbLine
 10
-12784.9754385849
 20
-647.274569293636
 30
0.0
 11
-12614.4130156401
 21
-367.382603456086
 31
0.0
  0
LINE
  5
200
330
1F
100
AcDbEntity
  8
1
  6
Continuous
 62
     7
100
AcDbLine
 10
-13148.3149080715
 20
-350.754028701815
 30
0.0
 11
-12656.5466883006
 21
-269.87808116446
 31
0.0
  0
LINE
  5
201
330
1F
100
AcDbEntity
  8
1
  6
Continuous
 62
     1
100
AcDbLine
 10
-12752.6559191004
 20
-672.388909221714
 30
0.0
 11
-12557.3883528001
 21
-369.594441499939
 31
0.0
  0
LINE
  5
202
330
1F
100
AcDbEntity
  8
1
  6
Continuous
 62
     7
100
AcDbLine
 10
-12780.0118177086
 20
-670.182795538774
 30
0.0
 11
-12774.575281192
 21
-673.87626392882
 31
0.0
  0
LINE
  5
203
330
1F
100
AcDbEntity
  8
1
  6
Continuous
 62
     7
100
AcDbLine
 10
-12956.6513960962
 20
-505.608094054822
 30
0.0
 11
-12735.2136710828
 21
-429.095671836244
 31
0.0
  0
LINE
  5
204
330
1F
100
AcDbEntity
  8
1
  6
Continuous
 62
     7
100
AcDbLine
 10
-13080.5115307041
 20
-505.608094054822
 30
0.0
 11
-12956.6513960962
 21
-505.608094054822
 31
0.0
  0
LINE
  5
205
330
1F
100
AcDbEntity
  8
1
  6
Continuous
 62
     7
100
AcDbLine
 10
-13094.8941334168
 20
-464.022656329912
 30
0.0
 11
-13080.5115307041
 21
-505.608094054822
 31
0.0
  0
LINE
  5
206
330
1F
100
AcDbEntity
  8
1
  6
Continuous
 62
     7
100
AcDbLine
 10
-12861.5667121966
 20
-411.310552021929
 30
0.0
 11
-12945.952464857
 21
-483.3827934975
 31
0.0
  0
LINE
  5
207
330
1F
100
AcDbEntity
  8
1
  6
Continuous
 62
     7
100
AcDbLine
 10
-12965.3852292512
 20
-460.629949738175
 30
0.0
 11
-12918.627011959
 21
-420.694659462229
 31
0.0
  0
LINE
  5
208
330
1F
100
AcDbEntity
  8
1
  6
Continuous
 62
     7
100
AcDbLine
 10
-13094.8941334168
 20
-464.022656329912
 30
0.0
 11
-13050.3243797447
 21
-448.732465626459
 31
0.0
  0
LINE
  5
209
330
1F
100
AcDbEntity
  8
0
  6
Continuous
 62
     5
100
AcDbLine
 10
-13058.5459346171
 20
-688.681107553479
 30
0.0
 11
-13058.6856143709
 21
-688.699151712904
 31
0.0
  0
LINE
  5
20A
330
1F
100
AcDbEntity
  8
0
  6
Continuous
 62
     5
100
AcDbLine
 10
-13057.9271242756
 20
-688.681097467409
 30
0.0
 11
-13058.2365177939
 21
-688.664900969453
 31
0.0
  0
LINE
  5
20B
330
1F
100
AcDbEntity
  8
0
  6
Continuous
 62
     5
100
AcDbLine
 10
-13058.2365177939
 20
-688.664900969453
 30
0.0
 11
-13057.888882958
 21
-688.664903212947
 31
0.0
  0
LINE
  5
20C
330
1F
100
AcDbEntity
  8
0
  6
Continuous
 62
     5
100
AcDbLine
 10
-13058.2365177939
 20
-688.664900969453
 30
0.0
 11
-13058.5459346171
 21
-688.681107553479
 31
0.0
  0
LINE
  5
20D
330
1F
100
AcDbEntity
  8
0
  6
Continuous
 62
     5
100
AcDbLine
 10
-13057.888882958
 20
-688.664903212947
 30
0.0
 11
-13058.1251617552
 21
-688.670730368295
 31
0.0
  0
LINE
  5
20E
330
1F
100
AcDbEntity
  8
0
  6
Continuous
 62
     5
100
AcDbLine
 10
-13058.1251617552
 20
-688.670730368295
 30
0.0
 11
-13058.5459346171
 21
-688.681107553479
 31
0.0
  0
LINE
  5
20F
330
1F
100
AcDbEntity
  8
0
  6
Continuous
 62
     5
100
AcDbLine
 10
-13304.7316780503
 20
-726.465973757543
 30
0.0
 11
-13304.7458356557
 21
-726.4681562575
 31
0.0
  0
LINE
  5
210
330
1F
100
AcDbEntity
  8
0
  6
Continuous
 62
     5
100
AcDbLine
 10
-13026.5065193528
 20
-688.664903265131
 30
0.0
 11
-13024.7765293929
 21
-688.664900102427
 31
0.0
  0
LINE
  5
211
330
1F
100
AcDbEntity
  8
0
  6
Continuous
 62
     5
100
AcDbLine
 10
-12931.3165303311
 20
-688.664880049585
 30
0.0
 11
-12931.6641723829
 21
-688.664880283476
 31
0.0
  0
LINE
  5
212
330
1F
100
AcDbEntity
  8
0
  6
Continuous
 62
     5
100
AcDbLine
 10
-12931.0071232953
 20
-688.681104172734
 30
0.0
 11
-12931.6641723829
 21
-688.664880283476
 31
0.0
  0
LINE
  5
213
330
1F
100
AcDbEntity
  8
0
  6
Continuous
 62
     5
100
AcDbLine
 10
-13057.0325825003
 20
-688.920796187773
 30
0.0
 11
-13057.3218447619
 21
-688.809763344666
 31
0.0
  0
LINE
  5
214
330
1F
100
AcDbEntity
  8
0
  6
Continuous
 62
     5
100
AcDbLine
 10
-13057.3218447619
 20
-688.809763344666
 30
0.0
 11
-13057.621099082
 21
-688.729587082571
 31
0.0
  0
LINE
  5
215
330
1F
100
AcDbEntity
  8
0
  6
Continuous
 62
     5
100
AcDbLine
 10
-13057.621099082
 20
-688.729587082571
 30
0.0
 11
-13057.9271242756
 21
-688.681097467409
 31
0.0
  0
LINE
  5
216
330
1F
100
AcDbEntity
  8
0
  6
Continuous
 62
     5
100
AcDbLine
 10
-13057.9271242756
 20
-688.681097467409
 30
0.0
 11
-13057.888882958
 21
-688.664903212947
 31
0.0
  0
LINE
  5
217
330
1F
100
AcDbEntity
  8
0
  6
Continuous
 62
     5
100
AcDbLine
 10
-13058.2365177939
 20
-688.664900969453
 30
0.0
 11
-13057.888882958
 21
-688.664903212947
 31
0.0
  0
LINE
  5
218
330
1F
100
AcDbEntity
  8
0
  6
Continuous
 62
     5
100
AcDbLine
 10
-12684.8213738543
 20
-726.465964045663
 30
0.0
 11
-12684.807219075
 21
-726.468164381507
 31
0.0
  0
LINE
  5
219
330
1F
100
AcDbEntity
  8
0
  6
Continuous
 62
     5
100
AcDbLine
 10
-12931.0071232953
 20
-688.681104172734
 30
0.0
 11
-12930.8674425737
 21
-688.699154797122
 31
0.0
  0
LINE
  5
21A
330
1F
100
AcDbEntity
  8
0
  6
Continuous
 62
     5
100
AcDbLine
 10
-12931.6259300288
 20
-688.681113020113
 30
0.0
 11
-12931.6641723829
 21
-688.664880283476
 31
0.0
  0
LINE
  5
21B
330
1F
100
AcDbEntity
  8
0
  6
Continuous
 62
     5
100
AcDbLine
 10
-12931.6259300288
 20
-688.681113020113
 30
0.0
 11
-12931.4277854301
 21
-688.670717161766
 31
0.0
  0
LINE
  5
21C
330
1F
100
AcDbEntity
  8
0
  6
Continuous
 62
     5
100
AcDbLine
 10
-12931.4277854301
 20
-688.670717161766
 30
0.0
 11
-12931.3165303311
 21
-688.664880049585
 31
0.0
  0
LINE
  5
21D
330
1F
100
AcDbEntity
  8
0
  6
Continuous
 62
     5
100
AcDbLine
 10
-12931.6641723829
 20
-688.664880283476
 30
0.0
 11
-12931.3165303311
 21
-688.664880049585
 31
0.0
  0
LINE
  5
21E
330
1F
100
AcDbEntity
  8
0
  6
Continuous
 62
     5
100
AcDbLine
 10
-12931.3165303311
 20
-688.664880049585
 30
0.0
 11
-12931.0071232953
 21
-688.681104172734
 31
0.0
  0
LINE
  5
21F
330
1F
100
AcDbEntity
  8
0
  6
Continuous
 62
     5
100
AcDbLine
 10
-12931.6259300288
 20
-688.681113020113
 30
0.0
 11
-12931.9319429687
 21
-688.729578578676
 31
0.0
  0
LINE
  5
220
330
1F
100
AcDbEntity
  8
0
  6
Continuous
 62
     5
100
AcDbLine
 10
-12964.7765297482
 20
-688.664882155318
 30
0.0
 11
-12963.0465323801
 21
-688.664878992599
 31
0.0
  0
LINE
  5
221
330
1F
100
AcDbEntity
  8
0
  6
Continuous
 62
     5
100
AcDbLine
 10
-12931.9319429687
 20
-688.729578578676
 30
0.0
 11
-12932.2312139726
 21
-688.809770148237
 31
0.0
  0
LINE
  5
222
330
1F
100
AcDbEntity
  8
0
  6
Continuous
 62
     5
100
AcDbLine
 10
-13057.888882958
 20
-688.664903212947
 30
0.0
 11
-13026.5065193528
 21
-688.664903265131
 31
0.0
  0
LINE
  5
223
330
1F
100
AcDbEntity
  8
0
  6
Continuous
 62
     5
100
AcDbLine
 10
-12963.0465323801
 20
-688.664878992599
 30
0.0
 11
-12931.6641723829
 21
-688.664880283476
 31
0.0
  0
LINE
  5
224
330
1F
100
AcDbEntity
  8
0
  6
Continuous
 62
     5
100
AcDbLine
 10
-12931.6641723829
 20
-688.664880283476
 30
0.0
 11
-13057.888882958
 21
-688.664903212947
 31
0.0
  0
LINE
  5
225
330
1F
100
AcDbEntity
  8
0
  6
Continuous
 62
     5
100
AcDbLine
 10
-13307.2765114944
 20
-732.933720366841
 30
0.0
 11
-13307.276520482
 21
-729.431247322502
 31
0.0
  0
LINE
  5
226
330
1F
100
AcDbEntity
  8
0
  6
Continuous
 62
     5
100
AcDbLine
 10
-12682.2765278116
 20
-729.431235513012
 30
0.0
 11
-12682.2765278116
 21
-732.933725513013
 31
0.0
  0
LINE
  5
227
330
1F
100
AcDbEntity
  8
0
  6
Continuous
 62
     5
100
AcDbLine
 10
-13304.7316780503
 20
-726.465973757543
 30
0.0
 11
-13058.6856143709
 21
-688.699151712904
 31
0.0
  0
LINE
  5
228
330
1F
100
AcDbEntity
  8
0
  6
Continuous
 62
     5
100
AcDbLine
 10
-12930.8674425737
 20
-688.699154797122
 30
0.0
 11
-12684.8213738543
 21
-726.465964045663
 31
0.0
  0
LINE
  5
229
330
1F
100
AcDbEntity
  8
0
  6
Continuous
 62
     5
100
AcDbLine
 10
-12685.4364854925
 20
-732.933743968558
 30
0.0
 11
-12690.7765278116
 21
-736.493747619314
 31
0.0
  0
LINE
  5
22A
330
1F
100
AcDbEntity
  8
0
  6
Continuous
 62
     5
100
AcDbLine
 10
-13298.7765225192
 20
-736.493751795891
 30
0.0
 11
-13304.1165677682
 21
-732.933730943872
 31
0.0
  0
LINE
  5
22B
330
1F
100
AcDbEntity
  8
0
  6
Continuous
 62
     5
100
AcDbLine
 10
-12700.0358558968
 20
-736.493760892602
 30
0.0
 11
-12700.035866917
 21
-741.493747619313
 31
0.0
  0
LINE
  5
22C
330
1F
100
AcDbEntity
  8
0
  6
Continuous
 62
     5
100
AcDbLine
 10
-13289.5171918783
 20
-741.493763782852
 30
0.0
 11
-13289.5171759255
 21
-736.493751801614
 31
0.0
  0
LINE
  5
22D
330
1F
100
AcDbEntity
  8
0
  6
Continuous
 62
     5
100
AcDbLine
 10
-13304.7458356557
 20
-726.4681562575
 30
0.0
 11
-13304.9002732941
 21
-726.496784572591
 31
0.0
  0
LINE
  5
22E
330
1F
100
AcDbEntity
  8
0
  6
Continuous
 62
     5
100
AcDbLine
 10
-13304.9002732941
 20
-726.496784572591
 30
0.0
 11
-13305.052978823
 21
-726.533465513574
 31
0.0
  0
LINE
  5
22F
330
1F
100
AcDbEntity
  8
0
  6
Continuous
 62
     5
100
AcDbLine
 10
-13305.052978823
 20
-726.533465513574
 30
0.0
 11
-13305.203577012
 21
-726.578070256577
 31
0.0
  0
LINE
  5
230
330
1F
100
AcDbEntity
  8
0
  6
Continuous
 62
     5
100
AcDbLine
 10
-13305.203577012
 20
-726.578070256577
 30
0.0
 11
-13305.3516249932
 21
-726.630479022548
 31
0.0
  0
LINE
  5
231
330
1F
100
AcDbEntity
  8
0
  6
Continuous
 62
     5
100
AcDbLine
 10
-13305.3516249932
 20
-726.630479022548
 30
0.0
 11
-13305.4967376267
 21
-726.690591851496
 31
0.0
  0
LINE
  5
232
330
1F
100
AcDbEntity
  8
0
  6
Continuous
 62
     5
100
AcDbLine
 10
-13305.4967376267
 20
-726.690591851496
 30
0.0
 11
-13305.6385017733
 21
-726.758202372721
 31
0.0
  0
LINE
  5
233
330
1F
100
AcDbEntity
  8
0
  6
Continuous
 62
     5
100
AcDbLine
 10
-13305.6385017733
 20
-726.758202372721
 30
0.0
 11
-13305.776523248
 21
-726.833142988935
 31
0.0
  0
LINE
  5
234
330
1F
100
AcDbEntity
  8
0
  6
Continuous
 62
     5
100
AcDbLine
 10
-13305.776523248
 20
-726.833142988935
 30
0.0
 11
-13305.9104466394
 21
-726.91522714849
 31
0.0
  0
LINE
  5
235
330
1F
100
AcDbEntity
  8
0
  6
Continuous
 62
     5
100
AcDbLine
 10
-13305.9104466394
 20
-726.91522714849
 30
0.0
 11
-13306.0398786275
 21
-727.004190752919
 31
0.0
  0
LINE
  5
236
330
1F
100
AcDbEntity
  8
0
  6
Continuous
 62
     5
100
AcDbLine
 10
-13306.0398786275
 20
-727.004190752919
 30
0.0
 11
-13306.1644836198
 21
-727.099789522808
 31
0.0
  0
LINE
  5
237
330
1F
100
AcDbEntity
  8
0
  6
Continuous
 62
     5
100
AcDbLine
 10
-13306.1644836198
 20
-727.099789522808
 30
0.0
 11
-13306.2839161144
 21
-727.20180804263
 31
0.0
  0
LINE
  5
238
330
1F
100
AcDbEntity
  8
0
  6
Continuous
 62
     5
100
AcDbLine
 10
-13306.2839161144
 20
-727.20180804263
 30
0.0
 11
-13306.3978413837
 21
-727.309905531791
 31
0.0
  0
LINE
  5
239
330
1F
100
AcDbEntity
  8
0
  6
Continuous
 62
     5
100
AcDbLine
 10
-13306.3978413837
 20
-727.309905531791
 30
0.0
 11
-13306.505952699
 21
-727.423847620409
 31
0.0
  0
LINE
  5
23A
330
1F
100
AcDbEntity
  8
0
  6
Continuous
 62
     5
100
AcDbLine
 10
-13306.505952699
 20
-727.423847620409
 30
0.0
 11
-13306.6079541063
 21
-727.543274573532
 31
0.0
  0
LINE
  5
23B
330
1F
100
AcDbEntity
  8
0
  6
Continuous
 62
     5
100
AcDbLine
 10
-13306.6079541063
 20
-727.543274573532
 30
0.0
 11
-13306.7035686056
 21
-727.667865429623
 31
0.0
  0
LINE
  5
23C
330
1F
100
AcDbEntity
  8
0
  6
Continuous
 62
     5
100
AcDbLine
 10
-13306.7035686056
 20
-727.667865429623
 30
0.0
 11
-13306.7925480607
 21
-727.797309136679
 31
0.0
  0
LINE
  5
23D
330
1F
100
AcDbEntity
  8
0
  6
Continuous
 62
     5
100
AcDbLine
 10
-13306.7925480607
 20
-727.797309136679
 30
0.0
 11
-13306.8745965176
 21
-727.931245959748
 31
0.0
  0
LINE
  5
23E
330
1F
100
AcDbEntity
  8
0
  6
Continuous
 62
     5
100
AcDbLine
 10
-13306.8745965176
 20
-727.931245959748
 30
0.0
 11
-13306.9495343421
 21
-728.069259300817
 31
0.0
  0
LINE
  5
23F
330
1F
100
AcDbEntity
  8
0
  6
Continuous
 62
     5
100
AcDbLine
 10
-13306.9495343421
 20
-728.069259300817
 30
0.0
 11
-13307.0171521717
 21
-728.211019153519
 31
0.0
  0
LINE
  5
240
330
1F
100
AcDbEntity
  8
0
  6
Continuous
 62
     5
100
AcDbLine
 10
-13307.0171521717
 20
-728.211019153519
 30
0.0
 11
-13307.0772604628
 21
-728.356137783727
 31
0.0
  0
LINE
  5
241
330
1F
100
AcDbEntity
  8
0
  6
Continuous
 62
     5
100
AcDbLine
 10
-13307.0772604628
 20
-728.356137783727
 30
0.0
 11
-13307.1296894909
 21
-728.504169729541
 31
0.0
  0
LINE
  5
242
330
1F
100
AcDbEntity
  8
0
  6
Continuous
 62
     5
100
AcDbLine
 10
-13307.1296894909
 20
-728.504169729541
 30
0.0
 11
-13307.1742975306
 21
-728.654775939771
 31
0.0
  0
LINE
  5
243
330
1F
100
AcDbEntity
  8
0
  6
Continuous
 62
     5
100
AcDbLine
 10
-13307.1742975306
 20
-728.654775939771
 30
0.0
 11
-13307.210953631
 21
-728.807491998162
 31
0.0
  0
LINE
  5
244
330
1F
100
AcDbEntity
  8
0
  6
Continuous
 62
     5
100
AcDbLine
 10
-13307.210953631
 20
-728.807491998162
 30
0.0
 11
-13307.2395936135
 21
-728.961940944816
 31
0.0
  0
LINE
  5
245
330
1F
100
AcDbEntity
  8
0
  6
Continuous
 62
     5
100
AcDbLine
 10
-13307.2395936135
 20
-728.961940944816
 30
0.0
 11
-13307.260086527
 21
-729.117658363477
 31
0.0
  0
LINE
  5
246
330
1F
100
AcDbEntity
  8
0
  6
Continuous
 62
     5
100
AcDbLine
 10
-13307.260086527
 20
-729.117658363477
 30
0.0
 11
-13307.272416876
 21
-729.274219476005
 31
0.0
  0
LINE
  5
247
330
1F
100
AcDbEntity
  8
0
  6
Continuous
 62
     5
100
AcDbLine
 10
-13307.272416876
 20
-729.274219476005
 30
0.0
 11
-13307.276520482
 21
-729.431247322502
 31
0.0
  0
LINE
  5
248
330
1F
100
AcDbEntity
  8
0
  6
Continuous
 62
     5
100
AcDbLine
 10
-12684.807219075
 20
-726.468164381507
 30
0.0
 11
-12684.6527944698
 21
-726.496780454867
 31
0.0
  0
LINE
  5
249
330
1F
100
AcDbEntity
  8
0
  6
Continuous
 62
     5
100
AcDbLine
 10
-12684.6527944698
 20
-726.496780454867
 30
0.0
 11
-12684.5000685019
 21
-726.533465419113
 31
0.0
  0
LINE
  5
24A
330
1F
100
AcDbEntity
  8
0
  6
Continuous
 62
     5
100
AcDbLine
 10
-12684.5000685019
 20
-726.533465419113
 30
0.0
 11
-12684.3494722012
 21
-726.578044594989
 31
0.0
  0
LINE
  5
24B
330
1F
100
AcDbEntity
  8
0
  6
Continuous
 62
     5
100
AcDbLine
 10
-12684.3494722012
 20
-726.578044594989
 30
0.0
 11
-12684.2014060044
 21
-726.630526396067
 31
0.0
  0
LINE
  5
24C
330
1F
100
AcDbEntity
  8
0
  6
Continuous
 62
     5
100
AcDbLine
 10
-12684.2014060044
 20
-726.630526396067
 30
0.0
 11
-12684.0563117157
 21
-726.690610778022
 31
0.0
  0
LINE
  5
24D
330
1F
100
AcDbEntity
  8
0
  6
Continuous
 62
     5
100
AcDbLine
 10
-12684.0563117157
 20
-726.690610778022
 30
0.0
 11
-12683.914551863
 21
-726.758228607603
 31
0.0
  0
LINE
  5
24E
330
1F
100
AcDbEntity
  8
0
  6
Continuous
 62
     5
100
AcDbLine
 10
-12683.914551863
 20
-726.758228607603
 30
0.0
 11
-12683.7765141804
 21
-726.833190341253
 31
0.0
  0
LINE
  5
24F
330
1F
100
AcDbEntity
  8
0
  6
Continuous
 62
     5
100
AcDbLine
 10
-12683.7765141804
 20
-726.833190341253
 30
0.0
 11
-12683.6426062212
 21
-726.915248707654
 31
0.0
  0
LINE
  5
250
330
1F
100
AcDbEntity
  8
0
  6
Continuous
 62
     5
100
AcDbLine
 10
-12683.6426062212
 20
-726.915248707654
 30
0.0
 11
-12683.5131579918
 21
-727.004194344194
 31
0.0
  0
LINE
  5
251
330
1F
100
AcDbEntity
  8
0
  6
Continuous
 62
     5
100
AcDbLine
 10
-12683.5131579918
 20
-727.004194344194
 30
0.0
 11
-12683.3885626133
 21
-727.099775024786
 31
0.0
  0
LINE
  5
252
330
1F
100
AcDbEntity
  8
0
  6
Continuous
 62
     5
100
AcDbLine
 10
-12683.3885626133
 20
-727.099775024786
 30
0.0
 11
-12683.2691356601
 21
-727.201776432055
 31
0.0
  0
LINE
  5
253
330
1F
100
AcDbEntity
  8
0
  6
Continuous
 62
     5
100
AcDbLine
 10
-12683.2691356601
 20
-727.201776432055
 30
0.0
 11
-12683.1551980939
 21
-727.309921566092
 31
0.0
  0
LINE
  5
254
330
1F
100
AcDbEntity
  8
0
  6
Continuous
 62
     5
100
AcDbLine
 10
-12683.1551980939
 20
-727.309921566092
 30
0.0
 11
-12683.0470762633
 21
-727.423870744458
 31
0.0
  0
LINE
  5
255
330
1F
100
AcDbEntity
  8
0
  6
Continuous
 62
     5
100
AcDbLine
 10
-12683.0470762633
 20
-727.423870744458
 30
0.0
 11
-12682.945082085
 21
-727.543279329946
 31
0.0
  0
LINE
  5
256
330
1F
100
AcDbEntity
  8
0
  6
Continuous
 62
     5
100
AcDbLine
 10
-12682.945082085
 20
-727.543279329946
 30
0.0
 11
-12682.8494589736
 21
-727.667908231357
 31
0.0
  0
LINE
  5
257
330
1F
100
AcDbEntity
  8
0
  6
Continuous
 62
     5
100
AcDbLine
 10
-12682.8494589736
 20
-727.667908231357
 30
0.0
 11
-12682.7605098011
 21
-727.797345174189
 31
0.0
  0
LINE
  5
258
330
1F
100
AcDbEntity
  8
0
  6
Continuous
 62
     5
100
AcDbLine
 10
-12682.7605098011
 20
-727.797345174189
 30
0.0
 11
-12682.6784598926
 21
-727.931215792649
 31
0.0
  0
LINE
  5
259
330
1F
100
AcDbEntity
  8
0
  6
Continuous
 62
     5
100
AcDbLine
 10
-12682.6784598926
 20
-727.931215792649
 30
0.0
 11
-12682.6035093668
 21
-728.069266131248
 31
0.0
  0
LINE
  5
25A
330
1F
100
AcDbEntity
  8
0
  6
Continuous
 62
     5
100
AcDbLine
 10
-12682.6035093668
 20
-728.069266131248
 30
0.0
 11
-12682.5358745041
 21
-728.211054186896
 31
0.0
  0
LINE
  5
25B
330
1F
100
AcDbEntity
  8
0
  6
Continuous
 62
     5
100
AcDbLine
 10
-12682.5358745041
 20
-728.211054186896
 30
0.0
 11
-12682.4757860166
 21
-728.356142911266
 31
0.0
  0
LINE
  5
25C
330
1F
100
AcDbEntity
  8
0
  6
Continuous
 62
     5
100
AcDbLine
 10
-12682.4757860166
 20
-728.356142911266
 30
0.0
 11
-12682.4233483868
 21
-728.504180982982
 31
0.0
  0
LINE
  5
25D
330
1F
100
AcDbEntity
  8
0
  6
Continuous
 62
     5
100
AcDbLine
 10
-12682.4233483868
 20
-728.504180982982
 30
0.0
 11
-12682.3787436438
 21
-728.654779171963
 31
0.0
  0
LINE
  5
25E
330
1F
100
AcDbEntity
  8
0
  6
Continuous
 62
     5
100
AcDbLine
 10
-12682.3787436438
 20
-728.654779171963
 30
0.0
 11
-12682.3420672252
 21
-728.807518519533
 31
0.0
  0
LINE
  5
25F
330
1F
100
AcDbEntity
  8
0
  6
Continuous
 62
     5
100
AcDbLine
 10
-12682.3420672252
 20
-728.807518519533
 30
0.0
 11
-12682.3134632516
 21
-728.96193224878
 31
0.0
  0
LINE
  5
260
330
1F
100
AcDbEntity
  8
0
  6
Continuous
 62
     5
100
AcDbLine
 10
-12682.3134632516
 20
-728.96193224878
 30
0.0
 11
-12682.2929640456
 21
-729.11764426451
 31
0.0
  0
LINE
  5
261
330
1F
100
AcDbEntity
  8
0
  6
Continuous
 62
     5
100
AcDbLine
 10
-12682.2929640456
 20
-729.11764426451
 30
0.0
 11
-12682.280636181
 21
-729.274225698518
 31
0.0
  0
LINE
  5
262
330
1F
100
AcDbEntity
  8
0
  6
Continuous
 62
     5
100
AcDbLine
 10
-12682.280636181
 20
-729.274225698518
 30
0.0
 11
-12682.2765278116
 21
-729.431235513012
 31
0.0
  0
LINE
  5
263
330
1F
100
AcDbEntity
  8
0
  6
Continuous
 62
     5
100
AcDbLine
 10
-12965.7624086485
 20
-688.699167186769
 30
0.0
 11
-12930.8674425737
 21
-688.699154797122
 31
0.0
  0
LINE
  5
264
330
1F
100
AcDbEntity
  8
0
  6
Continuous
 62
     5
100
AcDbLine
 10
-13058.6856143709
 20
-688.699151712904
 30
0.0
 11
-12965.7624086485
 21
-688.699167186769
 31
0.0
  0
LINE
  5
265
330
1F
100
AcDbEntity
  8
0
  6
Continuous
 62
     5
100
AcDbLine
 10
-12994.776517432
 20
-741.493763373582
 30
0.0
 11
-12700.035866917
 21
-741.493747619313
 31
0.0
  0
LINE
  5
266
330
1F
100
AcDbEntity
  8
0
  6
Continuous
 62
     5
100
AcDbLine
 10
-13289.5171918783
 20
-741.493763782852
 30
0.0
 11
-12994.776517432
 21
-741.493763373582
 31
0.0
  0
LINE
  5
267
330
1F
100
AcDbEntity
  8
1
  6
Continuous
 62
     5
100
AcDbLine
 10
-12685.4364854925
 20
-732.933743968558
 30
0.0
 11
-12682.2765278116
 21
-732.933725513013
 31
0.0
  0
LINE
  5
268
330
1F
100
AcDbEntity
  8
1
  6
Continuous
 62
     5
100
AcDbLine
 10
-12700.0358558968
 20
-736.493760892602
 30
0.0
 11
-12690.7765278116
 21
-736.493747619314
 31
0.0
  0
LINE
  5
269
330
1F
100
AcDbEntity
  8
1
  6
Continuous
 62
     5
100
AcDbLine
 10
-13298.7765225192
 20
-736.493751795891
 30
0.0
 11
-13289.5171759255
 21
-736.493751801614
 31
0.0
  0
LINE
  5
26A
330
1F
100
AcDbEntity
  8
1
  6
Continuous
 62
     5
100
AcDbLine
 10
-13307.2765114944
 20
-732.933720366841
 30
0.0
 11
-13304.1165677682
 21
-732.933730943872
 31
0.0
  0
LINE
  5
26B
330
1F
100
AcDbEntity
  8
0
  6
Continuous
 62
     5
100
AcDbLine
 10
-12964.7765297482
 20
-688.664882155318
 30
0.0
 11
-12964.7765219112
 21
-505.608094054822
 31
0.0
  0
LINE
  5
26C
330
1F
100
AcDbEntity
  8
0
  6
Continuous
 62
     5
100
AcDbLine
 10
-13024.7765193329
 20
-505.608094054822
 30
0.0
 11
-13024.7765293929
 21
-688.664900102427
 31
0.0
  0
LINE
  5
26D
330
1F
100
AcDbEntity
  8
0
  6
Continuous
 62
     5
100
AcDbLine
 10
-13026.5065193528
 20
-688.664903265131
 30
0.0
 11
-13024.7765293929
 21
-688.664900102427
 31
0.0
  0
LINE
  5
26E
330
1F
100
AcDbEntity
  8
1
  6
DASHED
 62
     3
100
AcDbLine
 10
-13192.7277258863
 20
-599.70905448153
 30
0.0
 11
-13153.1206786915
 21
-565.862090832468
 31
0.0
  0
LINE
  5
26F
330
1F
100
AcDbEntity
  8
1
  6
DASHED
 62
     3
100
AcDbLine
 10
-13251.0109116386
 20
-457.528694758546
 30
0.0
 11
-13232.509990763
 21
-439.291764432268
 31
0.0
  0
LINE
  5
270
330
1F
100
AcDbEntity
  8
1
  6
DASHED
 62
     3
100
AcDbLine
 10
-13673.8209827225
 20
-140.785257147125
 30
0.0
 11
-13829.9574793484
 21
172.457079793399
 31
0.0
  0
LINE
  5
271
330
1F
100
AcDbEntity
  8
1
  6
DASHED
 62
     3
100
AcDbLine
 10
-13798.5130357369
 20
196.717760626199
 30
0.0
 11
-13648.4209283682
 21
-97.8477237786778
 31
0.0
  0
LINE
  5
272
330
1F
100
AcDbEntity
  8
1
  6
DASHED
 62
     3
100
AcDbLine
 10
-13829.9574793484
 20
172.457079793399
 30
0.0
 11
-13802.9429793329
 21
195.542948169992
 31
0.0
  0
LINE
  5
273
330
1F
100
AcDbEntity
  8
1
  6
Continuous
 62
     7
100
AcDbLine
 10
-13225.53777021
 20
-496.100192708158
 30
0.0
 11
-13169.8736207541
 21
-488.299327099898
 31
0.0
  0
LINE
  5
274
330
1F
100
AcDbEntity
  8
1
  6
Continuous
 62
     7
100
AcDbLine
 10
-13347.4177113048
 20
497.603776075876
 30
0.0
 11
-13312.2265535355
 21
502.535605821897
 31
0.0
  0
LINE
  5
275
330
1F
100
AcDbEntity
  8
1
  6
Continuous
 62
     7
100
AcDbLine
 10
-13307.860088011
 20
501.143282800842
 30
0.0
 11
-13339.7653637743
 21
172.086268477316
 31
0.0
  0
LINE
  5
276
330
1F
100
AcDbEntity
  8
1
  6
Continuous
 62
     7
100
AcDbLine
 10
-13384.2730689274
 20
149.550547610666
 30
0.0
 11
-13347.4177113048
 21
497.603776075876
 31
0.0
  0
LINE
  5
277
330
1F
100
AcDbEntity
  8
1
  6
Continuous
 62
     7
100
AcDbLine
 10
-15278.5560314363
 20
-401.906592240552
 30
0.0
 11
-15246.7764899418
 21
-414.902430142202
 31
0.0
  0
LINE
  5
278
330
1F
100
AcDbEntity
  8
1
  6
Continuous
 62
     7
100
AcDbLine
 10
-15246.4716406184
 20
-442.036695268539
 30
0.0
 11
-15289.4779449124
 21
-424.449816003797
 31
0.0
  0
LINE
  5
279
330
1F
100
AcDbEntity
  8
1
  6
Continuous
 62
     7
100
AcDbLine
 10
-14742.7765424496
 20
-301.041504703833
 30
0.0
 11
-14742.7765424496
 21
-439.18157675432
 31
0.0
  0
LINE
  5
27A
330
1F
100
AcDbEntity
  8
1
  6
Continuous
 62
     7
100
AcDbLine
 10
-14994.7765161957
 20
-682.661955987832
 30
0.0
 11
-14768.7736520222
 21
-682.661955987832
 31
0.0
  0
LINE
  5
27B
330
1F
100
AcDbEntity
  8
1
  6
Continuous
 62
     7
100
AcDbLine
 10
-14768.7736520222
 20
-682.661955987832
 30
0.0
 11
-14742.7765424496
 21
-439.18157675432
 31
0.0
  0
LINE
  5
27C
330
1F
100
AcDbEntity
  8
1
  6
Continuous
 62
     7
100
AcDbLine
 10
-15246.7764899418
 20
-439.18157675432
 30
0.0
 11
-15246.7764899418
 21
-301.041504703833
 31
0.0
  0
LINE
  5
27D
330
1F
100
AcDbEntity
  8
1
  6
Continuous
 62
     7
100
AcDbLine
 10
-15220.7793803691
 20
-682.661955987832
 30
0.0
 11
-14994.7765161957
 21
-682.661955987832
 31
0.0
  0
LINE
  5
27E
330
1F
100
AcDbEntity
  8
1
  6
Continuous
 62
     7
100
AcDbLine
 10
-15246.7764899418
 20
-439.18157675432
 30
0.0
 11
-15220.7793803691
 21
-682.661955987832
 31
0.0
  0
LINE
  5
27F
330
1F
100
AcDbEntity
  8
1
  6
Continuous
 62
     7
100
AcDbLine
 10
-14735.2765201887
 20
-364.549198300707
 30
0.0
 11
-14735.2765662359
 21
-180.572244151696
 31
0.0
  0
LINE
  5
280
330
1F
100
AcDbEntity
  8
1
  6
Continuous
 62
     7
100
AcDbLine
 10
-14645.2765602969
 20
-364.549198300707
 30
0.0
 11
-14645.2765602969
 21
-180.572244151696
 31
0.0
  0
LINE
  5
281
330
1F
100
AcDbEntity
  8
1
  6
Continuous
 62
     7
100
AcDbLine
 10
-14742.7765415725
 20
-414.902430142202
 30
0.0
 11
-14710.997000078
 21
-401.906592240552
 31
0.0
  0
LINE
  5
282
330
1F
100
AcDbEntity
  8
1
  6
Continuous
 62
     7
100
AcDbLine
 10
-14700.0750866019
 20
-424.449816003797
 30
0.0
 11
-14743.0813908959
 21
-442.036695268539
 31
0.0
  0
LINE
  5
283
330
1F
100
AcDbEntity
  8
1
  6
Continuous
 62
     7
100
AcDbLine
 10
-10700.0750866019
 20
-384.449816003797
 30
0.0
 11
-10743.0813908959
 21
-402.036695268539
 31
0.0
  0
LINE
  5
284
330
1F
100
AcDbEntity
  8
1
  6
Continuous
 62
     7
100
AcDbLine
 10
-10742.7765415725
 20
-374.902430142202
 30
0.0
 11
-10710.997000078
 21
-361.906592240552
 31
0.0
  0
LINE
  5
285
330
1F
100
AcDbEntity
  8
1
  6
Continuous
 62
     7
100
AcDbLine
 10
-10645.2765602969
 20
-324.549198300707
 30
0.0
 11
-10645.2765602969
 21
-140.572244151696
 31
0.0
  0
LINE
  5
286
330
1F
100
AcDbEntity
  8
1
  6
Continuous
 62
     7
100
AcDbLine
 10
-10735.2765201887
 20
-324.549198300707
 30
0.0
 11
-10735.2765662359
 21
-140.572244151696
 31
0.0
  0
LINE
  5
287
330
1F
100
AcDbEntity
  8
1
  6
Continuous
 62
     7
100
AcDbLine
 10
-11246.7764899418
 20
-399.18157675432
 30
0.0
 11
-11216.5084638124
 21
-682.661955987832
 31
0.0
  0
LINE
  5
288
330
1F
100
AcDbEntity
  8
1
  6
Continuous
 62
     7
100
AcDbLine
 10
-11246.7764899418
 20
-399.18157675432
 30
0.0
 11
-11246.7764899418
 21
-261.041504703833
 31
0.0
  0
LINE
  5
289
330
1F
100
AcDbEntity
  8
1
  6
Continuous
 62
     7
100
AcDbLine
 10
-10773.0445685789
 20
-682.661955987832
 30
0.0
 11
-10742.7765424496
 21
-399.18157675432
 31
0.0
  0
LINE
  5
28A
330
1F
100
AcDbEntity
  8
1
  6
Continuous
 62
     7
100
AcDbLine
 10
-10742.7765424496
 20
-261.041504703833
 30
0.0
 11
-10742.7765424496
 21
-399.18157675432
 31
0.0
  0
LINE
  5
28B
330
1F
100
AcDbEntity
  8
1
  6
Continuous
 62
     7
100
AcDbLine
 10
-11246.4716406184
 20
-402.036695268539
 30
0.0
 11
-11289.4779449124
 21
-384.449816003797
 31
0.0
  0
LINE
  5
28C
330
1F
100
AcDbEntity
  8
1
  6
Continuous
 62
     7
100
AcDbLine
 10
-11278.5560314363
 20
-361.906592240552
 30
0.0
 11
-11246.7764899418
 21
-374.902430142202
 31
0.0
  0
LINE
  5
28D
330
1F
100
AcDbEntity
  8
1
  6
Continuous
 62
     7
100
AcDbLine
 10
-10742.7765424496
 20
-248.672840536613
 30
0.0
 11
-10764.1959221839
 21
474.052726341973
 31
0.0
  0
LINE
  5
28E
330
1F
100
AcDbEntity
  8
1
  6
Continuous
 62
     7
100
AcDbLine
 10
-11225.3571102075
 20
474.052726341973
 30
0.0
 11
-11246.7764899418
 21
-248.672840536613
 31
0.0
  0
LINE
  5
28F
330
1F
100
AcDbEntity
  8
1
  6
Continuous
 62
     7
100
AcDbLine
 10
-11254.2764652784
 20
-140.572244151696
 30
0.0
 11
-11254.2765113256
 21
-324.549198300707
 31
0.0
  0
LINE
  5
290
330
1F
100
AcDbEntity
  8
1
  6
Continuous
 62
     7
100
AcDbLine
 10
-11344.2764712174
 20
-140.572244151696
 30
0.0
 11
-11344.2764712174
 21
-324.549198300707
 31
0.0
  0
LINE
  5
291
330
1F
100
AcDbEntity
  8
0
  6
Continuous
 62
     5
100
AcDbLine
 10
-11024.7765156083
 20
-682.661955987832
 30
0.0
 11
-11024.7765154066
 21
-688.664882155318
 31
0.0
  0
LINE
  5
292
330
1F
100
AcDbEntity
  8
0
  6
Continuous
 62
     5
100
AcDbLine
 10
-10964.7765157619
 20
-688.664900102427
 30
0.0
 11
-10964.7765160167
 21
-682.661955987832
 31
0.0
  0
LINE
  5
293
330
1F
100
AcDbEntity
  8
0
  6
Continuous
 62
     5
100
AcDbLine
 10
-10930.8674307838
 20
-688.699151712904
 30
0.0
 11
-10931.0071105376
 21
-688.681107553478
 31
0.0
  0
LINE
  5
294
330
1F
100
AcDbEntity
  8
0
  6
Continuous
 62
     5
100
AcDbLine
 10
-10931.3165273609
 20
-688.664900969453
 30
0.0
 11
-10931.6259208792
 21
-688.681097467409
 31
0.0
  0
LINE
  5
295
330
1F
100
AcDbEntity
  8
0
  6
Continuous
 62
     5
100
AcDbLine
 10
-10931.6641621968
 20
-688.664903212947
 30
0.0
 11
-10931.3165273609
 21
-688.664900969453
 31
0.0
  0
LINE
  5
296
330
1F
100
AcDbEntity
  8
0
  6
Continuous
 62
     5
100
AcDbLine
 10
-10931.0071105376
 20
-688.681107553478
 30
0.0
 11
-10931.3165273609
 21
-688.664900969453
 31
0.0
  0
LINE
  5
297
330
1F
100
AcDbEntity
  8
0
  6
Continuous
 62
     5
100
AcDbLine
 10
-10931.4278833996
 20
-688.670730368295
 30
0.0
 11
-10931.6641621968
 21
-688.664903212947
 31
0.0
  0
LINE
  5
298
330
1F
100
AcDbEntity
  8
0
  6
Continuous
 62
     5
100
AcDbLine
 10
-10931.0071105376
 20
-688.681107553478
 30
0.0
 11
-10931.4278833996
 21
-688.670730368295
 31
0.0
  0
LINE
  5
299
330
1F
100
AcDbEntity
  8
0
  6
Continuous
 62
     5
100
AcDbLine
 10
-10684.807209499
 20
-726.468156257499
 30
0.0
 11
-10684.8213671044
 21
-726.465973757543
 31
0.0
  0
LINE
  5
29A
330
1F
100
AcDbEntity
  8
0
  6
Continuous
 62
     5
100
AcDbLine
 10
-10964.7765157619
 20
-688.664900102427
 30
0.0
 11
-10963.046525802
 21
-688.66490326513
 31
0.0
  0
LINE
  5
29B
330
1F
100
AcDbEntity
  8
0
  6
Continuous
 62
     5
100
AcDbLine
 10
-11057.8888727719
 20
-688.664880283476
 30
0.0
 11
-11058.2365148237
 21
-688.664880049585
 31
0.0
  0
LINE
  5
29C
330
1F
100
AcDbEntity
  8
0
  6
Continuous
 62
     5
100
AcDbLine
 10
-11057.8888727719
 20
-688.664880283476
 30
0.0
 11
-11058.5459218595
 21
-688.681104172733
 31
0.0
  0
LINE
  5
29D
330
1F
100
AcDbEntity
  8
0
  6
Continuous
 62
     5
100
AcDbLine
 10
-10932.2312003929
 20
-688.809763344666
 30
0.0
 11
-10932.5204626545
 21
-688.920796187772
 31
0.0
  0
LINE
  5
29E
330
1F
100
AcDbEntity
  8
0
  6
Continuous
 62
     5
100
AcDbLine
 10
-10931.9319460727
 20
-688.729587082571
 30
0.0
 11
-10932.2312003929
 21
-688.809763344666
 31
0.0
  0
LINE
  5
29F
330
1F
100
AcDbEntity
  8
0
  6
Continuous
 62
     5
100
AcDbLine
 10
-10931.6259208792
 20
-688.681097467409
 30
0.0
 11
-10931.9319460727
 21
-688.729587082571
 31
0.0
  0
LINE
  5
2A0
330
1F
100
AcDbEntity
  8
0
  6
Continuous
 62
     5
100
AcDbLine
 10
-10931.6641621968
 20
-688.664903212947
 30
0.0
 11
-10931.6259208792
 21
-688.681097467409
 31
0.0
  0
LINE
  5
2A1
330
1F
100
AcDbEntity
  8
0
  6
Continuous
 62
     5
100
AcDbLine
 10
-10931.6641621968
 20
-688.664903212947
 30
0.0
 11
-10931.3165273609
 21
-688.664900969453
 31
0.0
  0
LINE
  5
2A2
330
1F
100
AcDbEntity
  8
0
  6
Continuous
 62
     5
100
AcDbLine
 10
-11304.7458260797
 20
-726.468164381507
 30
0.0
 11
-11304.7316713005
 21
-726.465964045663
 31
0.0
  0
LINE
  5
2A3
330
1F
100
AcDbEntity
  8
0
  6
Continuous
 62
     5
100
AcDbLine
 10
-11058.6856025811
 20
-688.699154797122
 30
0.0
 11
-11058.5459218595
 21
-688.681104172733
 31
0.0
  0
LINE
  5
2A4
330
1F
100
AcDbEntity
  8
0
  6
Continuous
 62
     5
100
AcDbLine
 10
-11057.8888727719
 20
-688.664880283476
 30
0.0
 11
-11057.9271151259
 21
-688.681113020113
 31
0.0
  0
LINE
  5
2A5
330
1F
100
AcDbEntity
  8
0
  6
Continuous
 62
     5
100
AcDbLine
 10
-11058.1252597246
 20
-688.670717161765
 30
0.0
 11
-11057.9271151259
 21
-688.681113020113
 31
0.0
  0
LINE
  5
2A6
330
1F
100
AcDbEntity
  8
0
  6
Continuous
 62
     5
100
AcDbLine
 10
-11058.2365148237
 20
-688.664880049585
 30
0.0
 11
-11058.1252597246
 21
-688.670717161765
 31
0.0
  0
LINE
  5
2A7
330
1F
100
AcDbEntity
  8
0
  6
Continuous
 62
     5
100
AcDbLine
 10
-11058.2365148237
 20
-688.664880049585
 30
0.0
 11
-11057.8888727719
 21
-688.664880283476
 31
0.0
  0
LINE
  5
2A8
330
1F
100
AcDbEntity
  8
0
  6
Continuous
 62
     5
100
AcDbLine
 10
-11058.5459218595
 20
-688.681104172733
 30
0.0
 11
-11058.2365148237
 21
-688.664880049585
 31
0.0
  0
LINE
  5
2A9
330
1F
100
AcDbEntity
  8
0
  6
Continuous
 62
     5
100
AcDbLine
 10
-11057.6211021861
 20
-688.729578578675
 30
0.0
 11
-11057.9271151259
 21
-688.681113020113
 31
0.0
  0
LINE
  5
2AA
330
1F
100
AcDbEntity
  8
0
  6
Continuous
 62
     5
100
AcDbLine
 10
-11026.5065127746
 20
-688.664878992599
 30
0.0
 11
-11024.7765154066
 21
-688.664882155318
 31
0.0
  0
LINE
  5
2AB
330
1F
100
AcDbEntity
  8
0
  6
Continuous
 62
     5
100
AcDbLine
 10
-11057.3218311821
 20
-688.809770148236
 30
0.0
 11
-11057.6211021861
 21
-688.729578578675
 31
0.0
  0
LINE
  5
2AC
330
1F
100
AcDbEntity
  8
0
  6
Continuous
 62
     5
100
AcDbLine
 10
-10963.046525802
 20
-688.66490326513
 30
0.0
 11
-10931.6641621968
 21
-688.664903212947
 31
0.0
  0
LINE
  5
2AD
330
1F
100
AcDbEntity
  8
0
  6
Continuous
 62
     5
100
AcDbLine
 10
-11057.8888727719
 20
-688.664880283476
 30
0.0
 11
-11026.5065127746
 21
-688.664878992599
 31
0.0
  0
LINE
  5
2AE
330
1F
100
AcDbEntity
  8
0
  6
Continuous
 62
     5
100
AcDbLine
 10
-10931.6641621968
 20
-688.664903212947
 30
0.0
 11
-11057.8888727719
 21
-688.664880283476
 31
0.0
  0
LINE
  5
2AF
330
1F
100
AcDbEntity
  8
0
  6
Continuous
 62
     5
100
AcDbLine
 10
-10682.2765246728
 20
-729.431247322502
 30
0.0
 11
-10682.2765336603
 21
-732.933720366841
 31
0.0
  0
LINE
  5
2B0
330
1F
100
AcDbEntity
  8
0
  6
Continuous
 62
     5
100
AcDbLine
 10
-11307.2765173431
 20
-732.933725513013
 30
0.0
 11
-11307.2765173431
 21
-729.431235513012
 31
0.0
  0
LINE
  5
2B1
330
1F
100
AcDbEntity
  8
0
  6
Continuous
 62
     5
100
AcDbLine
 10
-10930.8674307838
 20
-688.699151712904
 30
0.0
 11
-10684.8213671044
 21
-726.465973757543
 31
0.0
  0
LINE
  5
2B2
330
1F
100
AcDbEntity
  8
0
  6
Continuous
 62
     5
100
AcDbLine
 10
-11304.7316713005
 20
-726.465964045663
 30
0.0
 11
-11058.6856025811
 21
-688.699154797122
 31
0.0
  0
LINE
  5
2B3
330
1F
100
AcDbEntity
  8
0
  6
Continuous
 62
     5
100
AcDbLine
 10
-11298.7765173431
 20
-736.493747619313
 30
0.0
 11
-11304.1165596623
 21
-732.933743968558
 31
0.0
  0
LINE
  5
2B4
330
1F
100
AcDbEntity
  8
0
  6
Continuous
 62
     5
100
AcDbLine
 10
-10685.4364773866
 20
-732.933730943872
 30
0.0
 11
-10690.7765226356
 21
-736.493751795891
 31
0.0
  0
LINE
  5
2B5
330
1F
100
AcDbEntity
  8
0
  6
Continuous
 62
     5
100
AcDbLine
 10
-11289.5171782378
 20
-741.493747619313
 30
0.0
 11
-11289.517189258
 21
-736.493760892602
 31
0.0
  0
LINE
  5
2B6
330
1F
100
AcDbEntity
  8
0
  6
Continuous
 62
     5
100
AcDbLine
 10
-10700.0358692293
 20
-736.493751801614
 30
0.0
 11
-10700.0358532765
 21
-741.493763782852
 31
0.0
  0
LINE
  5
2B7
330
1F
100
AcDbEntity
  8
0
  6
Continuous
 62
     5
100
AcDbLine
 10
-10684.6527718607
 20
-726.49678457259
 30
0.0
 11
-10684.807209499
 21
-726.468156257499
 31
0.0
  0
LINE
  5
2B8
330
1F
100
AcDbEntity
  8
0
  6
Continuous
 62
     5
100
AcDbLine
 10
-10684.5000663317
 20
-726.533465513574
 30
0.0
 11
-10684.6527718607
 21
-726.49678457259
 31
0.0
  0
LINE
  5
2B9
330
1F
100
AcDbEntity
  8
0
  6
Continuous
 62
     5
100
AcDbLine
 10
-10684.3494681428
 20
-726.578070256577
 30
0.0
 11
-10684.5000663317
 21
-726.533465513574
 31
0.0
  0
LINE
  5
2BA
330
1F
100
AcDbEntity
  8
0
  6
Continuous
 62
     5
100
AcDbLine
 10
-10684.2014201615
 20
-726.630479022548
 30
0.0
 11
-10684.3494681428
 21
-726.578070256577
 31
0.0
  0
LINE
  5
2BB
330
1F
100
AcDbEntity
  8
0
  6
Continuous
 62
     5
100
AcDbLine
 10
-10684.056307528
 20
-726.690591851496
 30
0.0
 11
-10684.2014201615
 21
-726.630479022548
 31
0.0
  0
LINE
  5
2BC
330
1F
100
AcDbEntity
  8
0
  6
Continuous
 62
     5
100
AcDbLine
 10
-10683.9145433815
 20
-726.758202372721
 30
0.0
 11
-10684.056307528
 21
-726.690591851496
 31
0.0
  0
LINE
  5
2BD
330
1F
100
AcDbEntity
  8
0
  6
Continuous
 62
     5
100
AcDbLine
 10
-10683.7765219068
 20
-726.833142988934
 30
0.0
 11
-10683.9145433815
 21
-726.758202372721
 31
0.0
  0
LINE
  5
2BE
330
1F
100
AcDbEntity
  8
0
  6
Continuous
 62
     5
100
AcDbLine
 10
-10683.6425985153
 20
-726.91522714849
 30
0.0
 11
-10683.7765219068
 21
-726.833142988934
 31
0.0
  0
LINE
  5
2BF
330
1F
100
AcDbEntity
  8
0
  6
Continuous
 62
     5
100
AcDbLine
 10
-10683.5131665272
 20
-727.004190752918
 30
0.0
 11
-10683.6425985153
 21
-726.91522714849
 31
0.0
  0
LINE
  5
2C0
330
1F
100
AcDbEntity
  8
0
  6
Continuous
 62
     5
100
AcDbLine
 10
-10683.388561535
 20
-727.099789522808
 30
0.0
 11
-10683.5131665272
 21
-727.004190752918
 31
0.0
  0
LINE
  5
2C1
330
1F
100
AcDbEntity
  8
0
  6
Continuous
 62
     5
100
AcDbLine
 10
-10683.2691290404
 20
-727.20180804263
 30
0.0
 11
-10683.388561535
 21
-727.099789522808
 31
0.0
  0
LINE
  5
2C2
330
1F
100
AcDbEntity
  8
0
  6
Continuous
 62
     5
100
AcDbLine
 10
-10683.1552037711
 20
-727.309905531791
 30
0.0
 11
-10683.2691290404
 21
-727.20180804263
 31
0.0
  0
LINE
  5
2C3
330
1F
100
AcDbEntity
  8
0
  6
Continuous
 62
     5
100
AcDbLine
 10
-10683.0470924557
 20
-727.423847620409
 30
0.0
 11
-10683.1552037711
 21
-727.309905531791
 31
0.0
  0
LINE
  5
2C4
330
1F
100
AcDbEntity
  8
0
  6
Continuous
 62
     5
100
AcDbLine
 10
-10682.9450910485
 20
-727.543274573531
 30
0.0
 11
-10683.0470924557
 21
-727.423847620409
 31
0.0
  0
LINE
  5
2C5
330
1F
100
AcDbEntity
  8
0
  6
Continuous
 62
     5
100
AcDbLine
 10
-10682.8494765492
 20
-727.667865429623
 30
0.0
 11
-10682.9450910485
 21
-727.543274573531
 31
0.0
  0
LINE
  5
2C6
330
1F
100
AcDbEntity
  8
0
  6
Continuous
 62
     5
100
AcDbLine
 10
-10682.760497094
 20
-727.797309136679
 30
0.0
 11
-10682.8494765492
 21
-727.667865429623
 31
0.0
  0
LINE
  5
2C7
330
1F
100
AcDbEntity
  8
0
  6
Continuous
 62
     5
100
AcDbLine
 10
-10682.6784486372
 20
-727.931245959748
 30
0.0
 11
-10682.760497094
 21
-727.797309136679
 31
0.0
  0
LINE
  5
2C8
330
1F
100
AcDbEntity
  8
0
  6
Continuous
 62
     5
100
AcDbLine
 10
-10682.6035108126
 20
-728.069259300817
 30
0.0
 11
-10682.6784486372
 21
-727.931245959748
 31
0.0
  0
LINE
  5
2C9
330
1F
100
AcDbEntity
  8
0
  6
Continuous
 62
     5
100
AcDbLine
 10
-10682.535892983
 20
-728.211019153519
 30
0.0
 11
-10682.6035108126
 21
-728.069259300817
 31
0.0
  0
LINE
  5
2CA
330
1F
100
AcDbEntity
  8
0
  6
Continuous
 62
     5
100
AcDbLine
 10
-10682.475784692
 20
-728.356137783727
 30
0.0
 11
-10682.535892983
 21
-728.211019153519
 31
0.0
  0
LINE
  5
2CB
330
1F
100
AcDbEntity
  8
0
  6
Continuous
 62
     5
100
AcDbLine
 10
-10682.4233556639
 20
-728.504169729541
 30
0.0
 11
-10682.475784692
 21
-728.356137783727
 31
0.0
  0
LINE
  5
2CC
330
1F
100
AcDbEntity
  8
0
  6
Continuous
 62
     5
100
AcDbLine
 10
-10682.3787476241
 20
-728.654775939771
 30
0.0
 11
-10682.4233556639
 21
-728.504169729541
 31
0.0
  0
LINE
  5
2CD
330
1F
100
AcDbEntity
  8
0
  6
Continuous
 62
     5
100
AcDbLine
 10
-10682.3420915238
 20
-728.807491998162
 30
0.0
 11
-10682.3787476241
 21
-728.654775939771
 31
0.0
  0
LINE
  5
2CE
330
1F
100
AcDbEntity
  8
0
  6
Continuous
 62
     5
100
AcDbLine
 10
-10682.3134515413
 20
-728.961940944816
 30
0.0
 11
-10682.3420915238
 21
-728.807491998162
 31
0.0
  0
LINE
  5
2CF
330
1F
100
AcDbEntity
  8
0
  6
Continuous
 62
     5
100
AcDbLine
 10
-10682.2929586278
 20
-729.117658363477
 30
0.0
 11
-10682.3134515413
 21
-728.961940944816
 31
0.0
  0
LINE
  5
2D0
330
1F
100
AcDbEntity
  8
0
  6
Continuous
 62
     5
100
AcDbLine
 10
-10682.2806282788
 20
-729.274219476005
 30
0.0
 11
-10682.2929586278
 21
-729.117658363477
 31
0.0
  0
LINE
  5
2D1
330
1F
100
AcDbEntity
  8
0
  6
Continuous
 62
     5
100
AcDbLine
 10
-10682.2765246728
 20
-729.431247322502
 30
0.0
 11
-10682.2806282788
 21
-729.274219476005
 31
0.0
  0
LINE
  5
2D2
330
1F
100
AcDbEntity
  8
0
  6
Continuous
 62
     5
100
AcDbLine
 10
-11304.9002506849
 20
-726.496780454866
 30
0.0
 11
-11304.7458260797
 21
-726.468164381507
 31
0.0
  0
LINE
  5
2D3
330
1F
100
AcDbEntity
  8
0
  6
Continuous
 62
     5
100
AcDbLine
 10
-11305.0529766528
 20
-726.533465419113
 30
0.0
 11
-11304.9002506849
 21
-726.496780454866
 31
0.0
  0
LINE
  5
2D4
330
1F
100
AcDbEntity
  8
0
  6
Continuous
 62
     5
100
AcDbLine
 10
-11305.2035729535
 20
-726.578044594989
 30
0.0
 11
-11305.0529766528
 21
-726.533465419113
 31
0.0
  0
LINE
  5
2D5
330
1F
100
AcDbEntity
  8
0
  6
Continuous
 62
     5
100
AcDbLine
 10
-11305.3516391504
 20
-726.630526396067
 30
0.0
 11
-11305.2035729535
 21
-726.578044594989
 31
0.0
  0
LINE
  5
2D6
330
1F
100
AcDbEntity
  8
0
  6
Continuous
 62
     5
100
AcDbLine
 10
-11305.4967334391
 20
-726.690610778022
 30
0.0
 11
-11305.3516391504
 21
-726.630526396067
 31
0.0
  0
LINE
  5
2D7
330
1F
100
AcDbEntity
  8
0
  6
Continuous
 62
     5
100
AcDbLine
 10
-11305.6384932918
 20
-726.758228607603
 30
0.0
 11
-11305.4967334391
 21
-726.690610778022
 31
0.0
  0
LINE
  5
2D8
330
1F
100
AcDbEntity
  8
0
  6
Continuous
 62
     5
100
AcDbLine
 10
-11305.7765309743
 20
-726.833190341253
 30
0.0
 11
-11305.6384932918
 21
-726.758228607603
 31
0.0
  0
LINE
  5
2D9
330
1F
100
AcDbEntity
  8
0
  6
Continuous
 62
     5
100
AcDbLine
 10
-11305.9104389335
 20
-726.915248707654
 30
0.0
 11
-11305.7765309743
 21
-726.833190341253
 31
0.0
  0
LINE
  5
2DA
330
1F
100
AcDbEntity
  8
0
  6
Continuous
 62
     5
100
AcDbLine
 10
-11306.039887163
 20
-727.004194344193
 30
0.0
 11
-11305.9104389335
 21
-726.915248707654
 31
0.0
  0
LINE
  5
2DB
330
1F
100
AcDbEntity
  8
0
  6
Continuous
 62
     5
100
AcDbLine
 10
-11306.1644825415
 20
-727.099775024786
 30
0.0
 11
-11306.039887163
 21
-727.004194344193
 31
0.0
  0
LINE
  5
2DC
330
1F
100
AcDbEntity
  8
0
  6
Continuous
 62
     5
100
AcDbLine
 10
-11306.2839094946
 20
-727.201776432055
 30
0.0
 11
-11306.1644825415
 21
-727.099775024786
 31
0.0
  0
LINE
  5
2DD
330
1F
100
AcDbEntity
  8
0
  6
Continuous
 62
     5
100
AcDbLine
 10
-11306.3978470608
 20
-727.309921566092
 30
0.0
 11
-11306.2839094946
 21
-727.201776432055
 31
0.0
  0
LINE
  5
2DE
330
1F
100
AcDbEntity
  8
0
  6
Continuous
 62
     5
100
AcDbLine
 10
-11306.5059688915
 20
-727.423870744458
 30
0.0
 11
-11306.3978470608
 21
-727.309921566092
 31
0.0
  0
LINE
  5
2DF
330
1F
100
AcDbEntity
  8
0
  6
Continuous
 62
     5
100
AcDbLine
 10
-11306.6079630698
 20
-727.543279329946
 30
0.0
 11
-11306.5059688915
 21
-727.423870744458
 31
0.0
  0
LINE
  5
2E0
330
1F
100
AcDbEntity
  8
0
  6
Continuous
 62
     5
100
AcDbLine
 10
-11306.7035861812
 20
-727.667908231356
 30
0.0
 11
-11306.6079630698
 21
-727.543279329946
 31
0.0
  0
LINE
  5
2E1
330
1F
100
AcDbEntity
  8
0
  6
Continuous
 62
     5
100
AcDbLine
 10
-11306.7925353537
 20
-727.797345174189
 30
0.0
 11
-11306.7035861812
 21
-727.667908231356
 31
0.0
  0
LINE
  5
2E2
330
1F
100
AcDbEntity
  8
0
  6
Continuous
 62
     5
100
AcDbLine
 10
-11306.8745852622
 20
-727.931215792649
 30
0.0
 11
-11306.7925353537
 21
-727.797345174189
 31
0.0
  0
LINE
  5
2E3
330
1F
100
AcDbEntity
  8
0
  6
Continuous
 62
     5
100
AcDbLine
 10
-11306.949535788
 20
-728.069266131248
 30
0.0
 11
-11306.8745852622
 21
-727.931215792649
 31
0.0
  0
LINE
  5
2E4
330
1F
100
AcDbEntity
  8
0
  6
Continuous
 62
     5
100
AcDbLine
 10
-11307.0171706507
 20
-728.211054186896
 30
0.0
 11
-11306.949535788
 21
-728.069266131248
 31
0.0
  0
LINE
  5
2E5
330
1F
100
AcDbEntity
  8
0
  6
Continuous
 62
     5
100
AcDbLine
 10
-11307.0772591381
 20
-728.356142911266
 30
0.0
 11
-11307.0171706507
 21
-728.211054186896
 31
0.0
  0
LINE
  5
2E6
330
1F
100
AcDbEntity
  8
0
  6
Continuous
 62
     5
100
AcDbLine
 10
-11307.129696768
 20
-728.504180982982
 30
0.0
 11
-11307.0772591381
 21
-728.356142911266
 31
0.0
  0
LINE
  5
2E7
330
1F
100
AcDbEntity
  8
0
  6
Continuous
 62
     5
100
AcDbLine
 10
-11307.174301511
 20
-728.654779171963
 30
0.0
 11
-11307.129696768
 21
-728.504180982982
 31
0.0
  0
LINE
  5
2E8
330
1F
100
AcDbEntity
  8
0
  6
Continuous
 62
     5
100
AcDbLine
 10
-11307.2109779296
 20
-728.807518519533
 30
0.0
 11
-11307.174301511
 21
-728.654779171963
 31
0.0
  0
LINE
  5
2E9
330
1F
100
AcDbEntity
  8
0
  6
Continuous
 62
     5
100
AcDbLine
 10
-11307.2395819032
 20
-728.96193224878
 30
0.0
 11
-11307.2109779296
 21
-728.807518519533
 31
0.0
  0
LINE
  5
2EA
330
1F
100
AcDbEntity
  8
0
  6
Continuous
 62
     5
100
AcDbLine
 10
-11307.2600811092
 20
-729.11764426451
 30
0.0
 11
-11307.2395819032
 21
-728.96193224878
 31
0.0
  0
LINE
  5
2EB
330
1F
100
AcDbEntity
  8
0
  6
Continuous
 62
     5
100
AcDbLine
 10
-11307.2724089738
 20
-729.274225698518
 30
0.0
 11
-11307.2600811092
 21
-729.11764426451
 31
0.0
  0
LINE
  5
2EC
330
1F
100
AcDbEntity
  8
0
  6
Continuous
 62
     5
100
AcDbLine
 10
-11307.2765173431
 20
-729.431235513012
 30
0.0
 11
-11307.2724089738
 21
-729.274225698518
 31
0.0
  0
LINE
  5
2ED
330
1F
100
AcDbEntity
  8
0
  6
Continuous
 62
     5
100
AcDbLine
 10
-11058.6856025811
 20
-688.699154797122
 30
0.0
 11
-11023.7906365063
 21
-688.699167186769
 31
0.0
  0
LINE
  5
2EE
330
1F
100
AcDbEntity
  8
0
  6
Continuous
 62
     5
100
AcDbLine
 10
-11023.7906365063
 20
-688.699167186769
 30
0.0
 11
-10930.8674307838
 21
-688.699151712904
 31
0.0
  0
LINE
  5
2EF
330
1F
100
AcDbEntity
  8
0
  6
Continuous
 62
     5
100
AcDbLine
 10
-11289.5171782378
 20
-741.493747619313
 30
0.0
 11
-10994.7765277228
 21
-741.493763373582
 31
0.0
  0
LINE
  5
2F0
330
1F
100
AcDbEntity
  8
0
  6
Continuous
 62
     5
100
AcDbLine
 10
-10994.7765277228
 20
-741.493763373582
 30
0.0
 11
-10700.0358532765
 21
-741.493763782852
 31
0.0
  0
LINE
  5
2F1
330
1F
100
AcDbEntity
  8
1
  6
Continuous
 62
     5
100
AcDbLine
 10
-11307.2765173431
 20
-732.933725513013
 30
0.0
 11
-11304.1165596623
 21
-732.933743968558
 31
0.0
  0
LINE
  5
2F2
330
1F
100
AcDbEntity
  8
1
  6
Continuous
 62
     5
100
AcDbLine
 10
-11298.7765173431
 20
-736.493747619313
 30
0.0
 11
-11289.517189258
 21
-736.493760892602
 31
0.0
  0
LINE
  5
2F3
330
1F
100
AcDbEntity
  8
1
  6
Continuous
 62
     5
100
AcDbLine
 10
-10700.0358692293
 20
-736.493751801614
 30
0.0
 11
-10690.7765226356
 21
-736.493751795891
 31
0.0
  0
LINE
  5
2F4
330
1F
100
AcDbEntity
  8
1
  6
Continuous
 62
     5
100
AcDbLine
 10
-10685.4364773866
 20
-732.933730943872
 30
0.0
 11
-10682.2765336603
 21
-732.933720366841
 31
0.0
  0
LINE
  5
2F5
330
1F
100
AcDbEntity
  8
1
  6
Continuous
 62
     7
100
AcDbLine
 10
-18700.0750866019
 20
-444.449816003797
 30
0.0
 11
-18743.0813908959
 21
-462.036695268539
 31
0.0
  0
LINE
  5
2F6
330
1F
100
AcDbEntity
  8
1
  6
Continuous
 62
     7
100
AcDbLine
 10
-18742.7765415725
 20
-434.902430142202
 30
0.0
 11
-18710.997000078
 21
-421.906592240552
 31
0.0
  0
LINE
  5
2F7
330
1F
100
AcDbEntity
  8
1
  6
Continuous
 62
     7
100
AcDbLine
 10
-18645.2765602969
 20
-384.549198300707
 30
0.0
 11
-18645.2765602969
 21
-200.572244151696
 31
0.0
  0
LINE
  5
2F8
330
1F
100
AcDbEntity
  8
1
  6
Continuous
 62
     7
100
AcDbLine
 10
-18735.2765201887
 20
-384.549198300707
 30
0.0
 11
-18735.2765662359
 21
-200.572244151696
 31
0.0
  0
LINE
  5
2F9
330
1F
100
AcDbEntity
  8
1
  6
Continuous
 62
     7
100
AcDbLine
 10
-19246.7764899418
 20
-459.18157675432
 30
0.0
 11
-19222.9148386475
 21
-682.661955987832
 31
0.0
  0
LINE
  5
2FA
330
1F
100
AcDbEntity
  8
1
  6
Continuous
 62
     7
100
AcDbLine
 10
-19246.7764899418
 20
-459.18157675432
 30
0.0
 11
-19246.7764899418
 21
-321.041504703833
 31
0.0
  0
LINE
  5
2FB
330
1F
100
AcDbEntity
  8
1
  6
Continuous
 62
     7
100
AcDbLine
 10
-18766.6381937439
 20
-682.661955987832
 30
0.0
 11
-18742.7765424496
 21
-459.18157675432
 31
0.0
  0
LINE
  5
2FC
330
1F
100
AcDbEntity
  8
1
  6
Continuous
 62
     7
100
AcDbLine
 10
-18742.7765424496
 20
-321.041504703833
 30
0.0
 11
-18742.7765424496
 21
-459.18157675432
 31
0.0
  0
LINE
  5
2FD
330
1F
100
AcDbEntity
  8
1
  6
Continuous
 62
     7
100
AcDbLine
 10
-19246.4716406184
 20
-462.036695268539
 30
0.0
 11
-19289.4779449124
 21
-444.449816003797
 31
0.0
  0
LINE
  5
2FE
330
1F
100
AcDbEntity
  8
1
  6
Continuous
 62
     7
100
AcDbLine
 10
-19278.5560314363
 20
-421.906592240552
 30
0.0
 11
-19246.7764899418
 21
-434.902430142202
 31
0.0
  0
LINE
  5
2FF
330
1F
100
AcDbEntity
  8
1
  6
Continuous
 62
     7
100
AcDbLine
 10
-18742.7765424496
 20
-308.672840536613
 30
0.0
 11
-18764.1959221839
 21
364.286111729833
 31
0.0
  0
LINE
  5
300
330
1F
100
AcDbEntity
  8
1
  6
Continuous
 62
     7
100
AcDbLine
 10
-19225.3571102075
 20
364.286111729833
 30
0.0
 11
-19246.7764899418
 21
-308.672840536613
 31
0.0
  0
LINE
  5
301
330
1F
100
AcDbEntity
  8
1
  6
Continuous
 62
     7
100
AcDbLine
 10
-19254.2764652784
 20
-200.572244151696
 30
0.0
 11
-19254.2765113256
 21
-384.549198300707
 31
0.0
  0
LINE
  5
302
330
1F
100
AcDbEntity
  8
1
  6
Continuous
 62
     7
100
AcDbLine
 10
-19344.2764712174
 20
-200.572244151696
 30
0.0
 11
-19344.2764712174
 21
-384.549198300707
 31
0.0
  0
LINE
  5
303
330
1F
100
AcDbEntity
  8
0
  6
Continuous
 62
     5
100
AcDbLine
 10
-19024.7765156083
 20
-682.661955987832
 30
0.0
 11
-19024.7765154066
 21
-688.664882155318
 31
0.0
  0
LINE
  5
304
330
1F
100
AcDbEntity
  8
0
  6
Continuous
 62
     5
100
AcDbLine
 10
-18964.7765157619
 20
-688.664900102427
 30
0.0
 11
-18964.7765160167
 21
-682.661955987832
 31
0.0
  0
LINE
  5
305
330
1F
100
AcDbEntity
  8
0
  6
Continuous
 62
     5
100
AcDbLine
 10
-18930.8674307838
 20
-688.699151712904
 30
0.0
 11
-18931.0071105376
 21
-688.681107553478
 31
0.0
  0
LINE
  5
306
330
1F
100
AcDbEntity
  8
0
  6
Continuous
 62
     5
100
AcDbLine
 10
-18931.3165273609
 20
-688.664900969453
 30
0.0
 11
-18931.6259208792
 21
-688.681097467409
 31
0.0
  0
LINE
  5
307
330
1F
100
AcDbEntity
  8
0
  6
Continuous
 62
     5
100
AcDbLine
 10
-18931.6641621968
 20
-688.664903212947
 30
0.0
 11
-18931.3165273609
 21
-688.664900969453
 31
0.0
  0
LINE
  5
308
330
1F
100
AcDbEntity
  8
0
  6
Continuous
 62
     5
100
AcDbLine
 10
-18931.0071105376
 20
-688.681107553478
 30
0.0
 11
-18931.3165273609
 21
-688.664900969453
 31
0.0
  0
LINE
  5
309
330
1F
100
AcDbEntity
  8
0
  6
Continuous
 62
     5
100
AcDbLine
 10
-18931.4278833996
 20
-688.670730368295
 30
0.0
 11
-18931.6641621968
 21
-688.664903212947
 31
0.0
  0
LINE
  5
30A
330
1F
100
AcDbEntity
  8
0
  6
Continuous
 62
     5
100
AcDbLine
 10
-18931.0071105376
 20
-688.681107553478
 30
0.0
 11
-18931.4278833996
 21
-688.670730368295
 31
0.0
  0
LINE
  5
30B
330
1F
100
AcDbEntity
  8
0
  6
Continuous
 62
     5
100
AcDbLine
 10
-18684.807209499
 20
-726.468156257499
 30
0.0
 11
-18684.8213671044
 21
-726.465973757543
 31
0.0
  0
LINE
  5
30C
330
1F
100
AcDbEntity
  8
0
  6
Continuous
 62
     5
100
AcDbLine
 10
-18964.7765157619
 20
-688.664900102427
 30
0.0
 11
-18963.046525802
 21
-688.66490326513
 31
0.0
  0
LINE
  5
30D
330
1F
100
AcDbEntity
  8
0
  6
Continuous
 62
     5
100
AcDbLine
 10
-19057.8888727719
 20
-688.664880283476
 30
0.0
 11
-19058.2365148237
 21
-688.664880049585
 31
0.0
  0
LINE
  5
30E
330
1F
100
AcDbEntity
  8
0
  6
Continuous
 62
     5
100
AcDbLine
 10
-19057.8888727719
 20
-688.664880283476
 30
0.0
 11
-19058.5459218595
 21
-688.681104172733
 31
0.0
  0
LINE
  5
30F
330
1F
100
AcDbEntity
  8
0
  6
Continuous
 62
     5
100
AcDbLine
 10
-18932.2312003929
 20
-688.809763344666
 30
0.0
 11
-18932.5204626545
 21
-688.920796187772
 31
0.0
  0
LINE
  5
310
330
1F
100
AcDbEntity
  8
0
  6
Continuous
 62
     5
100
AcDbLine
 10
-18931.9319460727
 20
-688.729587082571
 30
0.0
 11
-18932.2312003929
 21
-688.809763344666
 31
0.0
  0
LINE
  5
311
330
1F
100
AcDbEntity
  8
0
  6
Continuous
 62
     5
100
AcDbLine
 10
-18931.6259208792
 20
-688.681097467409
 30
0.0
 11
-18931.9319460727
 21
-688.729587082571
 31
0.0
  0
LINE
  5
312
330
1F
100
AcDbEntity
  8
0
  6
Continuous
 62
     5
100
AcDbLine
 10
-18931.6641621968
 20
-688.664903212947
 30
0.0
 11
-18931.6259208792
 21
-688.681097467409
 31
0.0
  0
LINE
  5
313
330
1F
100
AcDbEntity
  8
0
  6
Continuous
 62
     5
100
AcDbLine
 10
-18931.6641621968
 20
-688.664903212947
 30
0.0
 11
-18931.3165273609
 21
-688.664900969453
 31
0.0
  0
LINE
  5
314
330
1F
100
AcDbEntity
  8
0
  6
Continuous
 62
     5
100
AcDbLine
 10
-19304.7458260797
 20
-726.468164381507
 30
0.0
 11
-19304.7316713005
 21
-726.465964045663
 31
0.0
  0
LINE
  5
315
330
1F
100
AcDbEntity
  8
0
  6
Continuous
 62
     5
100
AcDbLine
 10
-19058.6856025811
 20
-688.699154797122
 30
0.0
 11
-19058.5459218595
 21
-688.681104172733
 31
0.0
  0
LINE
  5
316
330
1F
100
AcDbEntity
  8
0
  6
Continuous
 62
     5
100
AcDbLine
 10
-19057.8888727719
 20
-688.664880283476
 30
0.0
 11
-19057.9271151259
 21
-688.681113020113
 31
0.0
  0
LINE
  5
317
330
1F
100
AcDbEntity
  8
0
  6
Continuous
 62
     5
100
AcDbLine
 10
-19058.1252597246
 20
-688.670717161765
 30
0.0
 11
-19057.9271151259
 21
-688.681113020113
 31
0.0
  0
LINE
  5
318
330
1F
100
AcDbEntity
  8
0
  6
Continuous
 62
     5
100
AcDbLine
 10
-19058.2365148237
 20
-688.664880049585
 30
0.0
 11
-19058.1252597246
 21
-688.670717161765
 31
0.0
  0
LINE
  5
319
330
1F
100
AcDbEntity
  8
0
  6
Continuous
 62
     5
100
AcDbLine
 10
-19058.2365148237
 20
-688.664880049585
 30
0.0
 11
-19057.8888727719
 21
-688.664880283476
 31
0.0
  0
LINE
  5
31A
330
1F
100
AcDbEntity
  8
0
  6
Continuous
 62
     5
100
AcDbLine
 10
-19058.5459218595
 20
-688.681104172733
 30
0.0
 11
-19058.2365148237
 21
-688.664880049585
 31
0.0
  0
LINE
  5
31B
330
1F
100
AcDbEntity
  8
0
  6
Continuous
 62
     5
100
AcDbLine
 10
-19057.6211021861
 20
-688.729578578675
 30
0.0
 11
-19057.9271151259
 21
-688.681113020113
 31
0.0
  0
LINE
  5
31C
330
1F
100
AcDbEntity
  8
0
  6
Continuous
 62
     5
100
AcDbLine
 10
-19026.5065127746
 20
-688.664878992599
 30
0.0
 11
-19024.7765154066
 21
-688.664882155318
 31
0.0
  0
LINE
  5
31D
330
1F
100
AcDbEntity
  8
0
  6
Continuous
 62
     5
100
AcDbLine
 10
-19057.3218311821
 20
-688.809770148236
 30
0.0
 11
-19057.6211021861
 21
-688.729578578675
 31
0.0
  0
LINE
  5
31E
330
1F
100
AcDbEntity
  8
0
  6
Continuous
 62
     5
100
AcDbLine
 10
-18963.046525802
 20
-688.66490326513
 30
0.0
 11
-18931.6641621968
 21
-688.664903212947
 31
0.0
  0
LINE
  5
31F
330
1F
100
AcDbEntity
  8
0
  6
Continuous
 62
     5
100
AcDbLine
 10
-19057.8888727719
 20
-688.664880283476
 30
0.0
 11
-19026.5065127746
 21
-688.664878992599
 31
0.0
  0
LINE
  5
320
330
1F
100
AcDbEntity
  8
0
  6
Continuous
 62
     5
100
AcDbLine
 10
-18931.6641621968
 20
-688.664903212947
 30
0.0
 11
-19057.8888727719
 21
-688.664880283476
 31
0.0
  0
LINE
  5
321
330
1F
100
AcDbEntity
  8
0
  6
Continuous
 62
     5
100
AcDbLine
 10
-18682.2765246728
 20
-729.431247322502
 30
0.0
 11
-18682.2765336603
 21
-732.933720366841
 31
0.0
  0
LINE
  5
322
330
1F
100
AcDbEntity
  8
0
  6
Continuous
 62
     5
100
AcDbLine
 10
-19307.2765173431
 20
-732.933725513013
 30
0.0
 11
-19307.2765173431
 21
-729.431235513012
 31
0.0
  0
LINE
  5
323
330
1F
100
AcDbEntity
  8
0
  6
Continuous
 62
     5
100
AcDbLine
 10
-18930.8674307838
 20
-688.699151712904
 30
0.0
 11
-18684.8213671044
 21
-726.465973757543
 31
0.0
  0
LINE
  5
324
330
1F
100
AcDbEntity
  8
0
  6
Continuous
 62
     5
100
AcDbLine
 10
-19304.7316713005
 20
-726.465964045663
 30
0.0
 11
-19058.6856025811
 21
-688.699154797122
 31
0.0
  0
LINE
  5
325
330
1F
100
AcDbEntity
  8
0
  6
Continuous
 62
     5
100
AcDbLine
 10
-19298.7765173431
 20
-736.493747619313
 30
0.0
 11
-19304.1165596622
 21
-732.933743968558
 31
0.0
  0
LINE
  5
326
330
1F
100
AcDbEntity
  8
0
  6
Continuous
 62
     5
100
AcDbLine
 10
-18685.4364773866
 20
-732.933730943872
 30
0.0
 11
-18690.7765226356
 21
-736.493751795891
 31
0.0
  0
LINE
  5
327
330
1F
100
AcDbEntity
  8
0
  6
Continuous
 62
     5
100
AcDbLine
 10
-19289.5171782378
 20
-741.493747619313
 30
0.0
 11
-19289.517189258
 21
-736.493760892602
 31
0.0
  0
LINE
  5
328
330
1F
100
AcDbEntity
  8
0
  6
Continuous
 62
     5
100
AcDbLine
 10
-18700.0358692293
 20
-736.493751801614
 30
0.0
 11
-18700.0358532765
 21
-741.493763782852
 31
0.0
  0
LINE
  5
329
330
1F
100
AcDbEntity
  8
0
  6
Continuous
 62
     5
100
AcDbLine
 10
-18684.6527718607
 20
-726.49678457259
 30
0.0
 11
-18684.807209499
 21
-726.468156257499
 31
0.0
  0
LINE
  5
32A
330
1F
100
AcDbEntity
  8
0
  6
Continuous
 62
     5
100
AcDbLine
 10
-18684.5000663317
 20
-726.533465513574
 30
0.0
 11
-18684.6527718607
 21
-726.49678457259
 31
0.0
  0
LINE
  5
32B
330
1F
100
AcDbEntity
  8
0
  6
Continuous
 62
     5
100
AcDbLine
 10
-18684.3494681428
 20
-726.578070256577
 30
0.0
 11
-18684.5000663317
 21
-726.533465513574
 31
0.0
  0
LINE
  5
32C
330
1F
100
AcDbEntity
  8
0
  6
Continuous
 62
     5
100
AcDbLine
 10
-18684.2014201615
 20
-726.630479022548
 30
0.0
 11
-18684.3494681428
 21
-726.578070256577
 31
0.0
  0
LINE
  5
32D
330
1F
100
AcDbEntity
  8
0
  6
Continuous
 62
     5
100
AcDbLine
 10
-18684.056307528
 20
-726.690591851496
 30
0.0
 11
-18684.2014201615
 21
-726.630479022548
 31
0.0
  0
LINE
  5
32E
330
1F
100
AcDbEntity
  8
0
  6
Continuous
 62
     5
100
AcDbLine
 10
-18683.9145433815
 20
-726.758202372721
 30
0.0
 11
-18684.056307528
 21
-726.690591851496
 31
0.0
  0
LINE
  5
32F
330
1F
100
AcDbEntity
  8
0
  6
Continuous
 62
     5
100
AcDbLine
 10
-18683.7765219068
 20
-726.833142988934
 30
0.0
 11
-18683.9145433815
 21
-726.758202372721
 31
0.0
  0
LINE
  5
330
330
1F
100
AcDbEntity
  8
0
  6
Continuous
 62
     5
100
AcDbLine
 10
-18683.6425985153
 20
-726.91522714849
 30
0.0
 11
-18683.7765219068
 21
-726.833142988934
 31
0.0
  0
LINE
  5
331
330
1F
100
AcDbEntity
  8
0
  6
Continuous
 62
     5
100
AcDbLine
 10
-18683.5131665272
 20
-727.004190752918
 30
0.0
 11
-18683.6425985153
 21
-726.91522714849
 31
0.0
  0
LINE
  5
332
330
1F
100
AcDbEntity
  8
0
  6
Continuous
 62
     5
100
AcDbLine
 10
-18683.388561535
 20
-727.099789522808
 30
0.0
 11
-18683.5131665272
 21
-727.004190752918
 31
0.0
  0
LINE
  5
333
330
1F
100
AcDbEntity
  8
0
  6
Continuous
 62
     5
100
AcDbLine
 10
-18683.2691290403
 20
-727.20180804263
 30
0.0
 11
-18683.388561535
 21
-727.099789522808
 31
0.0
  0
LINE
  5
334
330
1F
100
AcDbEntity
  8
0
  6
Continuous
 62
     5
100
AcDbLine
 10
-18683.1552037711
 20
-727.309905531791
 30
0.0
 11
-18683.2691290403
 21
-727.20180804263
 31
0.0
  0
LINE
  5
335
330
1F
100
AcDbEntity
  8
0
  6
Continuous
 62
     5
100
AcDbLine
 10
-18683.0470924557
 20
-727.423847620409
 30
0.0
 11
-18683.1552037711
 21
-727.309905531791
 31
0.0
  0
LINE
  5
336
330
1F
100
AcDbEntity
  8
0
  6
Continuous
 62
     5
100
AcDbLine
 10
-18682.9450910484
 20
-727.543274573531
 30
0.0
 11
-18683.0470924557
 21
-727.423847620409
 31
0.0
  0
LINE
  5
337
330
1F
100
AcDbEntity
  8
0
  6
Continuous
 62
     5
100
AcDbLine
 10
-18682.8494765492
 20
-727.667865429623
 30
0.0
 11
-18682.9450910484
 21
-727.543274573531
 31
0.0
  0
LINE
  5
338
330
1F
100
AcDbEntity
  8
0
  6
Continuous
 62
     5
100
AcDbLine
 10
-18682.760497094
 20
-727.797309136679
 30
0.0
 11
-18682.8494765492
 21
-727.667865429623
 31
0.0
  0
LINE
  5
339
330
1F
100
AcDbEntity
  8
0
  6
Continuous
 62
     5
100
AcDbLine
 10
-18682.6784486372
 20
-727.931245959748
 30
0.0
 11
-18682.760497094
 21
-727.797309136679
 31
0.0
  0
LINE
  5
33A
330
1F
100
AcDbEntity
  8
0
  6
Continuous
 62
     5
100
AcDbLine
 10
-18682.6035108126
 20
-728.069259300817
 30
0.0
 11
-18682.6784486372
 21
-727.931245959748
 31
0.0
  0
LINE
  5
33B
330
1F
100
AcDbEntity
  8
0
  6
Continuous
 62
     5
100
AcDbLine
 10
-18682.535892983
 20
-728.211019153519
 30
0.0
 11
-18682.6035108126
 21
-728.069259300817
 31
0.0
  0
LINE
  5
33C
330
1F
100
AcDbEntity
  8
0
  6
Continuous
 62
     5
100
AcDbLine
 10
-18682.475784692
 20
-728.356137783727
 30
0.0
 11
-18682.535892983
 21
-728.211019153519
 31
0.0
  0
LINE
  5
33D
330
1F
100
AcDbEntity
  8
0
  6
Continuous
 62
     5
100
AcDbLine
 10
-18682.4233556639
 20
-728.504169729541
 30
0.0
 11
-18682.475784692
 21
-728.356137783727
 31
0.0
  0
LINE
  5
33E
330
1F
100
AcDbEntity
  8
0
  6
Continuous
 62
     5
100
AcDbLine
 10
-18682.3787476241
 20
-728.654775939771
 30
0.0
 11
-18682.4233556639
 21
-728.504169729541
 31
0.0
  0
LINE
  5
33F
330
1F
100
AcDbEntity
  8
0
  6
Continuous
 62
     5
100
AcDbLine
 10
-18682.3420915238
 20
-728.807491998162
 30
0.0
 11
-18682.3787476241
 21
-728.654775939771
 31
0.0
  0
LINE
  5
340
330
1F
100
AcDbEntity
  8
0
  6
Continuous
 62
     5
100
AcDbLine
 10
-18682.3134515413
 20
-728.961940944816
 30
0.0
 11
-18682.3420915238
 21
-728.807491998162
 31
0.0
  0
LINE
  5
341
330
1F
100
AcDbEntity
  8
0
  6
Continuous
 62
     5
100
AcDbLine
 10
-18682.2929586278
 20
-729.117658363477
 30
0.0
 11
-18682.3134515413
 21
-728.961940944816
 31
0.0
  0
LINE
  5
342
330
1F
100
AcDbEntity
  8
0
  6
Continuous
 62
     5
100
AcDbLine
 10
-18682.2806282788
 20
-729.274219476005
 30
0.0
 11
-18682.2929586278
 21
-729.117658363477
 31
0.0
  0
LINE
  5
343
330
1F
100
AcDbEntity
  8
0
  6
Continuous
 62
     5
100
AcDbLine
 10
-18682.2765246728
 20
-729.431247322502
 30
0.0
 11
-18682.2806282788
 21
-729.274219476005
 31
0.0
  0
LINE
  5
344
330
1F
100
AcDbEntity
  8
0
  6
Continuous
 62
     5
100
AcDbLine
 10
-19304.9002506849
 20
-726.496780454866
 30
0.0
 11
-19304.7458260797
 21
-726.468164381507
 31
0.0
  0
LINE
  5
345
330
1F
100
AcDbEntity
  8
0
  6
Continuous
 62
     5
100
AcDbLine
 10
-19305.0529766528
 20
-726.533465419113
 30
0.0
 11
-19304.9002506849
 21
-726.496780454866
 31
0.0
  0
LINE
  5
346
330
1F
100
AcDbEntity
  8
0
  6
Continuous
 62
     5
100
AcDbLine
 10
-19305.2035729535
 20
-726.578044594989
 30
0.0
 11
-19305.0529766528
 21
-726.533465419113
 31
0.0
  0
LINE
  5
347
330
1F
100
AcDbEntity
  8
0
  6
Continuous
 62
     5
100
AcDbLine
 10
-19305.3516391504
 20
-726.630526396067
 30
0.0
 11
-19305.2035729535
 21
-726.578044594989
 31
0.0
  0
LINE
  5
348
330
1F
100
AcDbEntity
  8
0
  6
Continuous
 62
     5
100
AcDbLine
 10
-19305.4967334391
 20
-726.690610778022
 30
0.0
 11
-19305.3516391504
 21
-726.630526396067
 31
0.0
  0
LINE
  5
349
330
1F
100
AcDbEntity
  8
0
  6
Continuous
 62
     5
100
AcDbLine
 10
-19305.6384932918
 20
-726.758228607603
 30
0.0
 11
-19305.4967334391
 21
-726.690610778022
 31
0.0
  0
LINE
  5
34A
330
1F
100
AcDbEntity
  8
0
  6
Continuous
 62
     5
100
AcDbLine
 10
-19305.7765309743
 20
-726.833190341253
 30
0.0
 11
-19305.6384932918
 21
-726.758228607603
 31
0.0
  0
LINE
  5
34B
330
1F
100
AcDbEntity
  8
0
  6
Continuous
 62
     5
100
AcDbLine
 10
-19305.9104389335
 20
-726.915248707654
 30
0.0
 11
-19305.7765309743
 21
-726.833190341253
 31
0.0
  0
LINE
  5
34C
330
1F
100
AcDbEntity
  8
0
  6
Continuous
 62
     5
100
AcDbLine
 10
-19306.039887163
 20
-727.004194344193
 30
0.0
 11
-19305.9104389335
 21
-726.915248707654
 31
0.0
  0
LINE
  5
34D
330
1F
100
AcDbEntity
  8
0
  6
Continuous
 62
     5
100
AcDbLine
 10
-19306.1644825415
 20
-727.099775024786
 30
0.0
 11
-19306.039887163
 21
-727.004194344193
 31
0.0
  0
LINE
  5
34E
330
1F
100
AcDbEntity
  8
0
  6
Continuous
 62
     5
100
AcDbLine
 10
-19306.2839094946
 20
-727.201776432055
 30
0.0
 11
-19306.1644825415
 21
-727.099775024786
 31
0.0
  0
LINE
  5
34F
330
1F
100
AcDbEntity
  8
0
  6
Continuous
 62
     5
100
AcDbLine
 10
-19306.3978470608
 20
-727.309921566092
 30
0.0
 11
-19306.2839094946
 21
-727.201776432055
 31
0.0
  0
LINE
  5
350
330
1F
100
AcDbEntity
  8
0
  6
Continuous
 62
     5
100
AcDbLine
 10
-19306.5059688915
 20
-727.423870744458
 30
0.0
 11
-19306.3978470608
 21
-727.309921566092
 31
0.0
  0
LINE
  5
351
330
1F
100
AcDbEntity
  8
0
  6
Continuous
 62
     5
100
AcDbLine
 10
-19306.6079630698
 20
-727.543279329946
 30
0.0
 11
-19306.5059688915
 21
-727.423870744458
 31
0.0
  0
LINE
  5
352
330
1F
100
AcDbEntity
  8
0
  6
Continuous
 62
     5
100
AcDbLine
 10
-19306.7035861812
 20
-727.667908231356
 30
0.0
 11
-19306.6079630698
 21
-727.543279329946
 31
0.0
  0
LINE
  5
353
330
1F
100
AcDbEntity
  8
0
  6
Continuous
 62
     5
100
AcDbLine
 10
-19306.7925353536
 20
-727.797345174189
 30
0.0
 11
-19306.7035861812
 21
-727.667908231356
 31
0.0
  0
LINE
  5
354
330
1F
100
AcDbEntity
  8
0
  6
Continuous
 62
     5
100
AcDbLine
 10
-19306.8745852622
 20
-727.931215792649
 30
0.0
 11
-19306.7925353536
 21
-727.797345174189
 31
0.0
  0
LINE
  5
355
330
1F
100
AcDbEntity
  8
0
  6
Continuous
 62
     5
100
AcDbLine
 10
-19306.949535788
 20
-728.069266131248
 30
0.0
 11
-19306.8745852622
 21
-727.931215792649
 31
0.0
  0
LINE
  5
356
330
1F
100
AcDbEntity
  8
0
  6
Continuous
 62
     5
100
AcDbLine
 10
-19307.0171706507
 20
-728.211054186896
 30
0.0
 11
-19306.949535788
 21
-728.069266131248
 31
0.0
  0
LINE
  5
357
330
1F
100
AcDbEntity
  8
0
  6
Continuous
 62
     5
100
AcDbLine
 10
-19307.0772591381
 20
-728.356142911266
 30
0.0
 11
-19307.0171706507
 21
-728.211054186896
 31
0.0
  0
LINE
  5
358
330
1F
100
AcDbEntity
  8
0
  6
Continuous
 62
     5
100
AcDbLine
 10
-19307.129696768
 20
-728.504180982982
 30
0.0
 11
-19307.0772591381
 21
-728.356142911266
 31
0.0
  0
LINE
  5
359
330
1F
100
AcDbEntity
  8
0
  6
Continuous
 62
     5
100
AcDbLine
 10
-19307.174301511
 20
-728.654779171963
 30
0.0
 11
-19307.129696768
 21
-728.504180982982
 31
0.0
  0
LINE
  5
35A
330
1F
100
AcDbEntity
  8
0
  6
Continuous
 62
     5
100
AcDbLine
 10
-19307.2109779296
 20
-728.807518519533
 30
0.0
 11
-19307.174301511
 21
-728.654779171963
 31
0.0
  0
LINE
  5
35B
330
1F
100
AcDbEntity
  8
0
  6
Continuous
 62
     5
100
AcDbLine
 10
-19307.2395819032
 20
-728.96193224878
 30
0.0
 11
-19307.2109779296
 21
-728.807518519533
 31
0.0
  0
LINE
  5
35C
330
1F
100
AcDbEntity
  8
0
  6
Continuous
 62
     5
100
AcDbLine
 10
-19307.2600811092
 20
-729.11764426451
 30
0.0
 11
-19307.2395819032
 21
-728.96193224878
 31
0.0
  0
LINE
  5
35D
330
1F
100
AcDbEntity
  8
0
  6
Continuous
 62
     5
100
AcDbLine
 10
-19307.2724089738
 20
-729.274225698518
 30
0.0
 11
-19307.2600811092
 21
-729.11764426451
 31
0.0
  0
LINE
  5
35E
330
1F
100
AcDbEntity
  8
0
  6
Continuous
 62
     5
100
AcDbLine
 10
-19307.2765173431
 20
-729.431235513012
 30
0.0
 11
-19307.2724089738
 21
-729.274225698518
 31
0.0
  0
LINE
  5
35F
330
1F
100
AcDbEntity
  8
0
  6
Continuous
 62
     5
100
AcDbLine
 10
-19058.6856025811
 20
-688.699154797122
 30
0.0
 11
-19023.7906365063
 21
-688.699167186769
 31
0.0
  0
LINE
  5
360
330
1F
100
AcDbEntity
  8
0
  6
Continuous
 62
     5
100
AcDbLine
 10
-19023.7906365063
 20
-688.699167186769
 30
0.0
 11
-18930.8674307838
 21
-688.699151712904
 31
0.0
  0
LINE
  5
361
330
1F
100
AcDbEntity
  8
0
  6
Continuous
 62
     5
100
AcDbLine
 10
-19289.5171782378
 20
-741.493747619313
 30
0.0
 11
-18994.7765277228
 21
-741.493763373582
 31
0.0
  0
LINE
  5
362
330
1F
100
AcDbEntity
  8
0
  6
Continuous
 62
     5
100
AcDbLine
 10
-18994.7765277228
 20
-741.493763373582
 30
0.0
 11
-18700.0358532765
 21
-741.493763782852
 31
0.0
  0
LINE
  5
363
330
1F
100
AcDbEntity
  8
1
  6
Continuous
 62
     5
100
AcDbLine
 10
-19307.2765173431
 20
-732.933725513013
 30
0.0
 11
-19304.1165596622
 21
-732.933743968558
 31
0.0
  0
LINE
  5
364
330
1F
100
AcDbEntity
  8
1
  6
Continuous
 62
     5
100
AcDbLine
 10
-19298.7765173431
 20
-736.493747619313
 30
0.0
 11
-19289.517189258
 21
-736.493760892602
 31
0.0
  0
LINE
  5
365
330
1F
100
AcDbEntity
  8
1
  6
Continuous
 62
     5
100
AcDbLine
 10
-18700.0358692293
 20
-736.493751801614
 30
0.0
 11
-18690.7765226356
 21
-736.493751795891
 31
0.0
  0
LINE
  5
366
330
1F
100
AcDbEntity
  8
1
  6
Continuous
 62
     5
100
AcDbLine
 10
-18685.4364773866
 20
-732.933730943872
 30
0.0
 11
-18682.2765336603
 21
-732.933720366841
 31
0.0
  0
LINE
  5
367
330
1F
100
AcDbEntity
  8
1
  6
Continuous
 62
     7
100
AcDbLine
 10
-19222.9148386475
 20
-682.661955987832
 30
0.0
 11
-18766.6381937439
 21
-682.661955987832
 31
0.0
  0
LINE
  5
368
330
1F
100
AcDbEntity
  8
1
  6
Continuous
 62
     7
100
AcDbLine
 10
-11216.5084638124
 20
-682.661955987832
 30
0.0
 11
-10773.0445685789
 21
-682.661955987832
 31
0.0
  0
LINE
  5
369
330
1F
100
AcDbEntity
  8
1
  6
Continuous
 62
     1
100
AcDbLine
 10
-18149.0
 20
2450.13499046631
 30
0.0
 11
-18149.0
 21
-3940.86500953369
 31
0.0
  0
LINE
  5
36A
330
1F
100
AcDbEntity
  8
1
  6
Continuous
 62
     1
100
AcDbLine
 10
-14149.0
 20
2450.13499046631
 30
0.0
 11
-14149.0
 21
-3940.86500953369
 31
0.0
  0
ARC
  5
36B
330
1F
100
AcDbEntity
  8
1
  6
Continuous
 62
     7
100
AcDbCircle
 10
-11234.0698483717
 20
-1694.49214064517
 30
0.0
 40
1.00000000000347
100
AcDbArc
 50
25.40338295132215
 51
169.9098055432601
  0
ARC
  5
36C
330
1F
100
AcDbEntity
  8
1
  6
Continuous
 62
     7
100
AcDbCircle
 10
-10755.4831840196
 20
-1694.49214064517
 30
0.0
 40
0.9999999999562953
100
AcDbArc
 50
10.09019445774421
 51
154.5966170486332
  0
ARC
  5
36D
330
1F
100
AcDbEntity
  8
1
  6
Continuous
 62
     7
100
AcDbCircle
 10
-11223.7901569983
 20
-1702.15143197219
 30
0.0
 40
4.99999999991111
100
AcDbArc
 50
205.4033829515282
 51
288.6294696725462
  0
ARC
  5
36E
330
1F
100
AcDbEntity
  8
1
  6
Continuous
 62
     7
100
AcDbCircle
 10
-10765.7377902624
 20
-1702.09861085875
 30
0.0
 40
5.000000000007891
100
AcDbArc
 50
251.3837446551269
 51
334.5966170489635
  0
ARC
  5
36F
330
1F
100
AcDbEntity
  8
1
  6
Continuous
 62
     7
100
AcDbCircle
 10
-19234.0698483717
 20
-1794.49214064517
 30
0.0
 40
1.000000000000184
100
AcDbArc
 50
25.40338295141157
 51
169.9098055432601
  0
ARC
  5
370
330
1F
100
AcDbEntity
  8
1
  6
Continuous
 62
     7
100
AcDbCircle
 10
-18755.4831840196
 20
-1794.49214064517
 30
0.0
 40
0.9999999999545044
100
AcDbArc
 50
10.09019445776247
 51
154.5966170486779
  0
ARC
  5
371
330
1F
100
AcDbEntity
  8
1
  6
Continuous
 62
     7
100
AcDbCircle
 10
-19223.7901569983
 20
-1802.15143197219
 30
0.0
 40
4.999999999909467
100
AcDbArc
 50
205.4033829515372
 51
288.629469672566
  0
ARC
  5
372
330
1F
100
AcDbEntity
  8
1
  6
Continuous
 62
     7
100
AcDbCircle
 10
-18765.7377902624
 20
-1802.09861085875
 30
0.0
 40
5.000000000008471
100
AcDbArc
 50
251.3837446551071
 51
334.5966170489635
  0
ARC
  5
373
330
1F
100
AcDbEntity
  8
1
  6
Continuous
 62
     7
100
AcDbCircle
 10
-14765.7377902624
 20
-1742.09861378354
 30
0.0
 40
4.99999999999841
100
AcDbArc
 50
251.3837446550903
 51
334.5966170489635
  0
ARC
  5
374
330
1F
100
AcDbEntity
  8
1
  6
Continuous
 62
     7
100
AcDbCircle
 10
-15223.7901569983
 20
-1742.15143489697
 30
0.0
 40
4.99999999991111
100
AcDbArc
 50
205.4033829515282
 51
288.6294696725088
  0
ARC
  5
375
330
1F
100
AcDbEntity
  8
1
  6
Continuous
 62
     7
100
AcDbCircle
 10
-14755.4831840196
 20
-1734.49214356995
 30
0.0
 40
0.9999999999562953
100
AcDbArc
 50
10.09019445774421
 51
154.5966170491392
  0
ARC
  5
376
330
1F
100
AcDbEntity
  8
1
  6
Continuous
 62
     7
100
AcDbCircle
 10
-15234.0698483717
 20
-1734.49214356995
 30
0.0
 40
0.9999999999992758
100
AcDbArc
 50
25.40338295081612
 51
169.9098055432601
  0
ARC
  5
377
330
1F
100
AcDbEntity
  8
1
  6
Continuous
 62
     7
100
AcDbCircle
 10
-11314.1807414121
 20
-1846.17264716888
 30
0.0
 40
30.09577453853979
100
AcDbArc
 50
117.8592947674023
 51
179.9999999975058
  0
ARC
  5
378
330
1F
100
AcDbEntity
  8
1
  6
Continuous
 62
     7
100
AcDbCircle
 10
-11284.2310800696
 20
-1846.17264716921
 30
0.0
 40
30.09577453904188
100
AcDbArc
 50
5.55249526640417
 51
62.14070523222072
  0
ARC
  5
379
330
1F
100
AcDbEntity
  8
1
  6
Continuous
 62
     7
100
AcDbCircle
 10
-11299.2059107407
 20
-1874.50383391505
 30
0.0
 40
62.14108146617636
100
AcDbArc
 50
62.14070524318499
 51
117.8592947567335
  0
ARC
  5
37A
330
1F
100
AcDbEntity
  8
1
  6
Continuous
 62
     7
100
AcDbCircle
 10
-11299.2916299004
 20
-2448.36113130334
 30
0.0
 40
57.00000000004581
100
AcDbArc
 50
217.8883914667194
 51
322.1611124970889
  0
ARC
  5
37B
330
1F
100
AcDbEntity
  8
1
  6
Continuous
 62
     7
100
AcDbCircle
 10
-10690.2614024909
 20
-2448.36113130334
 30
0.0
 40
57.00000000005066
100
AcDbArc
 50
217.8388875028494
 51
322.1116085332189
  0
ARC
  5
37C
330
1F
100
AcDbEntity
  8
1
  6
Continuous
 62
     7
100
AcDbCircle
 10
-10690.3471216507
 20
-1874.50383391505
 30
0.0
 40
62.14108146617636
100
AcDbArc
 50
62.14070524318499
 51
117.859294756815
  0
ARC
  5
37D
330
1F
100
AcDbEntity
  8
1
  6
Continuous
 62
     7
100
AcDbCircle
 10
-10705.3219523218
 20
-1846.17264716921
 30
0.0
 40
30.09577453901847
100
AcDbArc
 50
117.8592947677823
 51
174.4475047335958
  0
ARC
  5
37E
330
1F
100
AcDbEntity
  8
1
  6
Continuous
 62
     7
100
AcDbCircle
 10
-10675.3722909793
 20
-1846.17264716888
 30
0.0
 40
30.09577453860038
100
AcDbArc
 50
0.0000000024942
 51
62.14070523243237
  0
ARC
  5
37F
330
1F
100
AcDbEntity
  8
1
  6
Continuous
 62
     7
100
AcDbCircle
 10
-10994.685599714
 20
-2381.76533032018
 30
0.0
 40
712.1917100720958
100
AcDbArc
 50
71.38374465517948
 51
108.6294696717226
  0
ARC
  5
380
330
1F
100
AcDbEntity
  8
1
  6
Continuous
 62
     7
100
AcDbCircle
 10
-11161.573205023
 20
-1696.00323665632
 30
0.0
 40
65.98219530261515
100
AcDbArc
 50
190.7590858550963
 51
270.0
  0
ARC
  5
381
330
1F
100
AcDbEntity
  8
1
  6
Continuous
 62
     7
100
AcDbCircle
 10
-10827.9798273684
 20
-1696.0032366563
 30
0.0
 40
65.98219530261986
100
AcDbArc
 50
270.0
 51
349.2928024848773
  0
ARC
  5
382
330
1F
100
AcDbEntity
  8
1
  6
Continuous
 62
     7
100
AcDbCircle
 10
-11088.9024508218
 20
-1720.32476126611
 30
0.0
 40
148.447948780484
100
AcDbArc
 50
169.9098055427431
 51
176.2900838554671
  0
ARC
  5
383
330
1F
100
AcDbEntity
  8
1
  6
Continuous
 62
     7
100
AcDbCircle
 10
-14324.3381692371
 20
-1584.18645526356
 30
0.0
 40
3089.890741812776
100
AcDbArc
 50
354.1214471610464
 51
357.6530453422274
  0
ARC
  5
384
330
1F
100
AcDbEntity
  8
1
  6
Continuous
 62
     7
100
AcDbCircle
 10
-10900.6505815695
 20
-1720.32476126611
 30
0.0
 40
148.4479487803744
100
AcDbArc
 50
3.70991614453537
 51
10.09019445726367
  0
ARC
  5
385
330
1F
100
AcDbEntity
  8
1
  6
Continuous
 62
     7
100
AcDbCircle
 10
-7665.21486315424
 20
-1584.18645526356
 30
0.0
 40
3089.890741812782
100
AcDbArc
 50
182.3469546577725
 51
185.8785528916171
  0
ARC
  5
386
330
1F
100
AcDbEntity
  8
1
  6
Continuous
 62
     7
100
AcDbCircle
 10
-10994.7765041062
 20
-2347.61932823907
 30
0.0
 40
697.4841816217091
100
AcDbArc
 50
69.87483131041073
 51
110.1251708049554
  0
ARC
  5
387
330
1F
100
AcDbEntity
  8
1
  6
Continuous
 62
     7
100
AcDbCircle
 10
-11205.4722560099
 20
-2462.94474449662
 30
0.0
 40
61.85313823407433
100
AcDbArc
 50
228.104122826812
 51
270.0
  0
ARC
  5
388
330
1F
100
AcDbEntity
  8
1
  6
Continuous
 62
     7
100
AcDbCircle
 10
-10784.0807763814
 20
-2462.94474449663
 30
0.0
 40
61.85313823405022
100
AcDbArc
 50
270.0
 51
311.895877173193
  0
ARC
  5
389
330
1F
100
AcDbEntity
  8
1
  6
Continuous
 62
     7
100
AcDbCircle
 10
-10994.7765058353
 20
-666.29812752564
 30
0.0
 40
1334.999755205074
100
AcDbArc
 50
261.9226113115489
 51
278.0773877467453
  0
ARC
  5
38A
330
1F
100
AcDbEntity
  8
1
  6
Continuous
 62
     7
100
AcDbCircle
 10
-10818.4358627942
 20
-1908.84726666525
 30
0.0
 40
80.00000000000955
100
AcDbArc
 50
278.0773877467399
 51
5.87855289160827
  0
ARC
  5
38B
330
1F
100
AcDbEntity
  8
1
  6
Continuous
 62
     7
100
AcDbCircle
 10
-11171.1171692988
 20
-1908.84726376697
 30
0.0
 40
79.99999999994287
100
AcDbArc
 50
174.1214471610415
 51
261.9226113115703
  0
ARC
  5
38C
330
1F
100
AcDbEntity
  8
1
  6
Continuous
 62
     1
100
AcDbCircle
 10
-10994.7765161957
 20
-949.379830396042
 30
0.0
 40
848.6756222566119
100
AcDbArc
 50
257.8169871694806
 51
282.1830128305259
  0
ARC
  5
38D
330
1F
100
AcDbEntity
  8
1
  6
Continuous
 62
     1
100
AcDbCircle
 10
-11156.4349991773
 20
-1698.15463852953
 30
0.0
 40
82.6487438670615
100
AcDbArc
 50
192.1261308773689
 51
257.8169871690829
  0
ARC
  5
38E
330
1F
100
AcDbEntity
  8
1
  6
Continuous
 62
     1
100
AcDbCircle
 10
-10833.1180332141
 20
-1698.15463852946
 30
0.0
 40
82.64874386714074
100
AcDbArc
 50
282.1830128309734
 51
347.8738691225844
  0
ARC
  5
38F
330
1F
100
AcDbEntity
  8
1
  6
Continuous
 62
     7
100
AcDbCircle
 10
-19314.1807414121
 20
-1906.17264716888
 30
0.0
 40
30.09577453854778
100
AcDbArc
 50
117.8592947673904
 51
179.9999999975058
  0
ARC
  5
390
330
1F
100
AcDbEntity
  8
1
  6
Continuous
 62
     7
100
AcDbCircle
 10
-19284.2310800695
 20
-1906.17264716921
 30
0.0
 40
30.09577453894231
100
AcDbArc
 50
5.55249526642259
 51
62.14070523238605
  0
ARC
  5
391
330
1F
100
AcDbEntity
  8
1
  6
Continuous
 62
     7
100
AcDbCircle
 10
-19299.2059107407
 20
-1934.50383391505
 30
0.0
 40
62.14108146617636
100
AcDbArc
 50
62.14070524318499
 51
117.8592947567277
  0
ARC
  5
392
330
1F
100
AcDbEntity
  8
1
  6
Continuous
 62
     7
100
AcDbCircle
 10
-19299.2916299004
 20
-2508.36113130334
 30
0.0
 40
56.99999999996829
100
AcDbArc
 50
217.88839146678
 51
322.1611124970877
  0
ARC
  5
393
330
1F
100
AcDbEntity
  8
1
  6
Continuous
 62
     7
100
AcDbCircle
 10
-18690.2614024909
 20
-2508.36113130334
 30
0.0
 40
57.00000000005066
100
AcDbArc
 50
217.8388875028494
 51
322.11160853322
  0
ARC
  5
394
330
1F
100
AcDbEntity
  8
1
  6
Continuous
 62
     7
100
AcDbCircle
 10
-18690.3471216507
 20
-1934.50383391505
 30
0.0
 40
62.14108146617636
100
AcDbArc
 50
62.14070524318499
 51
117.859294756815
  0
ARC
  5
395
330
1F
100
AcDbEntity
  8
1
  6
Continuous
 62
     7
100
AcDbCircle
 10
-18705.3219523218
 20
-1906.17264716921
 30
0.0
 40
30.09577453901762
100
AcDbArc
 50
117.8592947677793
 51
174.4475047335962
  0
ARC
  5
396
330
1F
100
AcDbEntity
  8
1
  6
Continuous
 62
     7
100
AcDbCircle
 10
-18675.3722909793
 20
-1906.17264716888
 30
0.0
 40
30.09577453860038
100
AcDbArc
 50
0.0000000024942
 51
62.14070523242932
  0
ARC
  5
397
330
1F
100
AcDbEntity
  8
1
  6
Continuous
 62
     7
100
AcDbCircle
 10
-18994.685599714
 20
-2481.76533032018
 30
0.0
 40
712.1917100720958
100
AcDbArc
 50
71.38374465517948
 51
108.6294696717223
  0
ARC
  5
398
330
1F
100
AcDbEntity
  8
1
  6
Continuous
 62
     7
100
AcDbCircle
 10
-19161.573205023
 20
-1796.00323665632
 30
0.0
 40
65.98219530261515
100
AcDbArc
 50
190.7590858550963
 51
270.0
  0
ARC
  5
399
330
1F
100
AcDbEntity
  8
1
  6
Continuous
 62
     7
100
AcDbCircle
 10
-18827.9798273684
 20
-1796.0032366563
 30
0.0
 40
65.98219530261986
100
AcDbArc
 50
270.0
 51
349.2928024848773
  0
ARC
  5
39A
330
1F
100
AcDbEntity
  8
1
  6
Continuous
 62
     7
100
AcDbCircle
 10
-19088.9024508218
 20
-1820.32476126611
 30
0.0
 40
148.447948780484
100
AcDbArc
 50
169.9098055427431
 51
176.2900838554672
  0
ARC
  5
39B
330
1F
100
AcDbEntity
  8
1
  6
Continuous
 62
     7
100
AcDbCircle
 10
-22324.3381692371
 20
-1684.18645526356
 30
0.0
 40
3089.890741812776
100
AcDbArc
 50
354.1214471610464
 51
357.6530453422274
  0
ARC
  5
39C
330
1F
100
AcDbEntity
  8
1
  6
Continuous
 62
     7
100
AcDbCircle
 10
-18900.6505815695
 20
-1820.32476126611
 30
0.0
 40
148.447948780378
100
AcDbArc
 50
3.70991614453528
 51
10.09019445726355
  0
ARC
  5
39D
330
1F
100
AcDbEntity
  8
1
  6
Continuous
 62
     7
100
AcDbCircle
 10
-15665.2148631542
 20
-1684.18645526356
 30
0.0
 40
3089.89074181282
100
AcDbArc
 50
182.3469546577724
 51
185.8785528916168
  0
ARC
  5
39E
330
1F
100
AcDbEntity
  8
1
  6
Continuous
 62
     7
100
AcDbCircle
 10
-18994.7765041062
 20
-2447.61932823907
 30
0.0
 40
697.4841816217104
100
AcDbArc
 50
69.87483131041044
 51
110.1251708049551
  0
ARC
  5
39F
330
1F
100
AcDbEntity
  8
1
  6
Continuous
 62
     7
100
AcDbCircle
 10
-19205.4722560099
 20
-2522.94474449662
 30
0.0
 40
61.85313823407554
100
AcDbArc
 50
228.1041228268107
 51
270.0
  0
ARC
  5
3A0
330
1F
100
AcDbEntity
  8
1
  6
Continuous
 62
     7
100
AcDbCircle
 10
-18784.0807763814
 20
-2522.94474449663
 30
0.0
 40
61.85313823405022
100
AcDbArc
 50
270.0
 51
311.8958771731955
  0
ARC
  5
3A1
330
1F
100
AcDbEntity
  8
1
  6
Continuous
 62
     7
100
AcDbCircle
 10
-18994.7765058353
 20
-766.29812752564
 30
0.0
 40
1334.999755205074
100
AcDbArc
 50
261.9226113115489
 51
278.0773877467452
  0
ARC
  5
3A2
330
1F
100
AcDbEntity
  8
1
  6
Continuous
 62
     7
100
AcDbCircle
 10
-18818.4358627942
 20
-2008.84726666525
 30
0.0
 40
80.00000000000927
100
AcDbArc
 50
278.0773877467373
 51
5.87855289161566
  0
ARC
  5
3A3
330
1F
100
AcDbEntity
  8
1
  6
Continuous
 62
     7
100
AcDbCircle
 10
-19171.1171692988
 20
-2008.84726376697
 30
0.0
 40
79.99999999994287
100
AcDbArc
 50
174.1214471610415
 51
261.9226113115703
  0
ARC
  5
3A4
330
1F
100
AcDbEntity
  8
1
  6
Continuous
 62
     1
100
AcDbCircle
 10
-18994.7765161957
 20
-1049.37983039604
 30
0.0
 40
848.6756222566133
100
AcDbArc
 50
257.8169871694808
 51
282.1830128305259
  0
ARC
  5
3A5
330
1F
100
AcDbEntity
  8
1
  6
Continuous
 62
     1
100
AcDbCircle
 10
-19156.4349991773
 20
-1798.15463852953
 30
0.0
 40
82.64874386705795
100
AcDbArc
 50
192.1261308773694
 51
257.8169871690855
  0
ARC
  5
3A6
330
1F
100
AcDbEntity
  8
1
  6
Continuous
 62
     1
100
AcDbCircle
 10
-18833.1180332141
 20
-1798.15463852946
 30
0.0
 40
82.64874386714149
100
AcDbArc
 50
282.1830128309758
 51
347.8738691225849
  0
ARC
  5
3A7
330
1F
100
AcDbEntity
  8
1
  6
Continuous
 62
     1
100
AcDbCircle
 10
-14833.1180332141
 20
-1738.15464145424
 30
0.0
 40
82.64874386714979
100
AcDbArc
 50
282.1830128304766
 51
347.8738691225842
  0
ARC
  5
3A8
330
1F
100
AcDbEntity
  8
1
  6
Continuous
 62
     1
100
AcDbCircle
 10
-15156.4349991773
 20
-1738.15464145432
 30
0.0
 40
82.64874386706155
100
AcDbArc
 50
192.126130877369
 51
257.8169871695102
  0
ARC
  5
3A9
330
1F
100
AcDbEntity
  8
1
  6
Continuous
 62
     1
100
AcDbCircle
 10
-14994.7765161957
 20
-989.379833320826
 30
0.0
 40
848.6756222566278
100
AcDbArc
 50
257.8169871695223
 51
282.1830128304775
  0
ARC
  5
3AA
330
1F
100
AcDbEntity
  8
1
  6
Continuous
 62
     7
100
AcDbCircle
 10
-15171.1171692988
 20
-1948.84726669175
 30
0.0
 40
79.99999999994185
100
AcDbArc
 50
174.1214471610486
 51
261.9226113115703
  0
ARC
  5
3AB
330
1F
100
AcDbEntity
  8
1
  6
Continuous
 62
     7
100
AcDbCircle
 10
-14818.4358627942
 20
-1948.84726959003
 30
0.0
 40
80.00000000001945
100
AcDbArc
 50
278.0773877467389
 51
5.87855289161556
  0
ARC
  5
3AC
330
1F
100
AcDbEntity
  8
1
  6
Continuous
 62
     7
100
AcDbCircle
 10
-14994.7765058353
 20
-706.298130450424
 30
0.0
 40
1334.99975520507
100
AcDbArc
 50
261.9226113115489
 51
278.0773877467453
  0
ARC
  5
3AD
330
1F
100
AcDbEntity
  8
1
  6
Continuous
 62
     7
100
AcDbCircle
 10
-14784.0807763814
 20
-2502.94474742141
 30
0.0
 40
61.85313823406022
100
AcDbArc
 50
270.0
 51
311.8958771731867
  0
ARC
  5
3AE
330
1F
100
AcDbEntity
  8
1
  6
Continuous
 62
     7
100
AcDbCircle
 10
-15205.4722560099
 20
-2502.9447474214
 30
0.0
 40
61.85313823408178
100
AcDbArc
 50
228.1041228268182
 51
270.0
  0
ARC
  5
3AF
330
1F
100
AcDbEntity
  8
1
  6
Continuous
 62
     7
100
AcDbCircle
 10
-14994.7765041062
 20
-2387.61933116386
 30
0.0
 40
697.4841816217186
100
AcDbArc
 50
69.87483131041101
 51
110.1251708049554
  0
ARC
  5
3B0
330
1F
100
AcDbEntity
  8
1
  6
Continuous
 62
     7
100
AcDbCircle
 10
-11665.2148631542
 20
-1624.18645818834
 30
0.0
 40
3089.890741812822
100
AcDbArc
 50
182.3469546577726
 51
185.8785528916168
  0
ARC
  5
3B1
330
1F
100
AcDbEntity
  8
1
  6
Continuous
 62
     7
100
AcDbCircle
 10
-14900.6505815695
 20
-1760.32476419089
 30
0.0
 40
148.4479487803738
100
AcDbArc
 50
3.70991614453143
 51
10.09019445726359
  0
ARC
  5
3B2
330
1F
100
AcDbEntity
  8
1
  6
Continuous
 62
     7
100
AcDbCircle
 10
-18324.3381692371
 20
-1624.18645818834
 30
0.0
 40
3089.890741812777
100
AcDbArc
 50
354.1214471610463
 51
357.6530453422272
  0
ARC
  5
3B3
330
1F
100
AcDbEntity
  8
1
  6
Continuous
 62
     7
100
AcDbCircle
 10
-15088.9024508218
 20
-1760.32476419089
 30
0.0
 40
148.4479487804839
100
AcDbArc
 50
169.9098055427432
 51
176.2900838554711
  0
ARC
  5
3B4
330
1F
100
AcDbEntity
  8
1
  6
Continuous
 62
     7
100
AcDbCircle
 10
-14827.9798273684
 20
-1736.00323958108
 30
0.0
 40
65.98219530263009
100
AcDbArc
 50
270.0
 51
349.2928024848771
  0
ARC
  5
3B5
330
1F
100
AcDbEntity
  8
1
  6
Continuous
 62
     7
100
AcDbCircle
 10
-15161.573205023
 20
-1736.0032395811
 30
0.0
 40
65.9821953026152
100
AcDbArc
 50
190.7590858550965
 51
270.0
  0
ARC
  5
3B6
330
1F
100
AcDbEntity
  8
1
  6
Continuous
 62
     7
100
AcDbCircle
 10
-14994.685599714
 20
-2421.76533324497
 30
0.0
 40
712.191710072105
100
AcDbArc
 50
71.38374465517973
 51
108.6294696717226
  0
ARC
  5
3B7
330
1F
100
AcDbEntity
  8
1
  6
Continuous
 62
     7
100
AcDbCircle
 10
-14675.3722909793
 20
-1886.17265009366
 30
0.0
 40
30.09577453860038
100
AcDbArc
 50
0.00000000249376
 51
62.14070523243217
  0
ARC
  5
3B8
330
1F
100
AcDbEntity
  8
1
  6
Continuous
 62
     7
100
AcDbCircle
 10
-14705.3219523218
 20
-1886.172650094
 30
0.0
 40
30.09577453902712
100
AcDbArc
 50
117.8592947677736
 51
174.4475047335769
  0
ARC
  5
3B9
330
1F
100
AcDbEntity
  8
1
  6
Continuous
 62
     7
100
AcDbCircle
 10
-14690.3471216507
 20
-1914.50383683983
 30
0.0
 40
62.14108146617615
100
AcDbArc
 50
62.14070524318489
 51
117.8592947568151
  0
ARC
  5
3BA
330
1F
100
AcDbEntity
  8
1
  6
Continuous
 62
     7
100
AcDbCircle
 10
-14690.2614024909
 20
-2488.36113422813
 30
0.0
 40
57.00000000005038
100
AcDbArc
 50
217.8388875028491
 51
322.1116085332192
  0
ARC
  5
3BB
330
1F
100
AcDbEntity
  8
1
  6
Continuous
 62
     7
100
AcDbCircle
 10
-15299.2916299004
 20
-2488.36113422813
 30
0.0
 40
57.00000000004553
100
AcDbArc
 50
217.888391466719
 51
322.1611124970892
  0
ARC
  5
3BC
330
1F
100
AcDbEntity
  8
1
  6
Continuous
 62
     7
100
AcDbCircle
 10
-15299.2059107407
 20
-1914.50383683983
 30
0.0
 40
62.14108146616731
100
AcDbArc
 50
62.14070524318057
 51
117.8592947567336
  0
ARC
  5
3BD
330
1F
100
AcDbEntity
  8
1
  6
Continuous
 62
     7
100
AcDbCircle
 10
-15284.2310800696
 20
-1886.172650094
 30
0.0
 40
30.09577453904285
100
AcDbArc
 50
5.55249526642312
 51
62.14070523222052
  0
ARC
  5
3BE
330
1F
100
AcDbEntity
  8
1
  6
Continuous
 62
     7
100
AcDbCircle
 10
-15314.1807414121
 20
-1886.17265009366
 30
0.0
 40
30.09577453853959
100
AcDbArc
 50
117.8592947674025
 51
179.9999999975062
  0
ARC
  5
3BF
330
1F
100
AcDbEntity
  8
1
  6
Continuous
 62
     7
100
AcDbCircle
 10
-18893.9985070807
 20
-712.041894556539
 30
0.0
 40
1677.711749058349
100
AcDbArc
 50
6.01967918693075
 51
24.11765479590246
  0
ARC
  5
3C0
330
1F
100
AcDbEntity
  8
1
  6
Continuous
 62
     7
100
AcDbCircle
 10
-17121.7820517371
 20
81.3642762289692
 30
0.0
 40
263.9999999999036
100
AcDbArc
 50
173.8710667233724
 51
204.11765479591
  0
ARC
  5
3C1
330
1F
100
AcDbEntity
  8
1
  6
Continuous
 62
     7
100
AcDbCircle
 10
-16641.9934025612
 20
209.018562587393
 30
0.0
 40
632.9937464846599
100
AcDbArc
 50
169.2850467351404
 51
210.9825338864292
  0
ARC
  5
3C2
330
1F
100
AcDbEntity
  8
1
  6
Continuous
 62
     7
100
AcDbCircle
 10
-17337.6427875203
 20
340.650922846592
 30
0.0
 40
75.00000000000006
100
AcDbArc
 50
349.2850467351216
 51
74.06509743590965
  0
ARC
  5
3C3
330
1F
100
AcDbEntity
  8
1
  6
Continuous
 62
     7
100
AcDbCircle
 10
-16912.8185901304
 20
129.749178534921
 30
0.0
 40
426.9531701654579
100
AcDbArc
 50
179.6863682761558
 51
198.8307507509544
  0
ARC
  5
3C4
330
1F
100
AcDbEntity
  8
1
  6
Continuous
 62
     7
100
AcDbCircle
 10
-18893.9985070807
 20
-712.041894556539
 30
0.0
 40
1727.069282364018
100
AcDbArc
 50
6.75471962374955
 51
14.72236701930061
  0
ARC
  5
3C5
330
1F
100
AcDbEntity
  8
1
  6
Continuous
 62
     7
100
AcDbCircle
 10
-17199.7413507298
 20
-511.339843801206
 30
0.0
 40
20.96596136526376
100
AcDbArc
 50
280.7980736040005
 51
6.66792117358081
  0
ARC
  5
3C6
330
1F
100
AcDbEntity
  8
1
  6
Continuous
 62
     1
100
AcDbCircle
 10
-17412.5084858284
 20
106.558727599204
 30
0.0
 40
83.99999999958395
100
AcDbArc
 50
292.3882486205521
 51
335.832113005952
  0
ARC
  5
3C7
330
1F
100
AcDbEntity
  8
1
  6
DASHED
 62
     3
100
AcDbCircle
 10
-17651.7849154234
 20
-30.4870727729708
 30
0.0
 40
219.0000000000574
100
AcDbArc
 50
292.7130344251995
 51
313.631626650343
  0
ARC
  5
3C8
330
1F
100
AcDbEntity
  8
1
  6
DASHED
 62
     3
100
AcDbCircle
 10
-17696.0150591125
 20
-198.494371403666
 30
0.0
 40
83.9999999995326
100
AcDbArc
 50
324.9268597325034
 51
8.37072411795809
  0
ARC
  5
3C9
330
1F
100
AcDbEntity
  8
1
  6
DASHED
 62
     3
100
AcDbCircle
 10
-17184.2983870969
 20
-604.960293589023
 30
0.0
 40
20.96596136524268
100
AcDbArc
 50
313.3366847160466
 51
39.20653228561287
  0
ARC
  5
3CA
330
1F
100
AcDbEntity
  8
1
  6
DASHED
 62
     3
100
AcDbCircle
 10
-18504.6554178061
 20
-1685.44441493303
 30
0.0
 40
1727.069282362903
100
AcDbArc
 50
39.29333073574
 51
41.77507338815344
  0
ARC
  5
3CB
330
1F
100
AcDbEntity
  8
1
  6
DASHED
 62
     3
100
AcDbCircle
 10
-17287.2352973705
 20
89.8229802548713
 30
0.0
 40
426.9531701654638
100
AcDbArc
 50
212.2249793881585
 51
231.3693618629532
  0
ARC
  5
3CC
330
1F
100
AcDbEntity
  8
1
  6
DASHED
 62
     3
100
AcDbCircle
 10
-17758.8117548591
 20
39.1200298059753
 30
0.0
 40
74.99999999994425
100
AcDbArc
 50
21.82365784712098
 51
106.6037085478354
  0
ARC
  5
3CD
330
1F
100
AcDbEntity
  8
1
  6
DASHED
 62
     3
100
AcDbCircle
 10
-17101.5582158775
 20
302.317542251564
 30
0.0
 40
632.993746484715
100
AcDbArc
 50
201.8236578471388
 51
243.5211449984315
  0
ARC
  5
3CE
330
1F
100
AcDbEntity
  8
1
  6
DASHED
 62
     3
100
AcDbCircle
 10
-19081.2071602549
 20
-3671.91628653172
 30
0.0
 40
3806.999999999659
100
AcDbArc
 50
61.43280150059183
 51
63.52114499843042
  0
ARC
  5
3CF
330
1F
100
AcDbEntity
  8
1
  6
DASHED
 62
     3
100
AcDbCircle
 10
-17437.372908682
 20
-63.3616297015742
 30
0.0
 40
263.999999999963
100
AcDbArc
 50
206.4096778353675
 51
236.6562659079186
  0
ARC
  5
3D0
330
1F
100
AcDbEntity
  8
1
  6
DASHED
 62
     3
100
AcDbCircle
 10
-18504.6554178061
 20
-1685.44441493303
 30
0.0
 40
1677.711749057223
100
AcDbArc
 50
38.55829029892047
 51
56.656265907904
  0
ARC
  5
3D1
330
1F
100
AcDbEntity
  8
1
  6
DASHED
 62
     3
100
AcDbCircle
 10
-17171.8803428647
 20
-583.909902979733
 30
0.0
 40
28.87600303735035
100
AcDbArc
 50
310.5161811402083
 51
26.68159608760845
  0
ARC
  5
3D2
330
1F
100
AcDbEntity
  8
1
  6
DASHED
 62
     3
100
AcDbCircle
 10
-17965.0032085976
 20
-982.489998209966
 30
0.0
 40
916.5189337601136
100
AcDbArc
 50
26.68159608760295
 51
29.72193816078138
  0
ARC
  5
3D3
330
1F
100
AcDbEntity
  8
1
  6
Continuous
 62
     7
100
AcDbCircle
 10
-15299.2764682479
 20
-202.847140799446
 30
0.0
 40
50.2112665437032
100
AcDbArc
 50
26.33530280617569
 51
153.6646971938252
  0
ARC
  5
3D4
330
1F
100
AcDbEntity
  8
1
  6
Continuous
 62
     7
100
AcDbCircle
 10
-15321.2765163712
 20
-364.503623247384
 30
0.0
 40
23.00000000027674
100
AcDbArc
 50
180.1135330397952
 51
247.2051401955008
  0
ARC
  5
3D5
330
1F
100
AcDbEntity
  8
1
  6
Continuous
 62
     7
100
AcDbCircle
 10
-15277.2764661718
 20
-364.503623247384
 30
0.0
 40
23.00000000026808
100
AcDbArc
 50
292.7948598047286
 51
359.8864669602048
  0
ARC
  5
3D6
330
1F
100
AcDbEntity
  8
1
  6
Continuous
 62
     7
100
AcDbCircle
 10
-15299.2764912715
 20
-312.170617045763
 30
0.0
 40
79.76922257042531
100
AcDbArc
 50
247.2006511270945
 51
292.7993488729716
  0
ARC
  5
3D7
330
1F
100
AcDbEntity
  8
1
  6
Continuous
 62
     7
100
AcDbCircle
 10
-15299.3095218871
 20
-342.306998246043
 30
0.0
 40
52.92330136006152
100
AcDbArc
 50
236.2448041058121
 51
302.9611162938639
  0
ARC
  5
3D8
330
1F
100
AcDbEntity
  8
1
  6
Continuous
 62
     7
100
AcDbCircle
 10
-14994.7765161957
 20
3520.5870908341
 30
0.0
 40
3114.258683273648
100
AcDbArc
 50
266.3318075798584
 51
273.6681924201434
  0
ARC
  5
3D9
330
1F
100
AcDbEntity
  8
1
  6
Continuous
 62
     7
100
AcDbCircle
 10
-14793.6462782692
 20
383.302204008669
 30
0.0
 40
29.46678720109605
100
AcDbArc
 50
1.91348449650559
 51
93.66819242001421
  0
ARC
  5
3DA
330
1F
100
AcDbEntity
  8
1
  6
Continuous
 62
     7
100
AcDbCircle
 10
-15195.9067541222
 20
383.302204008669
 30
0.0
 40
29.46678720109211
100
AcDbArc
 50
86.33180757979193
 51
178.0865155034945
  0
ARC
  5
3DB
330
1F
100
AcDbEntity
  8
1
  6
Continuous
 62
     1
100
AcDbCircle
 10
-17247.8434740037
 20
366.674015312257
 30
0.0
 40
361.6544932104474
100
AcDbArc
 50
257.9238491176187
 51
271.0470685334454
  0
ARC
  5
3DC
330
1F
100
AcDbEntity
  8
1
  6
Continuous
 62
     1
100
AcDbCircle
 10
-14994.7765161957
 20
6769.56873423014
 30
0.0
 40
6777.435371455327
100
AcDbArc
 50
267.9478542615421
 51
272.0521457384586
  0
ARC
  5
3DD
330
1F
100
AcDbEntity
  8
1
  6
Continuous
 62
     7
100
AcDbCircle
 10
-20448.5077809027
 20
-2076.58699303883
 30
0.0
 40
3806.99999995572
100
AcDbArc
 50
29.59407555139639
 51
30.98253388644105
  0
ARC
  5
3DE
330
1F
100
AcDbEntity
  8
1
  6
Continuous
 62
     7
100
AcDbCircle
 10
-18893.9985070807
 20
-712.041894556539
 30
0.0
 40
1727.069282364083
100
AcDbArc
 50
16.21378853485492
 51
24.05519021006518
  0
ARC
  5
3DF
330
1F
100
AcDbEntity
  8
1
  6
DASHED
 62
     3
100
AcDbCircle
 10
-18504.6554178061
 20
-1685.44441493303
 30
0.0
 40
1727.069282362904
100
AcDbArc
 50
42.28299729641415
 51
56.59380132206794
  0
ARC
  5
3E0
330
1F
100
AcDbEntity
  8
1
  6
Continuous
 62
     7
100
AcDbCircle
 10
-17093.0340514847
 20
439.726001410218
 30
0.0
 40
929.4402837580448
100
AcDbArc
 50
272.6337850890842
 51
279.6520725479181
  0
ARC
  5
3E1
330
1F
100
AcDbEntity
  8
1
  6
Continuous
 62
     7
100
AcDbCircle
 10
-17059.8374310219
 20
308.306235338282
 30
0.0
 40
793.9048637341798
100
AcDbArc
 50
283.3429264295359
 51
289.3891702226456
  0
ARC
  5
3E2
330
1F
100
AcDbEntity
  8
1
  6
Continuous
 62
     7
100
AcDbCircle
 10
-16955.6688470541
 20
-512.006371617841
 30
0.0
 40
14.96098451921556
100
AcDbArc
 50
130.4999999999722
 51
310.5
  0
ARC
  5
3E3
330
1F
100
AcDbEntity
  8
1
  6
Continuous
 62
     7
100
AcDbCircle
 10
-16749.6434234118
 20
-661.963530124844
 30
0.0
 40
16.99999999991763
100
AcDbArc
 50
148.642428699277
 51
235.8086377653527
  0
ARC
  5
3E4
330
1F
100
AcDbEntity
  8
1
  6
Continuous
 62
     7
100
AcDbCircle
 10
-16743.7498624994
 20
-664.984289409325
 30
0.0
 40
17.81327045865717
100
AcDbArc
 50
235.8086377652696
 51
311.9551568866862
  0
ARC
  5
3E5
330
1F
100
AcDbEntity
  8
1
  6
Continuous
 62
     1
100
AcDbCircle
 10
-16614.7406788274
 20
-372.321519703288
 30
0.0
 40
68.40000000000677
100
AcDbArc
 50
326.9804097108148
 51
4.6094813888255
  0
ARC
  5
3E6
330
1F
100
AcDbEntity
  8
1
  6
Continuous
 62
     7
100
AcDbCircle
 10
-16980.4725327328
 20
-328.126477257139
 30
0.0
 40
429.4079902484555
100
AcDbArc
 50
305.3809724751305
 51
324.0310379800849
  0
ARC
  5
3E7
330
1F
100
AcDbEntity
  8
1
  6
Continuous
 62
     7
100
AcDbCircle
 10
-16638.7994290899
 20
-918.493763371938
 30
0.0
 40
636.9999999983448
100
AcDbArc
 50
85.4934440280935
 51
86.30520168671023
  0
ARC
  5
3E8
330
1F
100
AcDbEntity
  8
1
  6
Continuous
 62
     7
100
AcDbCircle
 10
-16594.0127245938
 20
-350.256004065548
 30
0.0
 40
66.99999999739323
100
AcDbArc
 50
2.86011750290374
 51
85.49344402902973
  0
ARC
  5
3E9
330
1F
100
AcDbEntity
  8
1
  6
Continuous
 62
     7
100
AcDbCircle
 10
-16731.8408224131
 20
-357.141891975623
 30
0.0
 40
205.0000000002925
100
AcDbArc
 50
330.1198214916938
 51
2.86011750518326
  0
ARC
  5
3EA
330
1F
100
AcDbEntity
  8
1
  6
DASHED
 62
     3
100
AcDbCircle
 10
-16264.8282336411
 20
-292.769182996066
 30
0.0
 40
16.99999999825212
100
AcDbArc
 50
276.3269660410884
 51
2.4418925814043
  0
ARC
  5
3EB
330
1F
100
AcDbEntity
  8
1
  6
DASHED
 62
     3
100
AcDbCircle
 10
-16265.6473794462
 20
-286.836685127162
 30
0.0
 40
17.56568895701544
100
AcDbArc
 50
2.57578665027303
 51
68.19643200494492
  0
ARC
  5
3EC
330
1F
100
AcDbEntity
  8
1
  6
DASHED
 62
     3
100
AcDbCircle
 10
-16265.5260302192
 20
-287.03179089029
 30
0.0
 40
17.70273326613805
100
AcDbArc
 50
68.79564326492597
 51
94.51124350512364
  0
ARC
  5
3ED
330
1F
100
AcDbEntity
  8
1
  6
DASHED
 62
     3
100
AcDbCircle
 10
-16382.8829977303
 20
-638.260477922063
 30
0.0
 40
387.9999999999984
100
AcDbArc
 50
71.39941512883269
 51
94.54421239225232
  0
ARC
  5
3EE
330
1F
100
AcDbEntity
  8
1
  6
DASHED
 62
     3
100
AcDbCircle
 10
-16704.5065805142
 20
-357.652017011508
 30
0.0
 40
104.9497363573536
100
AcDbArc
 50
101.2300794449586
 51
108.3771801779513
  0
ARC
  5
3EF
330
1F
100
AcDbEntity
  8
1
  6
DASHED
 62
     3
100
AcDbCircle
 10
-16597.1949754943
 20
106.058014013815
 30
0.0
 40
371.0153605199702
100
AcDbArc
 50
267.4324865616142
 51
274.6778602690188
  0
ARC
  5
3F0
330
1F
100
AcDbEntity
  8
1
  6
Continuous
 62
     1
100
AcDbCircle
 10
-16873.3519388303
 20
-509.458589653989
 30
0.0
 40
328.8227153487489
100
AcDbArc
 50
26.75592066635059
 51
101.7194038779959
  0
ARC
  5
3F1
330
1F
100
AcDbEntity
  8
1
  6
Continuous
 62
     7
100
AcDbCircle
 10
-16873.351938831
 20
-509.458589658198
 30
0.0
 40
356.8227153637537
100
AcDbArc
 50
26.01389762076917
 51
101.7194039325986
  0
ARC
  5
3F2
330
1F
100
AcDbEntity
  8
1
  6
Continuous
 62
     7
100
AcDbCircle
 10
-16581.0889306812
 20
-366.824630882651
 30
0.0
 40
31.61184203888146
100
AcDbArc
 50
303.3663921238394
 51
26.01389762224111
  0
ARC
  5
3F3
330
1F
100
AcDbEntity
  8
1
  6
Continuous
 62
     7
100
AcDbCircle
 10
-16873.3519388303
 20
-509.458589653989
 30
0.0
 40
294.822715359817
100
AcDbArc
 50
44.23739846319746
 51
101.7194039329007
  0
ARC
  5
3F4
330
1F
100
AcDbEntity
  8
1
  6
Continuous
 62
     7
100
AcDbCircle
 10
-17201.8940608453
 20
-250.049383944103
 30
0.0
 40
36.08801607502925
100
AcDbArc
 50
101.7194065355423
 51
178.768316545072
  0
ARC
  5
3F5
330
1F
100
AcDbEntity
  8
1
  6
Continuous
 62
     7
100
AcDbCircle
 10
-17203.77862794
 20
-240.964648510316
 30
0.0
 40
35.190130886304
100
AcDbArc
 50
193.6575178571822
 51
281.7194039333287
  0
ARC
  5
3F6
330
1F
100
AcDbEntity
  8
1
  6
Continuous
 62
     7
100
AcDbCircle
 10
-16757.1341617602
 20
-396.294050352251
 30
0.0
 40
132.6105559435638
100
AcDbArc
 50
17.30507950359193
 51
44.23739846636755
  0
ARC
  5
3F7
330
1F
100
AcDbEntity
  8
1
  6
Continuous
 62
     7
100
AcDbCircle
 10
-16578.3654537667
 20
-340.59641170035
 30
0.0
 40
54.6338776427615
100
AcDbArc
 50
197.3050795051435
 51
285.5680099341465
  0
ARC
  5
3F8
330
1F
100
AcDbEntity
  8
1
  6
Continuous
 62
     7
100
AcDbCircle
 10
-16689.5856452091
 20
-440.143821342007
 30
0.0
 40
12.49999999998712
100
AcDbArc
 50
130.7461623977366
 51
310.7461623980957
  0
ARC
  5
3F9
330
1F
100
AcDbEntity
  8
1
  6
Continuous
 62
     7
100
AcDbCircle
 10
-16638.7994290899
 20
-918.493763371938
 30
0.0
 40
636.9999999983563
100
AcDbArc
 50
94.106852047624
 51
100.006758787775
  0
ARC
  5
3FA
330
1F
100
AcDbEntity
  8
1
  6
Continuous
 62
     7
100
AcDbCircle
 10
-16721.0505470423
 20
-452.624114473759
 30
0.0
 40
8.999999999990056
100
AcDbArc
 50
287.4999999997793
 51
11.36615781465905
  0
ARC
  5
3FB
330
1F
100
AcDbEntity
  8
1
  6
Continuous
 62
     7
100
AcDbCircle
 10
-17177.950249038
 20
-500.273017046748
 30
0.0
 40
28.87600303737417
100
AcDbArc
 50
277.9775700282896
 51
354.1429849756174
  0
ARC
  5
3FC
330
1F
100
AcDbEntity
  8
1
  6
Continuous
 62
     7
100
AcDbCircle
 10
-17024.8226904572
 20
-524.446482448242
 30
0.0
 40
182.0000000001125
100
AcDbArc
 50
100.5312326536604
 51
132.7287747021583
  0
ARC
  5
3FD
330
1F
100
AcDbEntity
  8
1
  6
Continuous
 62
     7
100
AcDbCircle
 10
-17619.406917516
 20
-443.17843744336
 30
0.0
 40
473.9999999940625
100
AcDbArc
 50
352.7228316667154
 51
6.34990514822905
  0
ARC
  5
3FE
330
1F
100
AcDbEntity
  8
1
  6
Continuous
 62
     7
100
AcDbCircle
 10
-21579.9371245204
 20
-456.687255664457
 30
0.0
 40
473.9999999939615
100
AcDbArc
 50
352.7228316667137
 51
6.34990514822821
  0
ARC
  5
3FF
330
1F
100
AcDbEntity
  8
1
  6
Continuous
 62
     7
100
AcDbCircle
 10
-20985.3528974616
 20
-537.955300669339
 30
0.0
 40
182.0000000001301
100
AcDbArc
 50
100.531232653692
 51
132.7287747021598
  0
ARC
  5
400
330
1F
100
AcDbEntity
  8
1
  6
Continuous
 62
     7
100
AcDbCircle
 10
-21138.4804560424
 20
-513.781835267845
 30
0.0
 40
28.87600303737417
100
AcDbArc
 50
277.9775700282896
 51
354.1429849755956
  0
ARC
  5
401
330
1F
100
AcDbEntity
  8
1
  6
Continuous
 62
     7
100
AcDbCircle
 10
-20721.0505470423
 20
-472.624114473759
 30
0.0
 40
8.999999999990056
100
AcDbArc
 50
287.4999999997793
 51
11.36615781465905
  0
ARC
  5
402
330
1F
100
AcDbEntity
  8
1
  6
Continuous
 62
     7
100
AcDbCircle
 10
-20638.7994290899
 20
-938.493763371764
 30
0.0
 40
636.9999999981828
100
AcDbArc
 50
94.10685204762511
 51
100.0067587877777
  0
ARC
  5
403
330
1F
100
AcDbEntity
  8
1
  6
Continuous
 62
     7
100
AcDbCircle
 10
-20689.5856452091
 20
-460.143821342007
 30
0.0
 40
12.49999999998712
100
AcDbArc
 50
130.7461623977366
 51
310.7461623980957
  0
ARC
  5
404
330
1F
100
AcDbEntity
  8
1
  6
Continuous
 62
     7
100
AcDbCircle
 10
-20578.3654537667
 20
-360.59641170035
 30
0.0
 40
54.6338776427615
100
AcDbArc
 50
197.3050795051435
 51
285.5680099341465
  0
ARC
  5
405
330
1F
100
AcDbEntity
  8
1
  6
Continuous
 62
     7
100
AcDbCircle
 10
-20757.1341617602
 20
-416.294050352251
 30
0.0
 40
132.6105559435638
100
AcDbArc
 50
17.30507950359193
 51
44.23739846636725
  0
ARC
  5
406
330
1F
100
AcDbEntity
  8
1
  6
Continuous
 62
     7
100
AcDbCircle
 10
-21203.77862794
 20
-260.964648510316
 30
0.0
 40
35.19013088630399
100
AcDbArc
 50
193.6575178571821
 51
281.7194039333287
  0
ARC
  5
407
330
1F
100
AcDbEntity
  8
1
  6
Continuous
 62
     7
100
AcDbCircle
 10
-21201.8940608453
 20
-270.049383944103
 30
0.0
 40
36.08801607502925
100
AcDbArc
 50
101.7194065355423
 51
178.768316545072
  0
ARC
  5
408
330
1F
100
AcDbEntity
  8
1
  6
Continuous
 62
     7
100
AcDbCircle
 10
-20873.3519388438
 20
-529.458589654244
 30
0.0
 40
294.8227153696667
100
AcDbArc
 50
44.23739846140244
 51
101.7194039303217
  0
ARC
  5
409
330
1F
100
AcDbEntity
  8
1
  6
Continuous
 62
     7
100
AcDbCircle
 10
-20581.0889306812
 20
-386.824630882651
 30
0.0
 40
31.61184203888146
100
AcDbArc
 50
303.3663921238394
 51
26.01389762224436
  0
ARC
  5
40A
330
1F
100
AcDbEntity
  8
1
  6
Continuous
 62
     7
100
AcDbCircle
 10
-20873.351938831
 20
-529.458589658198
 30
0.0
 40
356.8227153637545
100
AcDbArc
 50
26.01389762076945
 51
101.7194039325986
  0
ARC
  5
40B
330
1F
100
AcDbEntity
  8
1
  6
Continuous
 62
     1
100
AcDbCircle
 10
-20873.3519388438
 20
-529.458589654244
 30
0.0
 40
328.8227153609188
100
AcDbArc
 50
26.75592066533123
 51
101.7194038756835
  0
ARC
  5
40C
330
1F
100
AcDbEntity
  8
1
  6
DASHED
 62
     3
100
AcDbCircle
 10
-20597.1949754943
 20
86.0580140138145
 30
0.0
 40
371.0153605199696
100
AcDbArc
 50
267.4324865616142
 51
274.6778602690188
  0
ARC
  5
40D
330
1F
100
AcDbEntity
  8
1
  6
DASHED
 62
     3
100
AcDbCircle
 10
-20704.5065805142
 20
-377.652017011508
 30
0.0
 40
104.9497363573536
100
AcDbArc
 50
101.2300794449586
 51
108.3771801779513
  0
ARC
  5
40E
330
1F
100
AcDbEntity
  8
1
  6
DASHED
 62
     3
100
AcDbCircle
 10
-20402.761181717
 20
-660.464519979418
 30
0.0
 40
388.0000000000107
100
AcDbArc
 50
71.3994151288333
 51
94.54421239225232
  0
ARC
  5
40F
330
1F
100
AcDbEntity
  8
1
  6
DASHED
 62
     3
100
AcDbCircle
 10
-20285.4042142059
 20
-309.235832947645
 30
0.0
 40
17.70273326615019
100
AcDbArc
 50
68.79564326494122
 51
94.51124350512951
  0
ARC
  5
410
330
1F
100
AcDbEntity
  8
1
  6
DASHED
 62
     3
100
AcDbCircle
 10
-20285.5255634329
 20
-309.040727184517
 30
0.0
 40
17.56568895701539
100
AcDbArc
 50
2.57578665026969
 51
68.19643200496063
  0
ARC
  5
411
330
1F
100
AcDbEntity
  8
1
  6
DASHED
 62
     3
100
AcDbCircle
 10
-20284.7064176278
 20
-314.973225053422
 30
0.0
 40
16.99999999825104
100
AcDbArc
 50
276.3269660410888
 51
2.44189258140423
  0
ARC
  5
412
330
1F
100
AcDbEntity
  8
1
  6
Continuous
 62
     7
100
AcDbCircle
 10
-20731.8408224131
 20
-377.141891975623
 30
0.0
 40
205.0000000002925
100
AcDbArc
 50
330.1198214916938
 51
2.86011750518326
  0
ARC
  5
413
330
1F
100
AcDbEntity
  8
1
  6
Continuous
 62
     7
100
AcDbCircle
 10
-20594.0127245938
 20
-370.256004065548
 30
0.0
 40
66.99999999739323
100
AcDbArc
 50
2.86011750290374
 51
85.49344402903
  0
ARC
  5
414
330
1F
100
AcDbEntity
  8
1
  6
Continuous
 62
     7
100
AcDbCircle
 10
-20638.7994290899
 20
-938.493763371764
 30
0.0
 40
636.9999999981753
100
AcDbArc
 50
85.4934440280923
 51
86.30520168670922
  0
ARC
  5
415
330
1F
100
AcDbEntity
  8
1
  6
Continuous
 62
     7
100
AcDbCircle
 10
-20970.0649843892
 20
-331.047749626716
 30
0.0
 40
429.4079902485125
100
AcDbArc
 50
305.3809724751412
 51
324.0310379800925
  0
ARC
  5
416
330
1F
100
AcDbEntity
  8
1
  6
Continuous
 62
     1
100
AcDbCircle
 10
-20614.7406788274
 20
-392.321519703288
 30
0.0
 40
68.40000000000677
100
AcDbArc
 50
326.9804097108148
 51
4.6094813888255
  0
ARC
  5
417
330
1F
100
AcDbEntity
  8
1
  6
Continuous
 62
     7
100
AcDbCircle
 10
-20733.3423141557
 20
-667.905561778902
 30
0.0
 40
17.81327045865717
100
AcDbArc
 50
235.8086377652696
 51
311.955156886686
  0
ARC
  5
418
330
1F
100
AcDbEntity
  8
1
  6
Continuous
 62
     7
100
AcDbCircle
 10
-20739.2358750682
 20
-664.884802494421
 30
0.0
 40
16.99999999983064
100
AcDbArc
 50
148.6424286990983
 51
235.8086377653529
  0
ARC
  5
419
330
1F
100
AcDbEntity
  8
1
  6
Continuous
 62
     7
100
AcDbCircle
 10
-20955.6688470541
 20
-532.006371617841
 30
0.0
 40
14.96098451921556
100
AcDbArc
 50
130.4999999999722
 51
310.5
  0
ARC
  5
41A
330
1F
100
AcDbEntity
  8
1
  6
Continuous
 62
     7
100
AcDbCircle
 10
-21059.8374310219
 20
288.306235338282
 30
0.0
 40
793.9048637341798
100
AcDbArc
 50
283.3429264295359
 51
289.3891702226456
  0
ARC
  5
41B
330
1F
100
AcDbEntity
  8
1
  6
Continuous
 62
     7
100
AcDbCircle
 10
-21093.0340514847
 20
419.726001410218
 30
0.0
 40
929.4402837580448
100
AcDbArc
 50
272.6337850890842
 51
279.6520725479181
  0
ARC
  5
41C
330
1F
100
AcDbEntity
  8
1
  6
DASHED
 62
     3
100
AcDbCircle
 10
-22465.18562481
 20
-1698.95323315357
 30
0.0
 40
1727.06928236216
100
AcDbArc
 50
42.2829972964116
 51
56.59380132207155
  0
ARC
  5
41D
330
1F
100
AcDbEntity
  8
1
  6
Continuous
 62
     7
100
AcDbCircle
 10
-22854.5287140832
 20
-725.550712777044
 30
0.0
 40
1727.069282362074
100
AcDbArc
 50
16.58250228167832
 51
24.0551902100729
  0
ARC
  5
41E
330
1F
100
AcDbEntity
  8
1
  6
Continuous
 62
     7
100
AcDbCircle
 10
-24409.0379879072
 20
-2090.09581125993
 30
0.0
 40
3806.999999955753
100
AcDbArc
 50
29.56651904353262
 51
30.98253388644022
  0
ARC
  5
41F
330
1F
100
AcDbEntity
  8
1
  6
Continuous
 62
     1
100
AcDbCircle
 10
-21208.3736810082
 20
353.165197091159
 30
0.0
 40
361.6544932104256
100
AcDbArc
 50
257.9238491176344
 51
271.0470685334454
  0
ARC
  5
420
330
1F
100
AcDbEntity
  8
1
  6
DASHED
 62
     3
100
AcDbCircle
 10
-21925.533415602
 20
-995.998816431063
 30
0.0
 40
916.5189337601104
100
AcDbArc
 50
26.68159608760307
 51
29.72193816078176
  0
ARC
  5
421
330
1F
100
AcDbEntity
  8
1
  6
DASHED
 62
     3
100
AcDbCircle
 10
-21132.4105498691
 20
-597.418721200831
 30
0.0
 40
28.87600303734808
100
AcDbArc
 50
310.5161811402027
 51
26.68159608761351
  0
ARC
  5
422
330
1F
100
AcDbEntity
  8
1
  6
DASHED
 62
     3
100
AcDbCircle
 10
-22465.18562481
 20
-1698.95323315357
 30
0.0
 40
1677.711749056484
100
AcDbArc
 50
38.55829029891628
 51
56.65626590790784
  0
ARC
  5
423
330
1F
100
AcDbEntity
  8
1
  6
DASHED
 62
     3
100
AcDbCircle
 10
-21397.9031156864
 20
-76.8704479226717
 30
0.0
 40
263.9999999999627
100
AcDbArc
 50
206.4096778353675
 51
236.6562659079187
  0
ARC
  5
424
330
1F
100
AcDbEntity
  8
1
  6
DASHED
 62
     3
100
AcDbCircle
 10
-23041.7373672593
 20
-3685.42510475282
 30
0.0
 40
3806.999999999663
100
AcDbArc
 50
61.43280150059185
 51
63.52114499843046
  0
ARC
  5
425
330
1F
100
AcDbEntity
  8
1
  6
DASHED
 62
     3
100
AcDbCircle
 10
-21062.0884228819
 20
288.808724030466
 30
0.0
 40
632.9937464847112
100
AcDbArc
 50
201.8236578471388
 51
243.5211449984318
  0
ARC
  5
426
330
1F
100
AcDbEntity
  8
1
  6
DASHED
 62
     3
100
AcDbCircle
 10
-21719.3419618635
 20
25.6112115848778
 30
0.0
 40
74.99999999994773
100
AcDbArc
 50
21.82365784712016
 51
106.6037085478354
  0
ARC
  5
427
330
1F
100
AcDbEntity
  8
1
  6
DASHED
 62
     3
100
AcDbCircle
 10
-21247.7655043749
 20
76.3141620337738
 30
0.0
 40
426.9531701654635
100
AcDbArc
 50
212.2249793881584
 51
231.3693618629536
  0
ARC
  5
428
330
1F
100
AcDbEntity
  8
1
  6
DASHED
 62
     3
100
AcDbCircle
 10
-22465.18562481
 20
-1698.95323315357
 30
0.0
 40
1727.069282362162
100
AcDbArc
 50
39.29333073573625
 51
41.77507338815076
  0
ARC
  5
429
330
1F
100
AcDbEntity
  8
1
  6
DASHED
 62
     3
100
AcDbCircle
 10
-21144.8285941014
 20
-618.469111810121
 30
0.0
 40
20.9659613653125
100
AcDbArc
 50
313.3366847162493
 51
39.20653228543932
  0
ARC
  5
42A
330
1F
100
AcDbEntity
  8
1
  6
DASHED
 62
     3
100
AcDbCircle
 10
-21656.545266117
 20
-212.003189624764
 30
0.0
 40
83.99999999961243
100
AcDbArc
 50
324.9268597325425
 51
8.37072411794865
  0
ARC
  5
42B
330
1F
100
AcDbEntity
  8
1
  6
DASHED
 62
     3
100
AcDbCircle
 10
-21612.3151224278
 20
-43.9958909940683
 30
0.0
 40
219.0000000000584
100
AcDbArc
 50
292.7130344252004
 51
313.6316266503243
  0
ARC
  5
42C
330
1F
100
AcDbEntity
  8
1
  6
Continuous
 62
     1
100
AcDbCircle
 10
-21373.0386928328
 20
93.0499093781063
 30
0.0
 40
83.99999999958516
100
AcDbArc
 50
292.3882486205545
 51
335.8321130059505
  0
ARC
  5
42D
330
1F
100
AcDbEntity
  8
1
  6
Continuous
 62
     7
100
AcDbCircle
 10
-21160.2715577343
 20
-524.848662022303
 30
0.0
 40
20.96596136528311
100
AcDbArc
 50
280.7980736042637
 51
6.66792117354964
  0
ARC
  5
42E
330
1F
100
AcDbEntity
  8
1
  6
Continuous
 62
     7
100
AcDbCircle
 10
-22854.5287140832
 20
-725.550712777044
 30
0.0
 40
1727.069282362058
100
AcDbArc
 50
6.75471962373744
 51
14.52092231011877
  0
ARC
  5
42F
330
1F
100
AcDbEntity
  8
1
  6
Continuous
 62
     7
100
AcDbCircle
 10
-20873.3487971348
 20
116.240360313823
 30
0.0
 40
426.9531701654579
100
AcDbArc
 50
179.6863682761558
 51
198.8307507509545
  0
ARC
  5
430
330
1F
100
AcDbEntity
  8
1
  6
Continuous
 62
     7
100
AcDbCircle
 10
-21298.1729945247
 20
327.142104625494
 30
0.0
 40
74.99999999989997
100
AcDbArc
 50
349.2850467351071
 51
74.06509743590985
  0
ARC
  5
431
330
1F
100
AcDbEntity
  8
1
  6
Continuous
 62
     7
100
AcDbCircle
 10
-20602.5236095657
 20
195.509744366296
 30
0.0
 40
632.9937464846598
100
AcDbArc
 50
169.2850467351405
 51
210.9825338864343
  0
ARC
  5
432
330
1F
100
AcDbEntity
  8
1
  6
Continuous
 62
     7
100
AcDbCircle
 10
-21082.3122587416
 20
67.8554580078717
 30
0.0
 40
263.9999999999037
100
AcDbArc
 50
173.8710667233723
 51
204.1176547959178
  0
ARC
  5
433
330
1F
100
AcDbEntity
  8
1
  6
Continuous
 62
     7
100
AcDbCircle
 10
-22854.5287140832
 20
-725.550712777044
 30
0.0
 40
1677.711749056398
100
AcDbArc
 50
6.01967918691742
 51
24.11765479591068
  0
ARC
  5
434
330
1F
100
AcDbEntity
  8
1
  6
Continuous
 62
     7
100
AcDbCircle
 10
-13619.406917516
 20
-403.17843744336
 30
0.0
 40
473.9999999940609
100
AcDbArc
 50
352.7228316667152
 51
6.34990514822903
  0
ARC
  5
435
330
1F
100
AcDbEntity
  8
1
  6
Continuous
 62
     7
100
AcDbCircle
 10
-13024.8226904572
 20
-484.446482448242
 30
0.0
 40
182.0000000001125
100
AcDbArc
 50
100.5312326536604
 51
132.7287747021579
  0
ARC
  5
436
330
1F
100
AcDbEntity
  8
1
  6
Continuous
 62
     7
100
AcDbCircle
 10
-13177.950249038
 20
-460.273017046748
 30
0.0
 40
28.87600303737392
100
AcDbArc
 50
277.977570028286
 51
354.142984975613
  0
ARC
  5
437
330
1F
100
AcDbEntity
  8
1
  6
Continuous
 62
     7
100
AcDbCircle
 10
-12721.0505470423
 20
-412.624114473759
 30
0.0
 40
8.999999999988962
100
AcDbArc
 50
287.4999999997572
 51
11.36615781466362
  0
ARC
  5
438
330
1F
100
AcDbEntity
  8
1
  6
Continuous
 62
     7
100
AcDbCircle
 10
-12638.7994290899
 20
-878.493763371764
 30
0.0
 40
636.9999999981828
100
AcDbArc
 50
94.10685204762511
 51
100.0067587877777
  0
ARC
  5
439
330
1F
100
AcDbEntity
  8
1
  6
Continuous
 62
     7
100
AcDbCircle
 10
-12689.5856452091
 20
-400.143821342007
 30
0.0
 40
12.49999999998593
100
AcDbArc
 50
130.7461623977303
 51
310.7461623980894
  0
ARC
  5
43A
330
1F
100
AcDbEntity
  8
1
  6
Continuous
 62
     7
100
AcDbCircle
 10
-12578.3654537667
 20
-300.59641170035
 30
0.0
 40
54.63387764275976
100
AcDbArc
 50
197.3050795051441
 51
285.5680099341483
  0
ARC
  5
43B
330
1F
100
AcDbEntity
  8
1
  6
Continuous
 62
     7
100
AcDbCircle
 10
-12757.1341617602
 20
-356.294050352251
 30
0.0
 40
132.610555943562
100
AcDbArc
 50
17.30507950359216
 51
44.23739846636835
  0
ARC
  5
43C
330
1F
100
AcDbEntity
  8
1
  6
Continuous
 62
     7
100
AcDbCircle
 10
-13203.77862794
 20
-200.964648510316
 30
0.0
 40
35.19013088630224
100
AcDbArc
 50
193.6575178571829
 51
281.7194039333316
  0
ARC
  5
43D
330
1F
100
AcDbEntity
  8
1
  6
Continuous
 62
     7
100
AcDbCircle
 10
-13201.8940608453
 20
-210.049383944103
 30
0.0
 40
36.08801607502962
100
AcDbArc
 50
101.7194065355451
 51
178.7683165450721
  0
ARC
  5
43E
330
1F
100
AcDbEntity
  8
1
  6
Continuous
 62
     7
100
AcDbCircle
 10
-12873.3519388438
 20
-469.458589654244
 30
0.0
 40
294.8227153696654
100
AcDbArc
 50
44.23739846140269
 51
101.7194039303217
  0
ARC
  5
43F
330
1F
100
AcDbEntity
  8
1
  6
Continuous
 62
     7
100
AcDbCircle
 10
-12581.0889306812
 20
-326.824630882651
 30
0.0
 40
31.61184203888245
100
AcDbArc
 50
303.3663921238422
 51
26.01389762224436
  0
ARC
  5
440
330
1F
100
AcDbEntity
  8
1
  6
Continuous
 62
     7
100
AcDbCircle
 10
-12873.3519388311
 20
-469.458589658198
 30
0.0
 40
356.8227153638412
100
AcDbArc
 50
26.01389762076266
 51
101.7194039325829
  0
ARC
  5
441
330
1F
100
AcDbEntity
  8
1
  6
Continuous
 62
     1
100
AcDbCircle
 10
-12873.3519388438
 20
-469.458589654244
 30
0.0
 40
328.8227153608311
100
AcDbArc
 50
26.75592066533894
 51
101.7194038756835
  0
ARC
  5
442
330
1F
100
AcDbEntity
  8
1
  6
DASHED
 62
     3
100
AcDbCircle
 10
-12597.1949754943
 20
146.058014013815
 30
0.0
 40
371.0153605199702
100
AcDbArc
 50
267.4324865616139
 51
274.6778602690183
  0
ARC
  5
443
330
1F
100
AcDbEntity
  8
1
  6
DASHED
 62
     3
100
AcDbCircle
 10
-12704.5065805142
 20
-317.652017011508
 30
0.0
 40
104.949736357354
100
AcDbArc
 50
101.2300794449596
 51
108.3771801779523
  0
ARC
  5
444
330
1F
100
AcDbEntity
  8
1
  6
DASHED
 62
     3
100
AcDbCircle
 10
-12343.1266297569
 20
-593.85239380735
 30
0.0
 40
388.0000000000145
100
AcDbArc
 50
71.3994151288335
 51
94.54421239225232
  0
ARC
  5
445
330
1F
100
AcDbEntity
  8
1
  6
DASHED
 62
     3
100
AcDbCircle
 10
-12225.7696622457
 20
-242.623706775577
 30
0.0
 40
17.70273326611771
100
AcDbArc
 50
68.79564326524775
 51
94.51124350544644
  0
ARC
  5
446
330
1F
100
AcDbEntity
  8
1
  6
DASHED
 62
     3
100
AcDbCircle
 10
-12225.8910114728
 20
-242.428601012449
 30
0.0
 40
17.56568895701544
100
AcDbArc
 50
2.57578665027294
 51
68.19643200496547
  0
ARC
  5
447
330
1F
100
AcDbEntity
  8
1
  6
DASHED
 62
     3
100
AcDbCircle
 10
-12225.0718656677
 20
-248.361098881353
 30
0.0
 40
16.99999999825209
100
AcDbArc
 50
276.3269660410884
 51
2.44189258140449
  0
ARC
  5
448
330
1F
100
AcDbEntity
  8
1
  6
Continuous
 62
     7
100
AcDbCircle
 10
-12731.8408224131
 20
-317.141891975623
 30
0.0
 40
205.000000000291
100
AcDbArc
 50
330.1198214916935
 51
2.86011750518326
  0
ARC
  5
449
330
1F
100
AcDbEntity
  8
1
  6
Continuous
 62
     7
100
AcDbCircle
 10
-12594.0127245937
 20
-310.256004065548
 30
0.0
 40
66.99999999729694
100
AcDbArc
 50
2.86011750290786
 51
85.4934440291122
  0
ARC
  5
44A
330
1F
100
AcDbEntity
  8
1
  6
Continuous
 62
     7
100
AcDbCircle
 10
-12638.7994290899
 20
-878.493763371764
 30
0.0
 40
636.9999999981754
100
AcDbArc
 50
85.49344402809214
 51
86.30520168670922
  0
ARC
  5
44B
330
1F
100
AcDbEntity
  8
1
  6
Continuous
 62
     7
100
AcDbCircle
 10
-13001.2876294202
 20
-322.283932517985
 30
0.0
 40
429.4079902485135
100
AcDbArc
 50
305.3809724751414
 51
324.0310379800925
  0
ARC
  5
44C
330
1F
100
AcDbEntity
  8
1
  6
Continuous
 62
     1
100
AcDbCircle
 10
-12614.7406788274
 20
-332.321519703288
 30
0.0
 40
68.40000000000677
100
AcDbArc
 50
326.9804097108148
 51
4.60948138882623
  0
ARC
  5
44D
330
1F
100
AcDbEntity
  8
1
  6
Continuous
 62
     7
100
AcDbCircle
 10
-12764.5649591867
 20
-659.141744670171
 30
0.0
 40
17.81327045865717
100
AcDbArc
 50
235.8086377652696
 51
311.9551568866903
  0
ARC
  5
44E
330
1F
100
AcDbEntity
  8
1
  6
Continuous
 62
     7
100
AcDbCircle
 10
-12770.4585200992
 20
-656.12098538569
 30
0.0
 40
16.99999999982856
100
AcDbArc
 50
148.6424286990981
 51
235.8086377653529
  0
ARC
  5
44F
330
1F
100
AcDbEntity
  8
1
  6
Continuous
 62
     7
100
AcDbCircle
 10
-12955.6688470541
 20
-472.006371617841
 30
0.0
 40
14.96098451921797
100
AcDbArc
 50
130.4999999999827
 51
310.4999999999947
  0
ARC
  5
450
330
1F
100
AcDbEntity
  8
1
  6
Continuous
 62
     7
100
AcDbCircle
 10
-13059.8374310219
 20
348.306235338282
 30
0.0
 40
793.9048637341798
100
AcDbArc
 50
283.3429264295359
 51
289.3891702226388
  0
ARC
  5
451
330
1F
100
AcDbEntity
  8
1
  6
Continuous
 62
     7
100
AcDbCircle
 10
-13093.0340514847
 20
479.726001410218
 30
0.0
 40
929.4402837580446
100
AcDbArc
 50
272.633785089084
 51
279.652072547918
  0
ARC
  5
452
330
1F
100
AcDbEntity
  8
1
  6
DASHED
 62
     3
100
AcDbCircle
 10
-14504.6554178056
 20
-1645.44441493247
 30
0.0
 40
1727.069282362157
100
AcDbArc
 50
42.28299729641157
 51
56.59380132207155
  0
ARC
  5
453
330
1F
100
AcDbEntity
  8
1
  6
Continuous
 62
     7
100
AcDbCircle
 10
-14893.9985070788
 20
-672.041894555947
 30
0.0
 40
1727.069282362092
100
AcDbArc
 50
16.21378853485367
 51
24.05519021007287
  0
ARC
  5
454
330
1F
100
AcDbEntity
  8
1
  6
Continuous
 62
     7
100
AcDbCircle
 10
-16448.5077809027
 20
-2036.58699303883
 30
0.0
 40
3806.999999955719
100
AcDbArc
 50
29.59407555139638
 51
30.98253388644105
  0
ARC
  5
455
330
1F
100
AcDbEntity
  8
1
  6
Continuous
 62
     1
100
AcDbCircle
 10
-13247.8434740037
 20
406.674015312257
 30
0.0
 40
361.6544932104474
100
AcDbArc
 50
257.9238491176187
 51
271.0470685334451
  0
ARC
  5
456
330
1F
100
AcDbEntity
  8
1
  6
DASHED
 62
     3
100
AcDbCircle
 10
-13965.0032085976
 20
-942.489998209966
 30
0.0
 40
916.5189337601125
100
AcDbArc
 50
26.68159608760334
 51
29.72193816078143
  0
ARC
  5
457
330
1F
100
AcDbEntity
  8
1
  6
DASHED
 62
     3
100
AcDbCircle
 10
-13171.8803428647
 20
-543.909902979733
 30
0.0
 40
28.87600303734918
100
AcDbArc
 50
310.5161811402056
 51
26.68159608761894
  0
ARC
  5
458
330
1F
100
AcDbEntity
  8
1
  6
DASHED
 62
     3
100
AcDbCircle
 10
-14504.6554178056
 20
-1645.44441493247
 30
0.0
 40
1677.711749056481
100
AcDbArc
 50
38.55829029891619
 51
56.65626590790787
  0
ARC
  5
459
330
1F
100
AcDbEntity
  8
1
  6
DASHED
 62
     3
100
AcDbCircle
 10
-13437.372908682
 20
-23.3616297015742
 30
0.0
 40
263.9999999998734
100
AcDbArc
 50
206.4096778353772
 51
236.6562659079185
  0
ARC
  5
45A
330
1F
100
AcDbEntity
  8
1
  6
DASHED
 62
     3
100
AcDbCircle
 10
-15081.2071602549
 20
-3631.91628653172
 30
0.0
 40
3806.999999999661
100
AcDbArc
 50
61.4328015005918
 51
63.52114499843044
  0
ARC
  5
45B
330
1F
100
AcDbEntity
  8
1
  6
DASHED
 62
     3
100
AcDbCircle
 10
-13054.4186312533
 20
394.395210512708
 30
0.0
 40
700.8833208039895
100
AcDbArc
 50
200.2723127953483
 51
241.9697999466416
  0
ARC
  5
45C
330
1F
100
AcDbEntity
  8
1
  6
DASHED
 62
     3
100
AcDbCircle
 10
-13781.5116996668
 20
123.670142103544
 30
0.0
 40
74.99999999994638
100
AcDbArc
 50
21.82365784712132
 51
106.6037085478353
  0
ARC
  5
45D
330
1F
100
AcDbEntity
  8
1
  6
DASHED
 62
     3
100
AcDbCircle
 10
-13287.2352973705
 20
129.822980254871
 30
0.0
 40
426.953170165462
100
AcDbArc
 50
212.2249793881585
 51
231.3693618629536
  0
ARC
  5
45E
330
1F
100
AcDbEntity
  8
1
  6
DASHED
 62
     3
100
AcDbCircle
 10
-14504.6554178056
 20
-1645.44441493247
 30
0.0
 40
1727.069282362158
100
AcDbArc
 50
39.29333073573621
 51
41.77507338815069
  0
ARC
  5
45F
330
1F
100
AcDbEntity
  8
1
  6
DASHED
 62
     3
100
AcDbCircle
 10
-13184.2983870969
 20
-564.960293589023
 30
0.0
 40
20.96596136524268
100
AcDbArc
 50
313.3366847160466
 51
39.20653228561189
  0
ARC
  5
460
330
1F
100
AcDbEntity
  8
1
  6
DASHED
 62
     3
100
AcDbCircle
 10
-13696.0150591125
 20
-158.494371403666
 30
0.0
 40
83.9999999995326
100
AcDbArc
 50
324.9268597325034
 51
8.37072411795773
  0
ARC
  5
461
330
1F
100
AcDbEntity
  8
1
  6
DASHED
 62
     3
100
AcDbCircle
 10
-13651.7849154234
 20
9.51292722702919
 30
0.0
 40
219.0000000000589
100
AcDbArc
 50
292.7130344252004
 51
313.6316266503437
  0
ARC
  5
462
330
1F
100
AcDbEntity
  8
1
  6
Continuous
 62
     1
100
AcDbCircle
 10
-13412.5084858284
 20
146.558727599204
 30
0.0
 40
83.99999999958533
100
AcDbArc
 50
292.3882486205545
 51
335.8321130059529
  0
ARC
  5
463
330
1F
100
AcDbEntity
  8
1
  6
Continuous
 62
     7
100
AcDbCircle
 10
-13199.7413507298
 20
-471.339843801206
 30
0.0
 40
20.96596136526371
100
AcDbArc
 50
280.7980736040006
 51
6.66792117358081
  0
ARC
  5
464
330
1F
100
AcDbEntity
  8
1
  6
Continuous
 62
     7
100
AcDbCircle
 10
-14893.9985070788
 20
-672.041894555947
 30
0.0
 40
1727.06928236206
100
AcDbArc
 50
6.75471962373746
 51
14.72236701929764
  0
ARC
  5
465
330
1F
100
AcDbEntity
  8
1
  6
Continuous
 62
     7
100
AcDbCircle
 10
-12912.8185901304
 20
169.749178534921
 30
0.0
 40
426.9531701654579
100
AcDbArc
 50
179.6863682761558
 51
198.8307507509548
  0
ARC
  5
466
330
1F
100
AcDbEntity
  8
1
  6
Continuous
 62
     7
100
AcDbCircle
 10
-13332.8174305339
 20
430.417537458733
 30
0.0
 40
74.99999999999847
100
AcDbArc
 50
349.2850467351205
 51
74.06509743583614
  0
ARC
  5
467
330
1F
100
AcDbEntity
  8
1
  6
Continuous
 62
     7
100
AcDbCircle
 10
-12574.2424545703
 20
267.566689619289
 30
0.0
 40
700.8833208039999
100
AcDbArc
 50
167.7337016833479
 51
209.4311888346389
  0
ARC
  5
468
330
1F
100
AcDbEntity
  8
1
  6
Continuous
 62
     7
100
AcDbCircle
 10
-13121.7820517371
 20
121.364276228969
 30
0.0
 40
264.0000000000013
100
AcDbArc
 50
173.8710667233746
 51
204.1176547959092
  0
ARC
  5
469
330
1F
100
AcDbEntity
  8
1
  6
Continuous
 62
     7
100
AcDbCircle
 10
-14893.9985070788
 20
-672.041894555947
 30
0.0
 40
1677.711749056398
100
AcDbArc
 50
6.01967918691742
 51
24.11765479591066
  0
ARC
  5
46A
330
1F
100
AcDbEntity
  8
1
  6
Continuous
 62
     7
100
AcDbCircle
 10
-15272.8783664965
 20
-388.02264032363
 30
0.0
 40
15.00000000003098
100
AcDbArc
 50
202.3207426168932
 51
247.7585192205069
  0
ARC
  5
46B
330
1F
100
AcDbEntity
  8
1
  6
Continuous
 62
     7
100
AcDbCircle
 10
-15275.8515490569
 20
-391.12833140319
 30
0.0
 40
36.00000000001104
100
AcDbArc
 50
184.1695730370937
 51
247.7585192205334
  0
ARC
  5
46C
330
1F
100
AcDbEntity
  8
1
  6
Continuous
 62
     1
100
AcDbCircle
 10
-14994.7765076633
 20
377.80606457494
 30
0.0
 40
797.6809673415119
100
AcDbArc
 50
251.5838942765565
 51
288.4161057234369
  0
ARC
  5
46D
330
1F
100
AcDbEntity
  8
1
  6
Continuous
 62
     7
100
AcDbCircle
 10
-15200.9396475356
 20
-356.566128774927
 30
0.0
 40
72.0
100
AcDbArc
 50
90.0
 51
129.5404495224125
  0
ARC
  5
46E
330
1F
100
AcDbEntity
  8
1
  6
Continuous
 62
     7
100
AcDbCircle
 10
-14788.6133848557
 20
-356.566128774927
 30
0.0
 40
71.99999999998639
100
AcDbArc
 50
50.45955047764777
 51
90.0
  0
ARC
  5
46F
330
1F
100
AcDbEntity
  8
1
  6
Continuous
 62
     7
100
AcDbCircle
 10
-14994.7765161957
 20
-7200.04512843254
 30
0.0
 40
6918.551367983718
100
AcDbArc
 50
88.29241332197952
 51
91.70758667801968
  0
ARC
  5
470
330
1F
100
AcDbEntity
  8
1
  6
Continuous
 62
     7
100
AcDbCircle
 10
-14713.7014824574
 20
-391.12833140319
 30
0.0
 40
35.99999999998968
100
AcDbArc
 50
292.2414807794666
 51
355.8304269629064
  0
ARC
  5
471
330
1F
100
AcDbEntity
  8
1
  6
Continuous
 62
     7
100
AcDbCircle
 10
-14716.6746650178
 20
-388.02264032363
 30
0.0
 40
15.00000000000113
100
AcDbArc
 50
292.2414807794931
 51
337.6792573830972
  0
ARC
  5
472
330
1F
100
AcDbEntity
  8
1
  6
Continuous
 62
     7
100
AcDbCircle
 10
-14690.2435096272
 20
-342.306998246043
 30
0.0
 40
52.92330136004872
100
AcDbArc
 50
237.0388837061371
 51
303.7551958941892
  0
ARC
  5
473
330
1F
100
AcDbEntity
  8
1
  6
Continuous
 62
     7
100
AcDbCircle
 10
-14690.2765402428
 20
-312.170617045763
 30
0.0
 40
79.76922257045946
100
AcDbArc
 50
247.2006511270268
 51
292.7993488729043
  0
ARC
  5
474
330
1F
100
AcDbEntity
  8
1
  6
Continuous
 62
     7
100
AcDbCircle
 10
-14712.2765653425
 20
-364.503623247384
 30
0.0
 40
23.00000000027674
100
AcDbArc
 50
180.1135330397952
 51
247.2051401952663
  0
ARC
  5
475
330
1F
100
AcDbEntity
  8
1
  6
Continuous
 62
     7
100
AcDbCircle
 10
-14668.2765151431
 20
-364.503623247384
 30
0.0
 40
23.00000000023304
100
AcDbArc
 50
292.794859804495
 51
359.8864669602048
  0
ARC
  5
476
330
1F
100
AcDbEntity
  8
1
  6
Continuous
 62
     7
100
AcDbCircle
 10
-14690.2765632664
 20
-202.847140799446
 30
0.0
 40
50.21126654370483
100
AcDbArc
 50
26.33530280617477
 51
153.6646971938252
  0
ARC
  5
477
330
1F
100
AcDbEntity
  8
1
  6
Continuous
 62
     7
100
AcDbCircle
 10
-10690.2765632664
 20
-162.847140799446
 30
0.0
 40
50.21126654370483
100
AcDbArc
 50
26.33530280617477
 51
153.6646971938252
  0
ARC
  5
478
330
1F
100
AcDbEntity
  8
1
  6
Continuous
 62
     7
100
AcDbCircle
 10
-10668.2765151431
 20
-324.503623247384
 30
0.0
 40
23.00000000023671
100
AcDbArc
 50
292.7948598044911
 51
359.8864669602048
  0
ARC
  5
479
330
1F
100
AcDbEntity
  8
1
  6
Continuous
 62
     7
100
AcDbCircle
 10
-10712.2765653425
 20
-324.503623247384
 30
0.0
 40
23.00000000027674
100
AcDbArc
 50
180.1135330397952
 51
247.2051401952711
  0
ARC
  5
47A
330
1F
100
AcDbEntity
  8
1
  6
Continuous
 62
     7
100
AcDbCircle
 10
-10690.2765402428
 20
-272.170617045763
 30
0.0
 40
79.76922257046408
100
AcDbArc
 50
247.2006511270282
 51
292.7993488729032
  0
ARC
  5
47B
330
1F
100
AcDbEntity
  8
1
  6
Continuous
 62
     7
100
AcDbCircle
 10
-10690.2435096272
 20
-302.306998246043
 30
0.0
 40
52.92330136004872
100
AcDbArc
 50
237.0388837061371
 51
303.7551958941892
  0
ARC
  5
47C
330
1F
100
AcDbEntity
  8
1
  6
Continuous
 62
     7
100
AcDbCircle
 10
-10716.6746650178
 20
-348.02264032363
 30
0.0
 40
15.00000000000113
100
AcDbArc
 50
292.2414807794931
 51
337.6792573830972
  0
ARC
  5
47D
330
1F
100
AcDbEntity
  8
1
  6
Continuous
 62
     7
100
AcDbCircle
 10
-10713.7014824574
 20
-351.12833140319
 30
0.0
 40
35.99999999998968
100
AcDbArc
 50
292.2414807794666
 51
355.8304269629064
  0
ARC
  5
47E
330
1F
100
AcDbEntity
  8
1
  6
Continuous
 62
     7
100
AcDbCircle
 10
-10994.7765161957
 20
-7160.04512843254
 30
0.0
 40
6918.551367983716
100
AcDbArc
 50
88.29241332197952
 51
91.70758667801968
  0
ARC
  5
47F
330
1F
100
AcDbEntity
  8
1
  6
Continuous
 62
     7
100
AcDbCircle
 10
-10788.6133848557
 20
-316.566128774927
 30
0.0
 40
71.99999999998639
100
AcDbArc
 50
50.45955047764777
 51
90.0
  0
ARC
  5
480
330
1F
100
AcDbEntity
  8
1
  6
Continuous
 62
     7
100
AcDbCircle
 10
-11200.9396475356
 20
-316.566128774927
 30
0.0
 40
72.0
100
AcDbArc
 50
90.0
 51
129.5404495224125
  0
ARC
  5
481
330
1F
100
AcDbEntity
  8
1
  6
Continuous
 62
     1
100
AcDbCircle
 10
-10994.7765076633
 20
417.80606457494
 30
0.0
 40
797.6809673415119
100
AcDbArc
 50
251.5838942765565
 51
288.4161057234369
  0
ARC
  5
482
330
1F
100
AcDbEntity
  8
1
  6
Continuous
 62
     7
100
AcDbCircle
 10
-11275.8515490569
 20
-351.12833140319
 30
0.0
 40
36.00000000001111
100
AcDbArc
 50
184.1695730370952
 51
247.7585192205334
  0
ARC
  5
483
330
1F
100
AcDbEntity
  8
1
  6
Continuous
 62
     7
100
AcDbCircle
 10
-11272.8783664965
 20
-348.02264032363
 30
0.0
 40
15.00000000003098
100
AcDbArc
 50
202.3207426168932
 51
247.7585192205069
  0
ARC
  5
484
330
1F
100
AcDbEntity
  8
1
  6
Continuous
 62
     1
100
AcDbCircle
 10
-10994.7765161957
 20
6809.56873423014
 30
0.0
 40
6777.435371455327
100
AcDbArc
 50
267.9478542615421
 51
272.0521457384586
  0
ARC
  5
485
330
1F
100
AcDbEntity
  8
1
  6
Continuous
 62
     7
100
AcDbCircle
 10
-11195.9067541222
 20
473.06881862081
 30
0.0
 40
29.46678720109108
100
AcDbArc
 50
86.3318075797918
 51
178.0865155034965
  0
ARC
  5
486
330
1F
100
AcDbEntity
  8
1
  6
Continuous
 62
     7
100
AcDbCircle
 10
-10793.6462782692
 20
473.06881862081
 30
0.0
 40
29.46678720109601
100
AcDbArc
 50
1.9134844965036
 51
93.66819242001407
  0
ARC
  5
487
330
1F
100
AcDbEntity
  8
1
  6
Continuous
 62
     7
100
AcDbCircle
 10
-10994.7765161957
 20
3610.35370544624
 30
0.0
 40
3114.258683273648
100
AcDbArc
 50
266.3318075798584
 51
273.6681924201434
  0
ARC
  5
488
330
1F
100
AcDbEntity
  8
1
  6
Continuous
 62
     7
100
AcDbCircle
 10
-11299.3095218871
 20
-302.306998246043
 30
0.0
 40
52.92330136006152
100
AcDbArc
 50
236.2448041058121
 51
302.9611162938639
  0
ARC
  5
489
330
1F
100
AcDbEntity
  8
1
  6
Continuous
 62
     7
100
AcDbCircle
 10
-11299.2764912715
 20
-272.170617045763
 30
0.0
 40
79.76922257042898
100
AcDbArc
 50
247.2006511270956
 51
292.7993488729705
  0
ARC
  5
48A
330
1F
100
AcDbEntity
  8
1
  6
Continuous
 62
     7
100
AcDbCircle
 10
-11277.2764661718
 20
-324.503623247384
 30
0.0
 40
23.0000000002718
100
AcDbArc
 50
292.7948598047247
 51
359.8864669602048
  0
ARC
  5
48B
330
1F
100
AcDbEntity
  8
1
  6
Continuous
 62
     7
100
AcDbCircle
 10
-11321.2765163712
 20
-324.503623247384
 30
0.0
 40
23.00000000027674
100
AcDbArc
 50
180.1135330397952
 51
247.2051401955047
  0
ARC
  5
48C
330
1F
100
AcDbEntity
  8
1
  6
Continuous
 62
     7
100
AcDbCircle
 10
-11299.2764682479
 20
-162.847140799446
 30
0.0
 40
50.2112665437032
100
AcDbArc
 50
26.33530280617569
 51
153.6646971938252
  0
ARC
  5
48D
330
1F
100
AcDbEntity
  8
1
  6
Continuous
 62
     7
100
AcDbCircle
 10
-18690.2765632664
 20
-222.847140799446
 30
0.0
 40
50.21126654370483
100
AcDbArc
 50
26.33530280617477
 51
153.6646971938252
  0
ARC
  5
48E
330
1F
100
AcDbEntity
  8
1
  6
Continuous
 62
     7
100
AcDbCircle
 10
-18668.2765151431
 20
-384.503623247384
 30
0.0
 40
23.00000000023741
100
AcDbArc
 50
292.7948598044953
 51
359.8864669602048
  0
ARC
  5
48F
330
1F
100
AcDbEntity
  8
1
  6
Continuous
 62
     7
100
AcDbCircle
 10
-18712.2765653425
 20
-384.503623247384
 30
0.0
 40
23.00000000027674
100
AcDbArc
 50
180.1135330397952
 51
247.2051401952752
  0
ARC
  5
490
330
1F
100
AcDbEntity
  8
1
  6
Continuous
 62
     7
100
AcDbCircle
 10
-18690.2765402428
 20
-332.170617045763
 30
0.0
 40
79.76922257046337
100
AcDbArc
 50
247.2006511270295
 51
292.7993488729044
  0
ARC
  5
491
330
1F
100
AcDbEntity
  8
1
  6
Continuous
 62
     7
100
AcDbCircle
 10
-18690.2435096272
 20
-362.306998246043
 30
0.0
 40
52.9233013600507
100
AcDbArc
 50
237.0388837061338
 51
303.7551958941875
  0
ARC
  5
492
330
1F
100
AcDbEntity
  8
1
  6
Continuous
 62
     7
100
AcDbCircle
 10
-18716.6746650177
 20
-408.02264032363
 30
0.0
 40
14.99999999996326
100
AcDbArc
 50
292.2414807791394
 51
337.6792573829625
  0
ARC
  5
493
330
1F
100
AcDbEntity
  8
1
  6
Continuous
 62
     7
100
AcDbCircle
 10
-18713.7014824574
 20
-411.12833140319
 30
0.0
 40
35.99999999998968
100
AcDbArc
 50
292.2414807794666
 51
355.8304269629046
  0
ARC
  5
494
330
1F
100
AcDbEntity
  8
1
  6
Continuous
 62
     7
100
AcDbCircle
 10
-18994.7765161957
 20
-7220.04512843254
 30
0.0
 40
6918.551367983719
100
AcDbArc
 50
88.29241332197952
 51
91.70758667801968
  0
ARC
  5
495
330
1F
100
AcDbEntity
  8
1
  6
Continuous
 62
     7
100
AcDbCircle
 10
-18788.6133848557
 20
-376.566128774927
 30
0.0
 40
71.99999999998639
100
AcDbArc
 50
50.45955047764777
 51
90.0
  0
ARC
  5
496
330
1F
100
AcDbEntity
  8
1
  6
Continuous
 62
     7
100
AcDbCircle
 10
-19200.9396475356
 20
-376.566128774927
 30
0.0
 40
72.0
100
AcDbArc
 50
90.0
 51
129.5404495224125
  0
ARC
  5
497
330
1F
100
AcDbEntity
  8
1
  6
Continuous
 62
     1
100
AcDbCircle
 10
-18994.7765076633
 20
357.80606457494
 30
0.0
 40
797.6809673415119
100
AcDbArc
 50
251.5838942765565
 51
288.4161057234369
  0
ARC
  5
498
330
1F
100
AcDbEntity
  8
1
  6
Continuous
 62
     7
100
AcDbCircle
 10
-19275.8515490569
 20
-411.12833140319
 30
0.0
 40
36.00000000000922
100
AcDbArc
 50
184.1695730370939
 51
247.7585192205334
  0
ARC
  5
499
330
1F
100
AcDbEntity
  8
1
  6
Continuous
 62
     7
100
AcDbCircle
 10
-19272.8783664965
 20
-408.02264032363
 30
0.0
 40
15.00000000002762
100
AcDbArc
 50
202.3207426168984
 51
247.7585192205133
  0
ARC
  5
49A
330
1F
100
AcDbEntity
  8
1
  6
Continuous
 62
     1
100
AcDbCircle
 10
-18994.7765161957
 20
6749.56873423014
 30
0.0
 40
6777.435371455327
100
AcDbArc
 50
267.9478542615421
 51
272.0521457384586
  0
ARC
  5
49B
330
1F
100
AcDbEntity
  8
1
  6
Continuous
 62
     7
100
AcDbCircle
 10
-19195.9067541222
 20
363.302204008669
 30
0.0
 40
29.46678720109102
100
AcDbArc
 50
86.33180757979532
 51
178.0865155034945
  0
ARC
  5
49C
330
1F
100
AcDbEntity
  8
1
  6
Continuous
 62
     7
100
AcDbCircle
 10
-18793.6462782691
 20
363.302204008669
 30
0.0
 40
29.46678720099969
100
AcDbArc
 50
1.91348449651185
 51
93.66819242020456
  0
ARC
  5
49D
330
1F
100
AcDbEntity
  8
1
  6
Continuous
 62
     7
100
AcDbCircle
 10
-18994.7765161957
 20
3500.5870908341
 30
0.0
 40
3114.258683273649
100
AcDbArc
 50
266.3318075798584
 51
273.6681924201434
  0
ARC
  5
49E
330
1F
100
AcDbEntity
  8
1
  6
Continuous
 62
     7
100
AcDbCircle
 10
-19299.3095218871
 20
-362.306998246043
 30
0.0
 40
52.92330136006253
100
AcDbArc
 50
236.2448041058104
 51
302.9611162938623
  0
ARC
  5
49F
330
1F
100
AcDbEntity
  8
1
  6
Continuous
 62
     7
100
AcDbCircle
 10
-19299.2764912715
 20
-332.170617045763
 30
0.0
 40
79.76922257042808
100
AcDbArc
 50
247.2006511270953
 51
292.7993488729705
  0
ARC
  5
4A0
330
1F
100
AcDbEntity
  8
1
  6
Continuous
 62
     7
100
AcDbCircle
 10
-19277.2764661717
 20
-384.503623247384
 30
0.0
 40
23.00000000023374
100
AcDbArc
 50
292.7948598044991
 51
359.8864669602044
  0
ARC
  5
4A1
330
1F
100
AcDbEntity
  8
1
  6
Continuous
 62
     7
100
AcDbCircle
 10
-19321.2765163712
 20
-384.503623247384
 30
0.0
 40
23.00000000027674
100
AcDbArc
 50
180.1135330397952
 51
247.2051401955037
  0
ARC
  5
4A2
330
1F
100
AcDbEntity
  8
1
  6
Continuous
 62
     7
100
AcDbCircle
 10
-19299.2764682479
 20
-222.847140799446
 30
0.0
 40
50.21126654370483
100
AcDbArc
 50
26.33530280617477
 51
153.6646971938252
  0
MTEXT
  5
4C6
330
1F
100
AcDbEntity
  8
1
 62
     2
100
AcDbMText
 10
-19170.0334053992
 20
1115.5375288693
 30
0.0
 40
150.0
 41
0.0
 46
0.0
 71
     5
 72
     1
  1
tmini
  7
CONVERTER_11
 73
     1
 44
1.0
  0
MTEXT
  5
4C7
330
1F
100
AcDbEntity
  8
1
 62
     2
100
AcDbMText
 10
-15170.0334053992
 20
1115.5375288693
 30
0.0
 40
150.0
 41
0.0
 46
0.0
 71
     5
 72
     1
  1
tmedi
  7
CONVERTER_11
 73
     1
 44
1.0
  0
MTEXT
  5
4C8
330
1F
100
AcDbEntity
  8
1
 62
     2
100
AcDbMText
 10
-11170.0334053992
 20
1115.5375288693
 30
0.0
 40
150.0
 41
0.0
 46
0.0
 71
     5
 72
     1
  1
tmaxi
  7
CONVERTER_11
 73
     1
 44
1.0
  0
MTEXT
  5
4C9
330
1F
100
AcDbEntity
  8
1
 62
     2
100
AcDbMText
 10
-18347.6776720988
 20
7139.46928935696
 30
0.0
 40
300.0
 41
0.0
 46
0.0
 71
     4
 72
     1
  1
JR-3390 "Yoga TV chair"
  7
CONVERTER_11
 73
     1
 44
1.0
  0
ENDSEC
  0
SECTION
  2
OBJECTS
  0
DICTIONARY
  5
C
330
0
100
AcDbDictionary
281
     1
  3
ACAD_GROUP
350
D
  3
ACAD_LAYOUT
350
1A
  3
ACAD_MATERIAL
350
3B
  3
ACAD_MLEADERSTYLE
350
4CD
  3
ACAD_MLINESTYLE
350
17
  3
ACAD_PLOTSETTINGS
350
19
  3
ACAD_PLOTSTYLENAME
350
E
  3
ACAD_SCALELIST
350
4A4
  3
ACAD_TABLESTYLE
350
4CC
  3
ACAD_VISUALSTYLE
350
2A
  3
AcDbVariableDictionary
350
4CA
  0
DICTIONARY
  5
D
102
{ACAD_REACTORS
330
C
102
}
330
C
100
AcDbDictionary
281
     1
  0
DICTIONARY
  5
1A
102
{ACAD_REACTORS
330
C
102
}
330
C
100
AcDbDictionary
281
     1
  3
Layout1
350
1E
  3
Layout2
350
26
  3
Model
350
22
  0
DICTIONARY
  5
3B
102
{ACAD_REACTORS
330
C
102
}
330
C
100
AcDbDictionary
281
     1
  3
ByBlock
350
3D
  3
ByLayer
350
3C
  3
Global
350
3E
  0
DICTIONARY
  5
4CD
102
{ACAD_REACTORS
330
C
102
}
330
C
100
AcDbDictionary
281
     1
  0
DICTIONARY
  5
17
102
{ACAD_REACTORS
330
C
102
}
330
C
100
AcDbDictionary
281
     1
  3
Standard
350
18
  0
DICTIONARY
  5
19
102
{ACAD_REACTORS
330
C
102
}
330
C
100
AcDbDictionary
281
     1
  0
ACDBDICTIONARYWDFLT
  5
E
102
{ACAD_REACTORS
330
C
102
}
330
C
100
AcDbDictionary
281
     1
  3
Normal
350
F
100
AcDbDictionaryWithDefault
340
F
  0
DICTIONARY
  5
4A4
102
{ACAD_REACTORS
330
C
102
}
330
C
100
AcDbDictionary
281
     1
  3
A0
350
4A5
  3
A1
350
4A6
  3
A2
350
4A7
  3
A3
350
4A8
  3
A4
350
4A9
  3
A5
350
4AA
  3
A6
350
4AB
  3
A7
350
4AC
  3
A8
350
4AD
  3
A9
350
4AE
  3
B0
350
4AF
  3
B1
350
4B0
  3
B2
350
4B1
  3
B3
350
4B2
  3
B4
350
4B3
  3
B5
350
4B4
  3
B6
350
4B5
  3
B7
350
4B6
  3
B8
350
4B7
  3
B9
350
4B8
  3
C0
350
4B9
  3
C1
350
4BA
  3
C2
350
4BB
  3
C3
350
4BC
  3
C4
350
4BD
  3
C5
350
4BE
  3
C6
350
4BF
  3
C7
350
4C0
  3
C8
350
4C1
  3
C9
350
4C2
  3
D0
350
4C3
  3
D1
350
4C4
  3
D2
350
4C5
  0
DICTIONARY
  5
4CC
102
{ACAD_REACTORS
330
C
102
}
330
C
100
AcDbDictionary
281
     1
  0
DICTIONARY
  5
2A
102
{ACAD_REACTORS
330
C
102
}
330
C
100
AcDbDictionary
281
     1
  3
2dWireframe
350
2F
  3
3D Hidden
350
31
  3
3dWireframe
350
30
  3
Basic
350
32
  3
Brighten
350
36
  3
ColorChange
350
3A
  3
Conceptual
350
34
  3
Dim
350
35
  3
Facepattern
350
39
  3
Flat
350
2B
  3
FlatWithEdges
350
2C
  3
Gouraud
350
2D
  3
GouraudWithEdges
350
2E
  3
Linepattern
350
38
  3
Realistic
350
33
  3
Thicken
350
37
  0
DICTIONARY
  5
4CA
102
{ACAD_REACTORS
330
C
102
}
330
C
100
AcDbDictionary
281
     1
  3
CANNOSCALE
350
4CB
  0
LAYOUT
  5
1E
102
{ACAD_REACTORS
330
1A
102
}
330
1A
100
AcDbPlotSettings
  1

  2
none_device
  4

  6

 40
0.0
 41
0.0
 42
0.0
 43
0.0
 44
0.0
 45
0.0
 46
0.0
 47
0.0
 48
0.0
 49
0.0
140
0.0
141
0.0
142
1.0
143
1.0
 70
   688
 72
     0
 73
     0
 74
     5
  7

 75
    16
 76
     0
 77
     2
 78
   300
147
1.0
148
0.0
149
0.0
100
AcDbLayout
  1
Layout1
 70
     1
 71
     1
 10
0.0
 20
0.0
 11
12.0
 21
9.0
 12
0.0
 22
0.0
 32
0.0
 14
1.00000000000000E+20
 24
1.00000000000000E+20
 34
1.00000000000000E+20
 15
-1.00000000000000E+20
 25
-1.00000000000000E+20
 35
-1.00000000000000E+20
146
0.0
 13
0.0
 23
0.0
 33
0.0
 16
1.0
 26
0.0
 36
0.0
 17
0.0
 27
1.0
 37
0.0
 76
     0
330
1B
  0
LAYOUT
  5
26
102
{ACAD_REACTORS
330
1A
102
}
330
1A
100
AcDbPlotSettings
  1

  2
none_device
  4

  6

 40
0.0
 41
0.0
 42
0.0
 43
0.0
 44
0.0
 45
0.0
 46
0.0
 47
0.0
 48
0.0
 49
0.0
140
0.0
141
0.0
142
1.0
143
1.0
 70
   688
 72
     0
 73
     0
 74
     5
  7

 75
    16
 76
     0
 77
     2
 78
   300
147
1.0
148
0.0
149
0.0
100
AcDbLayout
  1
Layout2
 70
     1
 71
     2
 10
0.0
 20
0.0
 11
0.0
 21
0.0
 12
0.0
 22
0.0
 32
0.0
 14
0.0
 24
0.0
 34
0.0
 15
0.0
 25
0.0
 35
0.0
146
0.0
 13
0.0
 23
0.0
 33
0.0
 16
1.0
 26
0.0
 36
0.0
 17
0.0
 27
1.0
 37
0.0
 76
     0
330
23
  0
LAYOUT
  5
22
102
{ACAD_REACTORS
330
1A
102
}
330
1A
100
AcDbPlotSettings
  1

  2
none_device
  4

  6

 40
0.0
 41
0.0
 42
0.0
 43
0.0
 44
0.0
 45
0.0
 46
0.0
 47
0.0
 48
0.0
 49
0.0
140
0.0
141
0.0
142
1.0
143
1.0
 70
  1712
 72
     0
 73
     0
 74
     0
  7

 75
     0
 76
     0
 77
     2
 78
   300
147
1.0
148
0.0
149
0.0
100
AcDbLayout
  1
Model
 70
     1
 71
     0
 10
0.0
 20
0.0
 11
12.0
 21
9.0
 12
0.0
 22
0.0
 32
0.0
 14
-21767.7877415451
 24
-3940.86500953369
 34
0.0
 15
-10645.2765164407
 25
7289.46928935696
 35
0.0
146
0.0
 13
0.0
 23
0.0
 33
0.0
 16
1.0
 26
0.0
 36
0.0
 17
0.0
 27
1.0
 37
0.0
 76
     0
330
1F
331
29
  0
MATERIAL
  5
3D
102
{ACAD_REACTORS
330
3B
102
}
330
3B
100
AcDbMaterial
  1
ByBlock
 72
     1
 94
      127
  0
MATERIAL
  5
3C
102
{ACAD_REACTORS
330
3B
102
}
330
3B
100
AcDbMaterial
  1
ByLayer
 72
     1
 94
      127
  0
MATERIAL
  5
3E
102
{ACAD_REACTORS
330
3B
102
}
330
3B
100
AcDbMaterial
  1
Global
 72
     1
 94
      127
  0
MLINESTYLE
  5
18
102
{ACAD_REACTORS
330
17
102
}
330
17
100
AcDbMlineStyle
  2
Standard
 70
     0
  3

 62
   256
 51
90.0
 52
90.0
 71
     2
 49
0.5
 62
   256
  6
BYLAYER
 49
-0.5
 62
   256
  6
BYLAYER
  0
ACDBPLACEHOLDER
  5
F
102
{ACAD_REACTORS
330
E
102
}
330
E
  0
SCALE
  5
4A5
102
{ACAD_REACTORS
330
4A4
102
}
330
4A4
100
AcDbScale
 70
     0
300
1:1
140
1.0
141
1.0
290
     1
  0
SCALE
  5
4A6
102
{ACAD_REACTORS
330
4A4
102
}
330
4A4
100
AcDbScale
 70
     0
300
1:2
140
1.0
141
2.0
290
     0
  0
SCALE
  5
4A7
102
{ACAD_REACTORS
330
4A4
102
}
330
4A4
100
AcDbScale
 70
     0
300
1:4
140
1.0
141
4.0
290
     0
  0
SCALE
  5
4A8
102
{ACAD_REACTORS
330
4A4
102
}
330
4A4
100
AcDbScale
 70
     0
300
1:5
140
1.0
141
5.0
290
     0
  0
SCALE
  5
4A9
102
{ACAD_REACTORS
330
4A4
102
}
330
4A4
100
AcDbScale
 70
     0
300
1:8
140
1.0
141
8.0
290
     0
  0
SCALE
  5
4AA
102
{ACAD_REACTORS
330
4A4
102
}
330
4A4
100
AcDbScale
 70
     0
300
1:10
140
1.0
141
10.0
290
     0
  0
SCALE
  5
4AB
102
{ACAD_REACTORS
330
4A4
102
}
330
4A4
100
AcDbScale
 70
     0
300
1:16
140
1.0
141
16.0
290
     0
  0
SCALE
  5
4AC
102
{ACAD_REACTORS
330
4A4
102
}
330
4A4
100
AcDbScale
 70
     0
300
1:20
140
1.0
141
20.0
290
     0
  0
SCALE
  5
4AD
102
{ACAD_REACTORS
330
4A4
102
}
330
4A4
100
AcDbScale
 70
     0
300
1:30
140
1.0
141
30.0
290
     0
  0
SCALE
  5
4AE
102
{ACAD_REACTORS
330
4A4
102
}
330
4A4
100
AcDbScale
 70
     0
300
1:40
140
1.0
141
40.0
290
     0
  0
SCALE
  5
4AF
102
{ACAD_REACTORS
330
4A4
102
}
330
4A4
100
AcDbScale
 70
     0
300
1:50
140
1.0
141
50.0
290
     0
  0
SCALE
  5
4B0
102
{ACAD_REACTORS
330
4A4
102
}
330
4A4
100
AcDbScale
 70
     0
300
1:100
140
1.0
141
100.0
290
     0
  0
SCALE
  5
4B1
102
{ACAD_REACTORS
330
4A4
102
}
330
4A4
100
AcDbScale
 70
     0
300
2:1
140
2.0
141
1.0
290
     0
  0
SCALE
  5
4B2
102
{ACAD_REACTORS
330
4A4
102
}
330
4A4
100
AcDbScale
 70
     0
300
4:1
140
4.0
141
1.0
290
     0
  0
SCALE
  5
4B3
102
{ACAD_REACTORS
330
4A4
102
}
330
4A4
100
AcDbScale
 70
     0
300
8:1
140
8.0
141
1.0
290
     0
  0
SCALE
  5
4B4
102
{ACAD_REACTORS
330
4A4
102
}
330
4A4
100
AcDbScale
 70
     0
300
10:1
140
10.0
141
1.0
290
     0
  0
SCALE
  5
4B5
102
{ACAD_REACTORS
330
4A4
102
}
330
4A4
100
AcDbScale
 70
     0
300
100:1
140
100.0
141
1.0
290
     0
  0
SCALE
  5
4B6
102
{ACAD_REACTORS
330
4A4
102
}
330
4A4
100
AcDbScale
 70
     0
300
1/128" = 1'-0"
140
0.0078125
141
12.0
290
     0
  0
SCALE
  5
4B7
102
{ACAD_REACTORS
330
4A4
102
}
330
4A4
100
AcDbScale
 70
     0
300
1/64" = 1'-0"
140
0.015625
141
12.0
290
     0
  0
SCALE
  5
4B8
102
{ACAD_REACTORS
330
4A4
102
}
330
4A4
100
AcDbScale
 70
     0
300
1/32" = 1'-0"
140
0.03125
141
12.0
290
     0
  0
SCALE
  5
4B9
102
{ACAD_REACTORS
330
4A4
102
}
330
4A4
100
AcDbScale
 70
     0
300
1/16" = 1'-0"
140
0.0625
141
12.0
290
     0
  0
SCALE
  5
4BA
102
{ACAD_REACTORS
330
4A4
102
}
330
4A4
100
AcDbScale
 70
     0
300
3/32" = 1'-0"
140
0.09375
141
12.0
290
     0
  0
SCALE
  5
4BB
102
{ACAD_REACTORS
330
4A4
102
}
330
4A4
100
AcDbScale
 70
     0
300
1/8" = 1'-0"
140
0.125
141
12.0
290
     0
  0
SCALE
  5
4BC
102
{ACAD_REACTORS
330
4A4
102
}
330
4A4
100
AcDbScale
 70
     0
300
3/16" = 1'-0"
140
0.1875
141
12.0
290
     0
  0
SCALE
  5
4BD
102
{ACAD_REACTORS
330
4A4
102
}
330
4A4
100
AcDbScale
 70
     0
300
1/4" = 1'-0"
140
0.25
141
12.0
290
     0
  0
SCALE
  5
4BE
102
{ACAD_REACTORS
330
4A4
102
}
330
4A4
100
AcDbScale
 70
     0
300
3/8" = 1'-0"
140
0.375
141
12.0
290
     0
  0
SCALE
  5
4BF
102
{ACAD_REACTORS
330
4A4
102
}
330
4A4
100
AcDbScale
 70
     0
300
1/2" = 1'-0"
140
0.5
141
12.0
290
     0
  0
SCALE
  5
4C0
102
{ACAD_REACTORS
330
4A4
102
}
330
4A4
100
AcDbScale
 70
     0
300
3/4" = 1'-0"
140
0.75
141
12.0
290
     0
  0
SCALE
  5
4C1
102
{ACAD_REACTORS
330
4A4
102
}
330
4A4
100
AcDbScale
 70
     0
300
1" = 1'-0"
140
1.0
141
12.0
290
     0
  0
SCALE
  5
4C2
102
{ACAD_REACTORS
330
4A4
102
}
330
4A4
100
AcDbScale
 70
     0
300
1-1/2" = 1'-0"
140
1.5
141
12.0
290
     0
  0
SCALE
  5
4C3
102
{ACAD_REACTORS
330
4A4
102
}
330
4A4
100
AcDbScale
 70
     0
300
3" = 1'-0"
140
3.0
141
12.0
290
     0
  0
SCALE
  5
4C4
102
{ACAD_REACTORS
330
4A4
102
}
330
4A4
100
AcDbScale
 70
     0
300
6" = 1'-0"
140
6.0
141
12.0
290
     0
  0
SCALE
  5
4C5
102
{ACAD_REACTORS
330
4A4
102
}
330
4A4
100
AcDbScale
 70
     0
300
1'-0" = 1'-0"
140
12.0
141
12.0
290
     0
  0
VISUALSTYLE
  5
2F
102
{ACAD_REACTORS
330
2A
102
}
330
2A
100
AcDbVisualStyle
  2
2dWireframe
 70
     4
177
     2
291
     0
 71
     0
176
     1
 72
     2
176
     1
 73
     0
176
     1
 90
        0
176
     1
 40
-0.6
176
     1
 41
-30.0
176
     1
 62
     5
 63
     7
421
 16777215
176
     1
 74
     1
176
     1
 91
        4
176
     1
 64
     7
176
     1
 65
   257
176
     1
 75
     1
176
     1
175
     1
176
     1
 42
1.0
176
     1
 92
        0
176
     1
 66
   257
176
     1
 43
1.0
176
     1
 76
     1
176
     1
 77
     6
176
     1
 78
     2
176
     1
 67
     7
176
     1
 79
     5
176
     1
170
     0
176
     1
171
     0
176
     1
290
     0
176
     1
 93
        1
176
     1
 44
0.0
176
     1
173
     0
176
     1
  0
VISUALSTYLE
  5
31
102
{ACAD_REACTORS
330
2A
102
}
330
2A
100
AcDbVisualStyle
  2
3D Hidden
 70
     6
177
     2
291
     0
 71
     1
176
     1
 72
     2
176
     1
 73
     2
176
     1
 90
        0
176
     1
 40
-0.6
176
     1
 41
-30.0
176
     1
 62
     5
 63
     7
421
 16777215
176
     1
 74
     2
176
     1
 91
        2
176
     1
 64
     7
176
     1
 65
   257
176
     1
 75
     2
176
     1
175
     1
176
     1
 42
40.0
176
     1
 92
        0
176
     1
 66
   257
176
     1
 43
1.0
176
     1
 76
     1
176
     1
 77
     6
176
     1
 78
     2
176
     1
 67
     7
176
     1
 79
     3
176
     1
170
     0
176
     1
171
     0
176
     1
290
     0
176
     1
 93
        1
176
     1
 44
0.0
176
     1
173
     0
176
     1
  0
VISUALSTYLE
  5
30
102
{ACAD_REACTORS
330
2A
102
}
330
2A
100
AcDbVisualStyle
  2
3dWireframe
 70
     5
177
     2
291
     0
 71
     0
176
     1
 72
     2
176
     1
 73
     0
176
     1
 90
        0
176
     1
 40
-0.6
176
     1
 41
-30.0
176
     1
 62
     5
 63
     7
421
 16777215
176
     1
 74
     1
176
     1
 91
        4
176
     1
 64
     7
176
     1
 65
   257
176
     1
 75
     1
176
     1
175
     1
176
     1
 42
1.0
176
     1
 92
        0
176
     1
 66
   257
176
     1
 43
1.0
176
     1
 76
     1
176
     1
 77
     6
176
     1
 78
     2
176
     1
 67
     7
176
     1
 79
     5
176
     1
170
     0
176
     1
171
     0
176
     1
290
     0
176
     1
 93
        1
176
     1
 44
0.0
176
     1
173
     0
176
     1
  0
VISUALSTYLE
  5
32
102
{ACAD_REACTORS
330
2A
102
}
330
2A
100
AcDbVisualStyle
  2
Basic
 70
     7
177
     2
291
     1
 71
     1
176
     1
 72
     0
176
     1
 73
     1
176
     1
 90
        0
176
     1
 40
-0.6
176
     1
 41
-30.0
176
     1
 62
     5
 63
     7
421
 16777215
176
     1
 74
     0
176
     1
 91
        4
176
     1
 64
     7
176
     1
 65
   257
176
     1
 75
     1
176
     1
175
     1
176
     1
 42
1.0
176
     1
 92
        8
176
     1
 66
     7
176
     1
 43
1.0
176
     1
 76
     1
176
     1
 77
     6
176
     1
 78
     2
176
     1
 67
     7
176
     1
 79
     5
176
     1
170
     0
176
     1
171
     0
176
     1
290
     0
176
     1
 93
        1
176
     1
 44
0.0
176
     1
173
     0
176
     1
  0
VISUALSTYLE
  5
36
102
{ACAD_REACTORS
330
2A
102
}
330
2A
100
AcDbVisualStyle
  2
Brighten
 70
    12
177
     2
291
     1
 71
     2
176
     1
 72
     2
176
     1
 73
     0
176
     1
 90
        0
176
     1
 40
-0.6
176
     1
 41
-30.0
176
     1
 62
     5
 63
     7
421
 16777215
176
     1
 74
     1
176
     1
 91
        4
176
     1
 64
     7
176
     1
 65
   257
176
     1
 75
     1
176
     1
175
     1
176
     1
 42
1.0
176
     1
 92
        8
176
     1
 66
     7
176
     1
 43
1.0
176
     1
 76
     1
176
     1
 77
     6
176
     1
 78
     2
176
     1
 67
     7
176
     1
 79
     5
176
     1
170
     0
176
     1
171
     0
176
     1
290
     0
176
     1
 93
        1
176
     1
 44
50.0
176
     1
173
     0
176
     1
  0
VISUALSTYLE
  5
3A
102
{ACAD_REACTORS
330
2A
102
}
330
2A
100
AcDbVisualStyle
  2
ColorChange
 70
    16
177
     2
291
     1
 71
     2
176
     1
 72
     2
176
     1
 73
     3
176
     1
 90
        0
176
     1
 40
-0.6
176
     1
 41
-30.0
176
     1
 62
     5
 63
     8
421
  8421504
176
     1
 74
     1
176
     1
 91
        4
176
     1
 64
     7
176
     1
 65
   257
176
     1
 75
     1
176
     1
175
     1
176
     1
 42
1.0
176
     1
 92
        8
176
     1
 66
     8
424
  8421504
176
     1
 43
1.0
176
     1
 76
     1
176
     1
 77
     6
176
     1
 78
     2
176
     1
 67
     7
176
     1
 79
     5
176
     1
170
     0
176
     1
171
     0
176
     1
290
     0
176
     1
 93
        1
176
     1
 44
0.0
176
     1
173
     0
176
     1
  0
VISUALSTYLE
  5
34
102
{ACAD_REACTORS
330
2A
102
}
330
2A
100
AcDbVisualStyle
  2
Conceptual
 70
     9
177
     2
291
     0
 71
     3
176
     1
 72
     2
176
     1
 73
     0
176
     1
 90
        0
176
     1
 40
-0.6
176
     1
 41
-30.0
176
     1
 62
     5
 63
     7
421
 16777215
176
     1
 74
     2
176
     1
 91
        2
176
     1
 64
     7
176
     1
 65
   257
176
     1
 75
     1
176
     1
175
     1
176
     1
 42
40.0
176
     1
 92
        8
176
     1
 66
     7
176
     1
 43
1.0
176
     1
 76
     1
176
     1
 77
     6
176
     1
 78
     2
176
     1
 67
     7
176
     1
 79
     3
176
     1
170
     0
176
     1
171
     0
176
     1
290
     0
176
     1
 93
        1
176
     1
 44
0.0
176
     1
173
     0
176
     1
  0
VISUALSTYLE
  5
35
102
{ACAD_REACTORS
330
2A
102
}
330
2A
100
AcDbVisualStyle
  2
Dim
 70
    11
177
     2
291
     1
 71
     2
176
     1
 72
     2
176
     1
 73
     0
176
     1
 90
        0
176
     1
 40
-0.6
176
     1
 41
-30.0
176
     1
 62
     5
 63
     7
421
 16777215
176
     1
 74
     1
176
     1
 91
        4
176
     1
 64
     7
176
     1
 65
   257
176
     1
 75
     1
176
     1
175
     1
176
     1
 42
1.0
176
     1
 92
        8
176
     1
 66
     7
176
     1
 43
1.0
176
     1
 76
     1
176
     1
 77
     6
176
     1
 78
     2
176
     1
 67
     7
176
     1
 79
     5
176
     1
170
     0
176
     1
171
     0
176
     1
290
     0
176
     1
 93
        1
176
     1
 44
-50.0
176
     1
173
     0
176
     1
  0
VISUALSTYLE
  5
39
102
{ACAD_REACTORS
330
2A
102
}
330
2A
100
AcDbVisualStyle
  2
Facepattern
 70
    15
177
     2
291
     1
 71
     2
176
     1
 72
     2
176
     1
 73
     0
176
     1
 90
        0
176
     1
 40
-0.6
176
     1
 41
-30.0
176
     1
 62
     5
 63
     7
421
 16777215
176
     1
 74
     1
176
     1
 91
        4
176
     1
 64
     7
176
     1
 65
   257
176
     1
 75
     1
176
     1
175
     1
176
     1
 42
1.0
176
     1
 92
        8
176
     1
 66
     7
176
     1
 43
1.0
176
     1
 76
     1
176
     1
 77
     6
176
     1
 78
     2
176
     1
 67
     7
176
     1
 79
     5
176
     1
170
     0
176
     1
171
     0
176
     1
290
     0
176
     1
 93
        1
176
     1
 44
0.0
176
     1
173
     0
176
     1
  0
VISUALSTYLE
  5
2B
102
{ACAD_REACTORS
330
2A
102
}
330
2A
100
AcDbVisualStyle
  2
Flat
 70
     0
177
     2
291
     1
 71
     2
176
     1
 72
     1
176
     1
 73
     1
176
     1
 90
        2
176
     1
 40
-0.6
176
     1
 41
30.0
176
     1
 62
     5
 63
     7
421
 16777215
176
     1
 74
     0
176
     1
 91
        4
176
     1
 64
     7
176
     1
 65
   257
176
     1
 75
     1
176
     1
175
     1
176
     1
 42
1.0
176
     1
 92
        8
176
     1
 66
     7
176
     1
 43
1.0
176
     1
 76
     1
176
     1
 77
     6
176
     1
 78
     2
176
     1
 67
     7
176
     1
 79
     5
176
     1
170
     0
176
     1
171
     0
176
     1
290
     0
176
     1
 93
       13
176
     1
 44
0.0
176
     1
173
     0
176
     1
  0
VISUALSTYLE
  5
2C
102
{ACAD_REACTORS
330
2A
102
}
330
2A
100
AcDbVisualStyle
  2
FlatWithEdges
 70
     1
177
     2
291
     1
 71
     2
176
     1
 72
     1
176
     1
 73
     1
176
     1
 90
        2
176
     1
 40
-0.6
176
     1
 41
30.0
176
     1
 62
     5
 63
     7
421
 16777215
176
     1
 74
     1
176
     1
 91
        4
176
     1
 64
     7
176
     1
 65
   257
176
     1
 75
     1
176
     1
175
     1
176
     1
 42
1.0
176
     1
 92
        0
176
     1
 66
   257
176
     1
 43
1.0
176
     1
 76
     1
176
     1
 77
     6
176
     1
 78
     2
176
     1
 67
     7
176
     1
 79
     5
176
     1
170
     0
176
     1
171
     0
176
     1
290
     0
176
     1
 93
       13
176
     1
 44
0.0
176
     1
173
     0
176
     1
  0
VISUALSTYLE
  5
2D
102
{ACAD_REACTORS
330
2A
102
}
330
2A
100
AcDbVisualStyle
  2
Gouraud
 70
     2
177
     2
291
     1
 71
     2
176
     1
 72
     2
176
     1
 73
     1
176
     1
 90
        2
176
     1
 40
-0.6
176
     1
 41
30.0
176
     1
 62
     5
 63
     7
421
 16777215
176
     1
 74
     0
176
     1
 91
        4
176
     1
 64
     7
176
     1
 65
   257
176
     1
 75
     1
176
     1
175
     1
176
     1
 42
1.0
176
     1
 92
        0
176
     1
 66
     7
176
     1
 43
1.0
176
     1
 76
     1
176
     1
 77
     6
176
     1
 78
     2
176
     1
 67
     7
176
     1
 79
     5
176
     1
170
     0
176
     1
171
     0
176
     1
290
     0
176
     1
 93
       13
176
     1
 44
0.0
176
     1
173
     0
176
     1
  0
VISUALSTYLE
  5
2E
102
{ACAD_REACTORS
330
2A
102
}
330
2A
100
AcDbVisualStyle
  2
GouraudWithEdges
 70
     3
177
     2
291
     1
 71
     2
176
     1
 72
     2
176
     1
 73
     1
176
     1
 90
        2
176
     1
 40
-0.6
176
     1
 41
30.0
176
     1
 62
     5
 63
     7
421
 16777215
176
     1
 74
     1
176
     1
 91
        4
176
     1
 64
     7
176
     1
 65
   257
176
     1
 75
     1
176
     1
175
     1
176
     1
 42
1.0
176
     1
 92
        0
176
     1
 66
   257
176
     1
 43
1.0
176
     1
 76
     1
176
     1
 77
     6
176
     1
 78
     2
176
     1
 67
     7
176
     1
 79
     5
176
     1
170
     0
176
     1
171
     0
176
     1
290
     0
176
     1
 93
       13
176
     1
 44
0.0
176
     1
173
     0
176
     1
  0
VISUALSTYLE
  5
38
102
{ACAD_REACTORS
330
2A
102
}
330
2A
100
AcDbVisualStyle
  2
Linepattern
 70
    14
177
     2
291
     1
 71
     2
176
     1
 72
     2
176
     1
 73
     0
176
     1
 90
        0
176
     1
 40
-0.6
176
     1
 41
-30.0
176
     1
 62
     5
 63
     7
421
 16777215
176
     1
 74
     1
176
     1
 91
        4
176
     1
 64
     7
176
     1
 65
   257
176
     1
 75
     7
176
     1
175
     7
176
     1
 42
1.0
176
     1
 92
        8
176
     1
 66
     7
176
     1
 43
1.0
176
     1
 76
     1
176
     1
 77
     6
176
     1
 78
     2
176
     1
 67
     7
176
     1
 79
     5
176
     1
170
     0
176
     1
171
     0
176
     1
290
     0
176
     1
 93
        1
176
     1
 44
0.0
176
     1
173
     0
176
     1
  0
VISUALSTYLE
  5
33
102
{ACAD_REACTORS
330
2A
102
}
330
2A
100
AcDbVisualStyle
  2
Realistic
 70
     8
177
     2
291
     0
 71
     2
176
     1
 72
     2
176
     1
 73
     0
176
     1
 90
        0
176
     1
 40
-0.6
176
     1
 41
-30.0
176
     1
 62
     5
 63
     7
421
 16777215
176
     1
 74
     1
176
     1
 91
        0
176
     1
 64
     7
176
     1
 65
   257
176
     1
 75
     1
176
     1
175
     1
176
     1
 42
1.0
176
     1
 92
        8
176
     1
 66
     8
424
  7895160
176
     1
 43
1.0
176
     1
 76
     1
176
     1
 77
     6
176
     1
 78
     2
176
     1
 67
     7
176
     1
 79
     5
176
     1
170
     0
176
     1
171
     0
176
     1
290
     0
176
     1
 93
       13
176
     1
 44
0.0
176
     1
173
     0
176
     1
  0
VISUALSTYLE
  5
37
102
{ACAD_REACTORS
330
2A
102
}
330
2A
100
AcDbVisualStyle
  2
Thicken
 70
    13
177
     2
291
     1
 71
     2
176
     1
 72
     2
176
     1
 73
     0
176
     1
 90
        0
176
     1
 40
-0.6
176
     1
 41
-30.0
176
     1
 62
     5
 63
     7
421
 16777215
176
     1
 74
     1
176
     1
 91
        4
176
     1
 64
     7
176
     1
 65
   257
176
     1
 75
     1
176
     1
175
     1
176
     1
 42
1.0
176
     1
 92
       12
176
     1
 66
     7
176
     1
 43
1.0
176
     1
 76
     1
176
     1
 77
     6
176
     1
 78
     2
176
     1
 67
     7
176
     1
 79
     5
176
     1
170
     0
176
     1
171
     0
176
     1
290
     0
176
     1
 93
        1
176
     1
 44
0.0
176
     1
173
     0
176
     1
  0
DICTIONARYVAR
  5
4CB
102
{ACAD_REACTORS
330
4CA
102
}
330
4CA
100
DictionaryVariables
280
     0
  1
1:1
  0
ENDSEC
  0
EOF
