  0
SECTION
  2
HEADER
  9
$ACADVER
  1
AC1024
  9
$ACADMAINTVER
 70
     6
  9
$DWGCODEPAGE
  3
ANSI_1252
  9
$INSBASE
 10
0.0
 20
0.0
 30
0.0
  9
$EXTMIN
 10
5454.17694873137
 20
-868.433079146791
 30
0.0
  9
$EXTMAX
 10
6698.164753595148
 20
673.8718935027534
 30
0.0
  9
$LIMMIN
 10
0.0
 20
0.0
  9
$LIMMAX
 10
12.0
 20
9.0
  9
$ORTHOMODE
 70
     0
  9
$REGENMODE
 70
     1
  9
$FILLMODE
 70
     1
  9
$QTEXTMODE
 70
     0
  9
$MIRRTEXT
 70
     1
  9
$LTSCALE
 40
1.0
  9
$ATTMODE
 70
     1
  9
$TEXTSIZE
 40
0.2
  9
$TRACEWID
 40
0.05
  9
$TEXTSTYLE
  7
Standard
  9
$CLAYER
  8
0
  9
$CELTYPE
  6
ByLayer
  9
$CECOLOR
 62
   256
  9
$CELTSCALE
 40
1.0
  9
$DISPSILH
 70
     0
  9
$DIMSCALE
 40
1.0
  9
$DIMASZ
 40
0.18
  9
$DIMEXO
 40
0.0625
  9
$DIMDLI
 40
0.38
  9
$DIMRND
 40
0.0
  9
$DIMDLE
 40
0.0
  9
$DIMEXE
 40
0.18
  9
$DIMTP
 40
0.0
  9
$DIMTM
 40
0.0
  9
$DIMTXT
 40
0.18
  9
$DIMCEN
 40
0.09
  9
$DIMTSZ
 40
0.0
  9
$DIMTOL
 70
     0
  9
$DIMLIM
 70
     0
  9
$DIMTIH
 70
     1
  9
$DIMTOH
 70
     1
  9
$DIMSE1
 70
     0
  9
$DIMSE2
 70
     0
  9
$DIMTAD
 70
     0
  9
$DIMZIN
 70
     0
  9
$DIMBLK
  1

  9
$DIMASO
 70
     1
  9
$DIMSHO
 70
     1
  9
$DIMPOST
  1

  9
$DIMAPOST
  1

  9
$DIMALT
 70
     0
  9
$DIMALTD
 70
     2
  9
$DIMALTF
 40
25.4
  9
$DIMLFAC
 40
1.0
  9
$DIMTOFL
 70
     0
  9
$DIMTVP
 40
0.0
  9
$DIMTIX
 70
     0
  9
$DIMSOXD
 70
     0
  9
$DIMSAH
 70
     0
  9
$DIMBLK1
  1

  9
$DIMBLK2
  1

  9
$DIMSTYLE
  2
Standard
  9
$DIMCLRD
 70
     0
  9
$DIMCLRE
 70
     0
  9
$DIMCLRT
 70
     0
  9
$DIMTFAC
 40
1.0
  9
$DIMGAP
 40
0.09
  9
$DIMJUST
 70
     0
  9
$DIMSD1
 70
     0
  9
$DIMSD2
 70
     0
  9
$DIMTOLJ
 70
     1
  9
$DIMTZIN
 70
     0
  9
$DIMALTZ
 70
     0
  9
$DIMALTTZ
 70
     0
  9
$DIMUPT
 70
     0
  9
$DIMDEC
 70
     4
  9
$DIMTDEC
 70
     4
  9
$DIMALTU
 70
     2
  9
$DIMALTTD
 70
     2
  9
$DIMTXSTY
  7
Standard
  9
$DIMAUNIT
 70
     0
  9
$DIMADEC
 70
     0
  9
$DIMALTRND
 40
0.0
  9
$DIMAZIN
 70
     0
  9
$DIMDSEP
 70
    46
  9
$DIMATFIT
 70
     3
  9
$DIMFRAC
 70
     0
  9
$DIMLDRBLK
  1

  9
$DIMLUNIT
 70
     2
  9
$DIMLWD
 70
    -2
  9
$DIMLWE
 70
    -2
  9
$DIMTMOVE
 70
     0
  9
$DIMFXL
 40
1.0
  9
$DIMFXLON
 70
     0
  9
$DIMJOGANG
 40
0.78539816339745
  9
$DIMTFILL
 70
     0
  9
$DIMTFILLCLR
 70
     0
  9
$DIMARCSYM
 70
     0
  9
$DIMLTYPE
  6

  9
$DIMLTEX1
  6

  9
$DIMLTEX2
  6

  9
$DIMTXTDIRECTION
 70
     0
  9
$LUNITS
 70
     2
  9
$LUPREC
 70
     4
  9
$SKETCHINC
 40
0.1
  9
$FILLETRAD
 40
0.5
  9
$AUNITS
 70
     0
  9
$AUPREC
 70
     0
  9
$MENU
  1
.
  9
$ELEVATION
 40
0.0
  9
$PELEVATION
 40
0.0
  9
$THICKNESS
 40
0.0
  9
$LIMCHECK
 70
     0
  9
$CHAMFERA
 40
0.5
  9
$CHAMFERB
 40
0.5
  9
$CHAMFERC
 40
1.0
  9
$CHAMFERD
 40
0.0
  9
$SKPOLY
 70
     0
  9
$TDCREATE
 40
2456903.371886817
  9
$TDUCREATE
 40
2456903.288553484
  9
$TDUPDATE
 40
2456903.371886829
  9
$TDUUPDATE
 40
2456903.288553495
  9
$TDINDWG
 40
0.0000000116
  9
$TDUSRTIMER
 40
0.0000000116
  9
$USRTIMER
 70
     1
  9
$ANGBASE
 50
0.0
  9
$ANGDIR
 70
     0
  9
$PDMODE
 70
     0
  9
$PDSIZE
 40
0.0
  9
$PLINEWID
 40
0.0
  9
$SPLFRAME
 70
     0
  9
$SPLINETYPE
 70
     6
  9
$SPLINESEGS
 70
     8
  9
$HANDSEED
  5
F0
  9
$SURFTAB1
 70
     6
  9
$SURFTAB2
 70
     6
  9
$SURFTYPE
 70
     6
  9
$SURFU
 70
     6
  9
$SURFV
 70
     6
  9
$UCSBASE
  2

  9
$UCSNAME
  2

  9
$UCSORG
 10
0.0
 20
0.0
 30
0.0
  9
$UCSXDIR
 10
1.0
 20
0.0
 30
0.0
  9
$UCSYDIR
 10
0.0
 20
1.0
 30
0.0
  9
$UCSORTHOREF
  2

  9
$UCSORTHOVIEW
 70
     0
  9
$UCSORGTOP
 10
0.0
 20
0.0
 30
0.0
  9
$UCSORGBOTTOM
 10
0.0
 20
0.0
 30
0.0
  9
$UCSORGLEFT
 10
0.0
 20
0.0
 30
0.0
  9
$UCSORGRIGHT
 10
0.0
 20
0.0
 30
0.0
  9
$UCSORGFRONT
 10
0.0
 20
0.0
 30
0.0
  9
$UCSORGBACK
 10
0.0
 20
0.0
 30
0.0
  9
$PUCSBASE
  2

  9
$PUCSNAME
  2

  9
$PUCSORG
 10
0.0
 20
0.0
 30
0.0
  9
$PUCSXDIR
 10
1.0
 20
0.0
 30
0.0
  9
$PUCSYDIR
 10
0.0
 20
1.0
 30
0.0
  9
$PUCSORTHOREF
  2

  9
$PUCSORTHOVIEW
 70
     0
  9
$PUCSORGTOP
 10
0.0
 20
0.0
 30
0.0
  9
$PUCSORGBOTTOM
 10
0.0
 20
0.0
 30
0.0
  9
$PUCSORGLEFT
 10
0.0
 20
0.0
 30
0.0
  9
$PUCSORGRIGHT
 10
0.0
 20
0.0
 30
0.0
  9
$PUCSORGFRONT
 10
0.0
 20
0.0
 30
0.0
  9
$PUCSORGBACK
 10
0.0
 20
0.0
 30
0.0
  9
$USERI1
 70
     0
  9
$USERI2
 70
     0
  9
$USERI3
 70
     0
  9
$USERI4
 70
     0
  9
$USERI5
 70
     0
  9
$USERR1
 40
17.0
  9
$USERR2
 40
0.0
  9
$USERR3
 40
0.0
  9
$USERR4
 40
0.0
  9
$USERR5
 40
0.0
  9
$WORLDVIEW
 70
     1
  9
$SHADEDGE
 70
     3
  9
$SHADEDIF
 70
    70
  9
$TILEMODE
 70
     1
  9
$MAXACTVP
 70
    64
  9
$PINSBASE
 10
0.0
 20
0.0
 30
0.0
  9
$PLIMCHECK
 70
     0
  9
$PEXTMIN
 10
1.00000000000000E+20
 20
1.00000000000000E+20
 30
1.00000000000000E+20
  9
$PEXTMAX
 10
-1.00000000000000E+20
 20
-1.00000000000000E+20
 30
-1.00000000000000E+20
  9
$PLIMMIN
 10
0.0
 20
0.0
  9
$PLIMMAX
 10
12.0
 20
9.0
  9
$UNITMODE
 70
     0
  9
$VISRETAIN
 70
     1
  9
$PLINEGEN
 70
     0
  9
$PSLTSCALE
 70
     1
  9
$TREEDEPTH
 70
  3020
  9
$CMLSTYLE
  2
Standard
  9
$CMLJUST
 70
     0
  9
$CMLSCALE
 40
1.0
  9
$PROXYGRAPHICS
 70
     1
  9
$MEASUREMENT
 70
     1
  9
$CELWEIGHT
370
    -1
  9
$ENDCAPS
280
     0
  9
$JOINSTYLE
280
     0
  9
$LWDISPLAY
290
     0
  9
$INSUNITS
 70
     1
  9
$HYPERLINKBASE
  1

  9
$STYLESHEET
  1

  9
$XEDIT
290
     1
  9
$CEPSNTYPE
380
     0
  9
$PSTYLEMODE
290
     1
  9
$FINGERPRINTGUID
  2
{B2B7FFE2-39E7-420D-BD0E-8530AE6E7230}
  9
$VERSIONGUID
  2
{FAEB1C32-E019-11D5-929B-00C0DF256EC4}
  9
$EXTNAMES
290
     1
  9
$PSVPSCALE
 40
0.0
  9
$OLESTARTUP
290
     0
  9
$SORTENTS
280
   127
  9
$INDEXCTL
280
     0
  9
$HIDETEXT
280
     1
  9
$XCLIPFRAME
280
     2
  9
$HALOGAP
280
     0
  9
$OBSCOLOR
 70
   257
  9
$OBSLTYPE
280
     0
  9
$INTERSECTIONDISPLAY
280
     0
  9
$INTERSECTIONCOLOR
 70
   257
  9
$DIMASSOC
280
     2
  9
$PROJECTNAME
  1

  9
$CAMERADISPLAY
290
     0
  9
$LENSLENGTH
 40
50.0
  9
$CAMERAHEIGHT
 40
0.0
  9
$STEPSPERSEC
 40
2.0
  9
$STEPSIZE
 40
6.0
  9
$3DDWFPREC
 40
2.0
  9
$PSOLWIDTH
 40
0.25
  9
$PSOLHEIGHT
 40
4.0
  9
$LOFTANG1
 40
1.5707963267949
  9
$LOFTANG2
 40
1.5707963267949
  9
$LOFTMAG1
 40
0.0
  9
$LOFTMAG2
 40
0.0
  9
$LOFTPARAM
 70
     7
  9
$LOFTNORMALS
280
     1
  9
$LATITUDE
 40
37.795
  9
$LONGITUDE
 40
-122.394
  9
$NORTHDIRECTION
 40
0.0
  9
$TIMEZONE
 70
 -8000
  9
$LIGHTGLYPHDISPLAY
280
     1
  9
$TILEMODELIGHTSYNCH
280
     1
  9
$SOLIDHIST
280
     1
  9
$SHOWHIST
280
     1
  9
$DWFFRAME
280
     2
  9
$DGNFRAME
280
     2
  9
$REALWORLDSCALE
290
     1
  9
$INTERFERECOLOR
 62
   256
  9
$CSHADOW
280
     0
  9
$SHADOWPLANELOCATION
 40
0.0
  0
ENDSEC
  0
SECTION
  2
CLASSES
  0
CLASS
  1
ACDBDICTIONARYWDFLT
  2
AcDbDictionaryWithDefault
  3
ObjectDBX Classes
 90
        0
 91
        4
280
     0
281
     0
  0
CLASS
  1
VISUALSTYLE
  2
AcDbVisualStyle
  3
ObjectDBX Classes
 90
     4095
 91
        4
280
     0
281
     0
  0
CLASS
  1
MATERIAL
  2
AcDbMaterial
  3
ObjectDBX Classes
 90
     1153
 91
        4
280
     0
281
     0
  0
CLASS
  1

  2
exOdDbSpline
  3

 90
        0
 91
        4
280
     0
281
     1
  0
CLASS
  1

  2
exOdDbPolyline
  3

 90
        0
 91
        4
280
     0
281
     1
  0
ENDSEC
  0
SECTION
  2
TABLES
  0
TABLE
  2
VPORT
  5
8
330
0
100
AcDbSymbolTable
 70
     1
  0
VPORT
  5
29
330
8
100
AcDbSymbolTableRecord
100
AcDbViewportTableRecord
  2
*Active
 70
     0
 10
0.0
 20
0.0
 11
1.0
 21
1.0
 12
6076.170851163259
 22
-97.28059282201878
 13
0.0
 23
0.0
 14
0.5
 24
0.5
 15
0.5
 25
0.5
 16
0.0
 26
0.0
 36
1.0
 17
0.0
 27
0.0
 37
0.0
 40
1696.535469914499
 41
1.60267857142857
 42
50.0
 43
0.0
 44
0.0
 50
0.0
 51
0.0
 71
     0
 72
   100
 73
     1
 74
     3
 75
     0
 76
     0
 77
     0
 78
     0
281
     0
 65
     1
110
0.0
120
0.0
130
0.0
111
1.0
121
0.0
131
0.0
112
0.0
122
1.0
132
0.0
 79
     0
146
0.0
 60
     3
 61
     5
292
     1
282
     1
141
0.0
142
0.0
 63
   250
  0
ENDTAB
  0
TABLE
  2
LTYPE
  5
5
330
0
100
AcDbSymbolTable
 70
     8
  0
LTYPE
  5
14
330
5
100
AcDbSymbolTableRecord
100
AcDbLinetypeTableRecord
  2
ByBlock
 70
     0
  3

 72
    65
 73
     0
 40
0.0
  0
LTYPE
  5
15
330
5
100
AcDbSymbolTableRecord
100
AcDbLinetypeTableRecord
  2
ByLayer
 70
     0
  3

 72
    65
 73
     0
 40
0.0
  0
LTYPE
  5
16
330
5
100
AcDbSymbolTableRecord
100
AcDbLinetypeTableRecord
  2
Continuous
 70
     0
  3
Solid line
 72
    65
 73
     0
 40
0.0
  0
LTYPE
  5
3F
330
5
100
AcDbSymbolTableRecord
100
AcDbLinetypeTableRecord
  2
DASHED
 70
     0
  3
Dashed
 72
    65
 73
     2
 40
15.0
 49
7.0
 74
     0
 49
-8.0
 74
     0
  0
LTYPE
  5
40
330
5
100
AcDbSymbolTableRecord
100
AcDbLinetypeTableRecord
  2
DOTTED
 70
     0
  3
Dotted
 72
    65
 73
     2
 40
1.0
 49
0.0
 74
     0
 49
-1.0
 74
     0
  0
LTYPE
  5
41
330
5
100
AcDbSymbolTableRecord
100
AcDbLinetypeTableRecord
  2
DOT_CENTER
 70
     0
  3
Dot_Center
 72
    65
 73
     4
 40
14.0
 49
12.0
 74
     0
 49
-1.0
 74
     0
 49
0.0
 74
     0
 49
-1.0
 74
     0
  0
LTYPE
  5
42
330
5
100
AcDbSymbolTableRecord
100
AcDbLinetypeTableRecord
  2
LONG_DASHED
 70
     0
  3
Long_Dashed
 72
    65
 73
     2
 40
15.0
 49
10.0
 74
     0
 49
-5.0
 74
     0
  0
LTYPE
  5
43
330
5
100
AcDbSymbolTableRecord
100
AcDbLinetypeTableRecord
  2
DASH_CENTER
 70
     0
  3
Dash_Center
 72
    65
 73
     4
 40
14.0
 49
11.0
 74
     0
 49
-1.0
 74
     0
 49
1.0
 74
     0
 49
-1.0
 74
     0
  0
LTYPE
  5
44
330
5
100
AcDbSymbolTableRecord
100
AcDbLinetypeTableRecord
  2
PHANTOM
 70
     0
  3
Phantom
 72
    65
 73
     6
 40
13.0
 49
10.0
 74
     0
 49
-1.0
 74
     0
 49
0.0
 74
     0
 49
-1.0
 74
     0
 49
0.0
 74
     0
 49
-1.0
 74
     0
  0
LTYPE
  5
45
330
5
100
AcDbSymbolTableRecord
100
AcDbLinetypeTableRecord
  2
CENTER_DASH_DASH
 70
     0
  3
Center_Dash_Dash
 72
    65
 73
     6
 40
14.0
 49
9.0
 74
     0
 49
-1.0
 74
     0
 49
1.0
 74
     0
 49
-1.0
 74
     0
 49
1.0
 74
     0
 49
-1.0
 74
     0
  0
ENDTAB
  0
TABLE
  2
LAYER
  5
2
330
0
100
AcDbSymbolTable
 70
     4
  0
LAYER
  5
10
330
2
100
AcDbSymbolTableRecord
100
AcDbLayerTableRecord
  2
0
 70
     0
 62
     7
  6
Continuous
370
    -3
390
F
347
3E
  0
LAYER
  5
46
330
2
100
AcDbSymbolTableRecord
100
AcDbLayerTableRecord
  2
$DDT_AUDIT_GENERATED__3B_
 70
     0
 62
     7
  6
Continuous
370
    -3
390
F
347
3E
  0
LAYER
  5
47
330
2
100
AcDbSymbolTableRecord
100
AcDbLayerTableRecord
  2
$DDT_AUDIT_GENERATED__E2_
 70
     0
 62
     7
  6
Continuous
370
    -3
390
F
347
3E
  0
LAYER
  5
48
330
2
100
AcDbSymbolTableRecord
100
AcDbLayerTableRecord
  2
1
 70
     0
 62
     7
  6
Continuous
370
    -3
390
F
347
3E
  0
ENDTAB
  0
TABLE
  2
STYLE
  5
3
330
0
100
AcDbSymbolTable
 70
     1
  0
STYLE
  5
11
330
3
100
AcDbSymbolTableRecord
100
AcDbTextStyleTableRecord
  2
Standard
 70
     0
 40
0.0
 41
1.0
 50
0.0
 71
     0
 42
0.2
  3
txt
  4

  0
ENDTAB
  0
TABLE
  2
VIEW
  5
6
330
0
100
AcDbSymbolTable
 70
     0
  0
ENDTAB
  0
TABLE
  2
UCS
  5
7
330
0
100
AcDbSymbolTable
 70
     0
  0
ENDTAB
  0
TABLE
  2
APPID
  5
9
330
0
100
AcDbSymbolTable
 70
     1
  0
APPID
  5
12
330
9
100
AcDbSymbolTableRecord
100
AcDbRegAppTableRecord
  2
ACAD
 70
     0
  0
ENDTAB
  0
TABLE
  2
DIMSTYLE
  5
A
330
0
100
AcDbSymbolTable
 70
     1
100
AcDbDimStyleTable
  0
DIMSTYLE
105
27
330
A
100
AcDbSymbolTableRecord
100
AcDbDimStyleTableRecord
  2
Standard
 70
     0
340
11
  0
ENDTAB
  0
TABLE
  2
BLOCK_RECORD
  5
1
330
0
100
AcDbSymbolTable
 70
     1
  0
BLOCK_RECORD
  5
1F
330
1
100
AcDbSymbolTableRecord
100
AcDbBlockTableRecord
  2
*Model_Space
340
22
 70
     0
280
     1
281
     0
  0
BLOCK_RECORD
  5
1B
330
1
100
AcDbSymbolTableRecord
100
AcDbBlockTableRecord
  2
*Paper_Space
340
1E
 70
     0
280
     1
281
     0
  0
BLOCK_RECORD
  5
23
330
1
100
AcDbSymbolTableRecord
100
AcDbBlockTableRecord
  2
*Paper_Space0
340
26
 70
     0
280
     1
281
     0
  0
ENDTAB
  0
ENDSEC
  0
SECTION
  2
BLOCKS
  0
BLOCK
  5
20
330
1F
100
AcDbEntity
  8
0
100
AcDbBlockBegin
  2
*Model_Space
 70
     0
 10
0.0
 20
0.0
 30
0.0
  3
*Model_Space
  1

  0
ENDBLK
  5
21
330
1F
100
AcDbEntity
  8
0
100
AcDbBlockEnd
  0
BLOCK
  5
1C
330
1B
100
AcDbEntity
 67
     1
  8
0
100
AcDbBlockBegin
  2
*Paper_Space
 70
     0
 10
0.0
 20
0.0
 30
0.0
  3
*Paper_Space
  1

  0
ENDBLK
  5
1D
330
1B
100
AcDbEntity
 67
     1
  8
0
100
AcDbBlockEnd
  0
BLOCK
  5
24
330
23
100
AcDbEntity
  8
0
100
AcDbBlockBegin
  2
*Paper_Space0
 70
     0
 10
0.0
 20
0.0
 30
0.0
  3
*Paper_Space0
  1

  0
ENDBLK
  5
25
330
23
100
AcDbEntity
  8
0
100
AcDbBlockEnd
  0
ENDSEC
  0
SECTION
  2
ENTITIES
  0
LINE
  5
86
330
1F
100
AcDbEntity
  8
1
  6
Continuous
 62
     5
100
AcDbLine
 10
6297.92520575552
 20
212.571257724398
 30
0.0
 11
6411.46177256742
 21
260.532499031858
 31
0.0
  0
LINE
  5
87
330
1F
100
AcDbEntity
  8
1
  6
Continuous
 62
     5
100
AcDbLine
 10
6028.9845157186
 20
215.330090188988
 30
0.0
 11
6029.80307040589
 21
212.571257724398
 31
0.0
  0
LINE
  5
88
330
1F
100
AcDbEntity
  8
1
  6
Continuous
 62
     5
100
AcDbLine
 10
5494.71083963688
 20
215.330090188988
 30
0.0
 11
5493.89228494959
 21
212.571257724398
 31
0.0
  0
LINE
  5
89
330
1F
100
AcDbEntity
  8
1
  6
Continuous
 62
     7
100
AcDbLine
 10
6021.6478403732
 20
-336.00873032157
 30
0.0
 11
5502.017198142
 21
-336.00873032157
 31
0.0
  0
LINE
  5
8A
330
1F
100
AcDbEntity
  8
1
  6
Continuous
 62
     7
100
AcDbLine
 10
5502.017198142
 20
-336.00873032157
 30
0.0
 11
5502.017198142
 21
-344.365281360213
 31
0.0
  0
LINE
  5
8B
330
1F
100
AcDbEntity
  8
1
  6
Continuous
 62
     7
100
AcDbLine
 10
5454.2075410359
 20
-344.365281360213
 30
0.0
 11
5502.017198142
 21
-344.365281360213
 31
0.0
  0
LINE
  5
8C
330
1F
100
AcDbEntity
  8
1
  6
Continuous
 62
     7
100
AcDbLine
 10
6021.6478403732
 20
-336.00873032157
 30
0.0
 11
6021.6478403732
 21
-344.365281360213
 31
0.0
  0
LINE
  5
8D
330
1F
100
AcDbEntity
  8
1
  6
Continuous
 62
     7
100
AcDbLine
 10
6069.45749747931
 20
-344.365281360213
 30
0.0
 11
6021.6478403732
 21
-344.365281360213
 31
0.0
  0
LINE
  5
8E
330
1F
100
AcDbEntity
  8
1
  6
Continuous
 62
     7
100
AcDbLine
 10
6069.45749747931
 20
-344.365281360213
 30
0.0
 11
6069.45749747931
 21
-857.155214566277
 31
0.0
  0
LINE
  5
8F
330
1F
100
AcDbEntity
  8
1
  6
Continuous
 62
     7
100
AcDbLine
 10
6021.6478403732
 20
-857.155214566277
 30
0.0
 11
6021.6478403732
 21
-868.433079146791
 31
0.0
  0
LINE
  5
90
330
1F
100
AcDbEntity
  8
1
  6
Continuous
 62
     7
100
AcDbLine
 10
6069.45749747931
 20
-857.155214566277
 30
0.0
 11
6021.6478403732
 21
-857.155214566277
 31
0.0
  0
LINE
  5
91
330
1F
100
AcDbEntity
  8
1
  6
Continuous
 62
     7
100
AcDbLine
 10
6021.6478403732
 20
-868.433079146791
 30
0.0
 11
5502.017198142
 21
-868.433079146791
 31
0.0
  0
LINE
  5
92
330
1F
100
AcDbEntity
  8
1
  6
Continuous
 62
     7
100
AcDbLine
 10
5502.017198142
 20
-857.155214566277
 30
0.0
 11
5454.2075410359
 21
-857.155214566277
 31
0.0
  0
LINE
  5
93
330
1F
100
AcDbEntity
  8
1
  6
Continuous
 62
     7
100
AcDbLine
 10
5502.017198142
 20
-857.155214566277
 30
0.0
 11
5502.017198142
 21
-868.433079146791
 31
0.0
  0
LINE
  5
94
330
1F
100
AcDbEntity
  8
1
  6
Continuous
 62
     7
100
AcDbLine
 10
5454.2075410359
 20
-857.155214566277
 30
0.0
 11
5454.2075410359
 21
-344.365281360213
 31
0.0
  0
LINE
  5
95
330
1F
100
AcDbEntity
  8
1
  6
Continuous
 62
     7
100
AcDbLine
 10
5502.017198142
 20
-344.365281360213
 30
0.0
 11
5502.017198142
 21
-857.155214566277
 31
0.0
  0
LINE
  5
96
330
1F
100
AcDbEntity
  8
1
  6
Continuous
 62
     7
100
AcDbLine
 10
6021.6478403732
 20
-344.365281360213
 30
0.0
 11
6021.6478403732
 21
-857.155214566277
 31
0.0
  0
SPLINE
  5
97
330
1F
100
AcDbEntity
  8
$DDT_AUDIT_GENERATED__3B_
  6
Continuous
 62
     1
100
AcDbSpline
210
0.0
220
0.0
230
1.0
 70
     8
 71
     3
 72
     9
 73
     5
 74
     3
 42
0.0000000001
 43
0.0000000001
 44
0.00000001
 40
0.0
 40
0.0
 40
0.0
 40
0.0
 40
29.42558881957039
 40
58.84659674928886
 40
58.84659674928886
 40
58.84659674928886
 40
58.84659674928886
 10
5461.24104797859
 20
605.022755022122
 30
0.0
 10
5463.658309732642
 20
594.631125547877
 30
0.0
 10
5468.492456928481
 20
573.8494843379577
 30
0.0
 10
5489.266347755196
 20
568.9834916617236
 30
0.0
 10
5499.65248460093
 20
566.550684719236
 30
0.0
 11
5461.24104797859
 21
605.022755022122
 31
0.0
 11
5472.478389584099
 21
577.8273982305753
 31
0.0
 11
5499.65248460093
 21
566.550684719236
 31
0.0
  0
SPLINE
  5
98
330
1F
100
AcDbEntity
  8
$DDT_AUDIT_GENERATED__3B_
  6
Continuous
 62
     1
100
AcDbSpline
210
0.0
220
0.0
230
1.0
 70
     8
 71
     3
 72
     9
 73
     5
 74
     3
 42
0.0000000001
 43
0.0000000001
 44
0.00000001
 40
0.0
 40
0.0
 40
0.0
 40
0.0
 40
29.42100792972014
 40
58.84659674929367
 40
58.84659674929367
 40
58.84659674929367
 40
58.84659674929367
 10
6024.07318759482
 20
566.550684719236
 30
0.0
 10
6034.459324440555
 20
568.9834916617235
 30
0.0
 10
6055.233215267272
 20
573.8494843379583
 30
0.0
 10
6060.067362463116
 20
594.6311255478769
 30
0.0
 10
6062.48462421717
 20
605.022755022122
 30
0.0
 11
6024.07318759482
 21
566.550684719236
 31
0.0
 11
6051.247282611653
 21
577.8273982305753
 31
0.0
 11
6062.48462421717
 21
605.022755022122
 31
0.0
  0
SPLINE
  5
99
330
1F
100
AcDbEntity
  8
$DDT_AUDIT_GENERATED__E2_
  6
Continuous
 62
     7
100
AcDbSpline
210
0.0
220
0.0
230
1.0
 70
     8
 71
     3
 72
     9
 73
     5
 74
     3
 42
0.0000000001
 43
0.0000000001
 44
0.00000001
 40
0.0
 40
0.0
 40
0.0
 40
0.0
 40
88.89276221692549
 40
177.7852135447179
 40
177.7852135447179
 40
177.7852135447179
 40
177.7852135447179
 10
6189.17869970632
 20
434.884647425763
 30
0.0
 10
6193.909983815958
 20
405.6079451007906
 30
0.0
 10
6203.372535488275
 20
347.0546428417309
 30
0.0
 10
6219.29528850115
 20
289.9188834559895
 30
0.0
 10
6227.2566510857
 20
261.351053719148
 30
0.0
 11
6189.17869970632
 21
434.884647425763
 31
0.0
 11
6204.987608018786
 21
347.4089274085896
 31
0.0
 11
6227.2566510857
 21
261.351053719148
 31
0.0
  0
SPLINE
  5
9A
330
1F
100
AcDbEntity
  8
$DDT_AUDIT_GENERATED__E2_
  6
Continuous
 62
     7
100
AcDbSpline
210
0.0
220
0.0
230
1.0
 70
     8
 71
     3
 72
     9
 73
     5
 74
     3
 42
0.0000000001
 43
0.0000000001
 44
0.00000001
 40
0.0
 40
0.0
 40
0.0
 40
0.0
 40
67.3748163355944
 40
134.7517166875429
 40
134.7517166875429
 40
134.7517166875429
 40
134.7517166875429
 10
6173.98996273095
 20
568.73349721869
 30
0.0
 10
6175.667622997183
 20
546.3288193670172
 30
0.0
 10
6179.0229954225
 20
501.5187706493144
 30
0.0
 10
6185.793430042098
 20
457.09625084061
 30
0.0
 10
6189.17869970632
 20
434.884647425763
 30
0.0
 11
6173.98996273095
 21
568.73349721869
 31
0.0
 11
6179.876682670426
 21
501.6163428942608
 31
0.0
 11
6189.17869970632
 21
434.884647425763
 31
0.0
  0
SPLINE
  5
9B
330
1F
100
AcDbEntity
  8
$DDT_AUDIT_GENERATED__E2_
  6
Continuous
 62
     7
100
AcDbSpline
210
0.0
220
0.0
230
1.0
 70
     8
 71
     3
 72
     9
 73
     5
 74
     3
 42
0.0000000001
 43
0.0000000001
 44
0.00000001
 40
0.0
 40
0.0
 40
0.0
 40
0.0
 40
212.6363312356825
 40
425.2864800503754
 40
425.2864800503754
 40
425.2864800503754
 40
425.2864800503754
 10
6627.74211105502
 20
223.667221263296
 30
0.0
 10
6647.755357107084
 20
292.1091429221552
 30
0.0
 10
6687.783149716195
 20
428.9974337472898
 30
0.0
 10
6686.278405275147
 20
571.610136991056
 30
0.0
 10
6685.52600861001
 20
642.91880535987
 30
0.0
 11
6627.74211105502
 21
223.667221263296
 31
0.0
 11
6677.399389634814
 21
430.4239963528191
 31
0.0
 11
6685.52600861001
 21
642.91880535987
 31
0.0
  0
SPLINE
  5
9C
330
1F
100
AcDbEntity
  8
$DDT_AUDIT_GENERATED__E2_
  6
Continuous
 62
     7
100
AcDbSpline
210
0.0
220
0.0
230
1.0
 70
     8
 71
     3
 72
     9
 73
     5
 74
     3
 42
0.0000000001
 43
0.0000000001
 44
0.00000001
 40
0.0
 40
0.0
 40
0.0
 40
0.0
 40
207.2041736925485
 40
414.4082978184259
 40
414.4082978184259
 40
414.4082978184259
 40
414.4082978184259
 10
6685.52600861001
 20
642.91880535987
 30
0.0
 10
6616.686384304885
 20
649.0916298973086
 30
0.0
 10
6479.007152162212
 20
661.4372774955441
 30
0.0
 10
6340.78292659751
 20
660.0056918452896
 30
0.0
 10
6271.67082208154
 20
659.289899105777
 30
0.0
 11
6685.52600861001
 21
642.91880535987
 31
0.0
 11
6478.870887306533
 21
657.9929698361278
 31
0.0
 11
6271.67082208154
 21
659.289899105777
 31
0.0
  0
SPLINE
  5
9D
330
1F
100
AcDbEntity
  8
$DDT_AUDIT_GENERATED__E2_
  6
Continuous
 62
     7
100
AcDbSpline
210
0.0
220
0.0
230
1.0
 70
     8
 71
     3
 72
     9
 73
     5
 74
     3
 42
0.0000000001
 43
0.0000000001
 44
0.00000001
 40
0.0
 40
0.0
 40
0.0
 40
0.0
 40
31.19015651102678
 40
62.37957183047357
 40
62.37957183047357
 40
62.37957183047357
 40
62.37957183047357
 10
6271.67082208154
 20
659.289899105777
 30
0.0
 10
6261.175493970783
 20
658.1403707780169
 30
0.0
 10
6240.185087156438
 20
655.8413414394709
 30
0.0
 10
6222.53164145624
 20
644.2552211513175
 30
0.0
 10
6213.70502348491
 20
638.46222984015
 30
0.0
 11
6271.67082208154
 21
659.289899105777
 31
0.0
 11
6241.019097852737
 21
653.5194862103447
 31
0.0
 11
6213.70502348491
 21
638.46222984015
 31
0.0
  0
SPLINE
  5
9E
330
1F
100
AcDbEntity
  8
$DDT_AUDIT_GENERATED__E2_
  6
Continuous
 62
     7
100
AcDbSpline
210
0.0
220
0.0
230
1.0
 70
     8
 71
     3
 72
     9
 73
     5
 74
     3
 42
0.0000000001
 43
0.0000000001
 44
0.00000001
 40
0.0
 40
0.0
 40
0.0
 40
0.0
 40
40.59699366462605
 40
81.19520039160312
 40
81.19520039160312
 40
81.19520039160312
 40
81.19520039160312
 10
6213.70502348491
 20
638.46222984015
 30
0.0
 10
6203.716614234139
 20
628.8838056430973
 30
0.0
 10
6183.73949727298
 20
609.7266710399717
 30
0.0
 10
6177.239839946754
 20
582.8224582398859
 30
0.0
 10
6173.98996273096
 20
569.37015086437
 30
0.0
 11
6213.70502348491
 21
638.46222984015
 31
0.0
 11
6187.109059964957
 21
607.7902455702825
 31
0.0
 11
6173.98996273096
 21
569.37015086437
 31
0.0
  0
SPLINE
  5
9F
330
1F
100
AcDbEntity
  8
$DDT_AUDIT_GENERATED__E2_
  6
Continuous
 62
     7
100
AcDbSpline
210
0.0
220
0.0
230
1.0
 70
     8
 71
     3
 72
     9
 73
     5
 74
     3
 42
0.0000000001
 43
0.0000000001
 44
0.00000001
 40
0.0
 40
0.0
 40
0.0
 40
0.0
 40
10.84198123026503
 40
21.68431018248783
 40
21.68431018248783
 40
21.68431018248783
 40
21.68431018248783
 10
6685.22284020731
 20
514.557303655849
 30
0.0
 10
6688.311407750168
 20
516.710860325652
 30
0.0
 10
6694.488641891838
 20
521.0180427337177
 30
0.0
 10
6695.910854461187
 20
528.413144164357
 30
0.0
 10
6696.62197214891
 20
532.110754172297
 30
0.0
 11
6685.22284020731
 21
514.557303655849
 31
0.0
 11
6693.299825567427
 21
521.7899286627094
 31
0.0
 11
6696.62197214891
 21
532.110754172297
 31
0.0
  0
SPLINE
  5
A0
330
1F
100
AcDbEntity
  8
$DDT_AUDIT_GENERATED__E2_
  6
Continuous
 62
     7
100
AcDbSpline
210
0.0
220
0.0
230
1.0
 70
     8
 71
     3
 72
     9
 73
     5
 74
     3
 42
0.0000000001
 43
0.0000000001
 44
0.00000001
 40
0.0
 40
0.0
 40
0.0
 40
0.0
 40
16.06262361047717
 40
32.12524985732698
 40
32.12524985732698
 40
32.12524985732698
 40
32.12524985732698
 10
6696.62197214891
 20
532.110754172297
 30
0.0
 10
6696.872393441723
 20
537.4593467399811
 30
0.0
 10
6697.37323606845
 20
548.1565327532186
 30
0.0
 10
6697.599997615707
 20
558.8630359704829
 30
0.0
 10
6697.71337839864
 20
564.216288018432
 30
0.0
 11
6696.62197214891
 21
532.110754172297
 31
0.0
 11
6697.304715768727
 21
548.1588611759737
 31
0.0
 11
6697.71337839864
 21
564.216288018432
 31
0.0
  0
SPLINE
  5
A1
330
1F
100
AcDbEntity
  8
$DDT_AUDIT_GENERATED__E2_
  6
Continuous
 62
     7
100
AcDbSpline
210
0.0
220
0.0
230
1.0
 70
     8
 71
     3
 72
     9
 73
     5
 74
     3
 42
0.0000000001
 43
0.0000000001
 44
0.00000001
 40
0.0
 40
0.0
 40
0.0
 40
0.0
 40
45.14121151691659
 40
90.28241779942498
 40
90.28241779942498
 40
90.28241779942498
 40
90.28241779942498
 10
6697.71337839864
 20
564.216288018432
 30
0.0
 10
6697.789876400004
 20
579.2678935670612
 30
0.0
 10
6697.942872393864
 20
609.371102918991
 30
0.0
 10
6696.071922078903
 20
639.4165046620194
 30
0.0
 10
6695.13644697566
 20
654.439204662545
 30
0.0
 11
6697.71337839864
 21
564.216288018432
 31
0.0
 11
6697.436885766857
 21
609.3566527604185
 31
0.0
 11
6695.13644697566
 21
654.439204662545
 31
0.0
  0
SPLINE
  5
A2
330
1F
100
AcDbEntity
  8
$DDT_AUDIT_GENERATED__E2_
  6
Continuous
 62
     7
100
AcDbSpline
210
0.0
220
0.0
230
1.0
 70
     8
 71
     3
 72
     9
 73
     5
 74
     3
 42
0.0000000001
 43
0.0000000001
 44
0.00000001
 40
0.0
 40
0.0
 40
0.0
 40
0.0
 40
212.2128910988953
 40
424.425788107966
 40
424.425788107966
 40
424.425788107966
 40
424.425788107966
 10
6695.13644697566
 20
654.439204662545
 30
0.0
 10
6624.644714266075
 20
660.9112710940235
 30
0.0
 10
6483.661246883692
 20
673.8554041372288
 30
0.0
 10
6342.091762950547
 20
672.451881690143
 30
0.0
 10
6271.30701999829
 20
671.750120456828
 30
0.0
 11
6695.13644697566
 21
654.439204662545
 31
0.0
 11
6483.514744713292
 21
670.2684901843039
 31
0.0
 11
6271.30701999829
 21
671.750120456828
 31
0.0
  0
SPLINE
  5
A3
330
1F
100
AcDbEntity
  8
$DDT_AUDIT_GENERATED__E2_
  6
Continuous
 62
     7
100
AcDbSpline
210
0.0
220
0.0
230
1.0
 70
     8
 71
     3
 72
     9
 73
     5
 74
     3
 42
0.0000000001
 43
0.0000000001
 44
0.00000001
 40
0.0
 40
0.0
 40
0.0
 40
0.0
 40
35.12393081834102
 40
70.24752774405223
 40
70.24752774405223
 40
70.24752774405223
 40
70.24752774405223
 10
6271.30701999829
 20
671.750120456828
 30
0.0
 10
6259.48783386281
 20
670.4552060505167
 30
0.0
 10
6235.84957394656
 20
667.8653895475181
 30
0.0
 10
6215.973068421634
 20
654.8116998925275
 30
0.0
 10
6206.03486289655
 20
648.284886087695
 30
0.0
 11
6271.30701999829
 21
671.750120456828
 31
0.0
 11
6236.789909129673
 21
665.2493840819861
 31
0.0
 11
6206.03486289655
 21
648.284886087695
 31
0.0
  0
SPLINE
  5
A4
330
1F
100
AcDbEntity
  8
$DDT_AUDIT_GENERATED__E2_
  6
Continuous
 62
     7
100
AcDbSpline
210
0.0
220
0.0
230
1.0
 70
     8
 71
     3
 72
     9
 73
     5
 74
     3
 42
0.0000000001
 43
0.0000000001
 44
0.00000001
 40
0.0
 40
0.0
 40
0.0
 40
0.0
 40
42.08803441306083
 40
84.17631039724282
 40
84.17631039724282
 40
84.17631039724282
 40
84.17631039724282
 10
6206.03486289655
 20
648.284886087695
 30
0.0
 10
6195.630143345029
 20
638.470707465455
 30
0.0
 10
6174.820644522409
 20
618.8422938909006
 30
0.0
 10
6166.748287996509
 20
591.3987676152562
 30
0.0
 10
6162.71209815044
 20
577.676965098401
 30
0.0
 11
6206.03486289655
 21
648.284886087695
 31
0.0
 11
6178.004971539523
 21
616.8885832596825
 31
0.0
 11
6162.71209815044
 21
577.676965098401
 31
0.0
  0
SPLINE
  5
A5
330
1F
100
AcDbEntity
  8
$DDT_AUDIT_GENERATED__E2_
  6
Continuous
 62
     7
100
AcDbSpline
210
0.0
220
0.0
230
1.0
 70
     8
 71
     3
 72
     9
 73
     5
 74
     3
 42
0.0000000001
 43
0.0000000001
 44
0.00000001
 40
0.0
 40
0.0
 40
0.0
 40
0.0
 40
11.25953392837562
 40
22.51905797330081
 40
22.51905797330081
 40
22.51905797330081
 40
22.51905797330081
 10
6162.71209815044
 20
577.676965098401
 30
0.0
 10
6164.514477768074
 20
574.3807192190957
 30
0.0
 10
6168.119235421238
 20
567.7882303538803
 30
0.0
 10
6172.477701255979
 20
561.6678576015291
 30
0.0
 10
6174.6569332169
 20
558.607672568447
 30
0.0
 11
6162.71209815044
 21
577.676965098401
 31
0.0
 11
6168.307664214133
 21
567.9062565923052
 31
0.0
 11
6174.6569332169
 21
558.607672568447
 31
0.0
  0
SPLINE
  5
A6
330
1F
100
AcDbEntity
  8
$DDT_AUDIT_GENERATED__E2_
  6
Continuous
 62
     5
100
AcDbSpline
210
0.0
220
0.0
230
1.0
 70
     8
 71
     3
 72
    81
 73
    77
 74
    75
 42
0.0000000001
 43
0.0000000001
 44
0.00000001
 40
0.0
 40
0.0
 40
0.0
 40
0.0
 40
0.1071919584260261
 40
0.2144619508101376
 40
0.3083131303511676
 40
0.4028442278153945
 40
0.4872177190632417
 40
0.5698994589216447
 40
0.6481458676006664
 40
0.7274138365253199
 40
0.7935092641782009
 40
0.8596509294283117
 40
0.9296976664137345
 40
0.9997215830288191
 40
1.087656940676401
 40
1.175327549656395
 40
1.272696253418795
 40
1.369539839404587
 40
1.462159941916288
 40
1.555709734260748
 40
1.6608020283639
 40
1.7658044924736
 40
1.86601836217471
 40
1.966194039211131
 40
2.095243287060321
 40
2.224410950430332
 40
2.329160825189467
 40
2.433696471792966
 40
2.509404631606687
 40
2.585234798646384
 40
2.70146005013691
 40
2.817547418618298
 40
2.904667443474954
 40
2.991872120255264
 40
3.068455526269782
 40
3.144942653448942
 40
3.317003408024182
 40
3.489412869976131
 40
3.672379694687322
 40
3.855304143362312
 40
4.064415204007132
 40
4.273532657048784
 40
4.524225136701865
 40
4.774906874709846
 40
5.083315228573684
 40
5.391722758631235
 40
5.733474680061718
 40
6.075258251301098
 40
6.444700486383513
 40
6.814115676369733
 40
7.205506092225207
 40
7.596915484800607
 40
7.858638803097811
 40
8.120352837318464
 40
8.400009029450317
 40
8.67967538786994
 40
8.965960848509399
 40
9.252238943996192
 40
9.533785035505415
 40
9.815343616820439
 40
10.0808162848614
 40
10.34625331403229
 40
10.58417894215481
 40
10.82220926611711
 40
11.02148889855015
 40
11.22047900297891
 40
11.28673294128031
 40
11.35313103053178
 40
11.40826190142384
 40
11.46308605122798
 40
11.51633964235321
 40
11.56979137649542
 40
11.64250786278206
 40
11.71532198727121
 40
11.95452403011836
 40
12.19377414526159
 40
12.19377414526159
 40
12.19377414526159
 40
12.19377414526159
 10
5504.41222852335
 20
249.103050249986
 30
0.0
 10
5504.415936999698
 20
249.1385839915071
 30
0.0
 10
5504.423356652104
 20
249.2096773425207
 30
0.0
 10
5504.439551704354
 20
249.3113479037678
 30
0.0
 10
5504.466909119886
 20
249.4062347366758
 30
0.0
 10
5504.500736826788
 20
249.4908245363694
 30
0.0
 10
5504.539371838891
 20
249.568833531254
 30
0.0
 10
5504.567545720384
 20
249.6465537701554
 30
0.0
 10
5504.5711453491
 20
249.7271478058231
 30
0.0
 10
5504.570503751969
 20
249.8016813809875
 30
0.0
 10
5504.581295440509
 20
249.8715918451184
 30
0.0
 10
5504.595787069657
 20
249.9374149184941
 30
0.0
 10
5504.608923798828
 20
250.0048868867842
 30
0.0
 10
5504.624973086781
 20
250.0792286451321
 30
0.0
 10
5504.64807174966
 20
250.1577384787617
 30
0.0
 10
5504.669491126484
 20
250.2465371308255
 30
0.0
 10
5504.673978422796
 20
250.3405343053796
 30
0.0
 10
5504.68095970477
 20
250.4363533813602
 30
0.0
 10
5504.710817795431
 20
250.5264769273822
 30
0.0
 10
5504.747529838777
 20
250.616273344855
 30
0.0
 10
5504.775574418557
 20
250.7137692520499
 30
0.0
 10
5504.797364383819
 20
250.8148829323433
 30
0.0
 10
5504.816899427752
 20
250.9147916290891
 30
0.0
 10
5504.838160791276
 20
251.0225298527571
 30
0.0
 10
5504.864294736298
 20
251.1391149966219
 30
0.0
 10
5504.892951568883
 20
251.25666661421
 30
0.0
 10
5504.92049336918
 20
251.3660610733997
 30
0.0
 10
5504.939658562444
 20
251.4592099519959
 30
0.0
 10
5504.949989910079
 20
251.5439817220944
 30
0.0
 10
5504.9589468098
 20
251.6327787603516
 30
0.0
 10
5504.972713374379
 20
251.7346088315072
 30
0.0
 10
5504.99291659144
 20
251.8392390409796
 30
0.0
 10
5505.01723866033
 20
251.9329677853619
 30
0.0
 10
5505.040148595617
 20
252.0134031685592
 30
0.0
 10
5505.061590053234
 20
252.0905714224469
 30
0.0
 10
5505.087484307132
 20
252.1958587138006
 30
0.0
 10
5505.108963898363
 20
252.3347172724154
 30
0.0
 10
5505.129420421958
 20
252.5093131429695
 30
0.0
 10
5505.158971722887
 20
252.6863692884251
 30
0.0
 10
5505.194697258369
 20
252.8746670100969
 30
0.0
 10
5505.23075799829
 20
253.0717850503544
 30
0.0
 10
5505.269408446206
 20
253.2913845522275
 30
0.0
 10
5505.308804094625
 20
253.524914938901
 30
0.0
 10
5505.354697793524
 20
253.7909195925278
 30
0.0
 10
5505.408681422186
 20
254.0750079101294
 30
0.0
 10
5505.468295553484
 20
254.3889259754599
 30
0.0
 10
5505.52349770299
 20
254.7149559474564
 30
0.0
 10
5505.577398617998
 20
255.0617877867146
 30
0.0
 10
5505.630442214442
 20
255.418077683913
 30
0.0
 10
5505.682158039124
 20
255.7912717510272
 30
0.0
 10
5505.729563933806
 20
256.17241365878
 30
0.0
 10
5505.77099226611
 20
256.5181141223559
 30
0.0
 10
5505.808643962964
 20
256.8207297164029
 30
0.0
 10
5505.840703476274
 20
257.0865039807961
 30
0.0
 10
5505.870359496031
 20
257.3585770518859
 30
0.0
 10
5505.898688591706
 20
257.639020197823
 30
0.0
 10
5505.926112115587
 20
257.9217707808743
 30
0.0
 10
5505.952364488676
 20
258.2052621425325
 30
0.0
 10
5505.97716935757
 20
258.4873017505522
 30
0.0
 10
5506.000586443402
 20
258.7624999167438
 30
0.0
 10
5506.023262279871
 20
259.032371349441
 30
0.0
 10
5506.04350759965
 20
259.2878527125177
 30
0.0
 10
5506.061048496515
 20
259.5343572570742
 30
0.0
 10
5506.078530714876
 20
259.7587724138514
 30
0.0
 10
5506.099070575811
 20
259.9698623556996
 30
0.0
 10
5506.109529646059
 20
260.124443708935
 30
0.0
 10
5506.11133919345
 20
260.2349879599417
 30
0.0
 10
5506.110425860913
 20
260.297597749729
 30
0.0
 10
5506.107626124858
 20
260.3562931516516
 30
0.0
 10
5506.108509752901
 20
260.4108533992137
 30
0.0
 10
5506.117825528983
 20
260.463999884571
 30
0.0
 10
5506.130061679994
 20
260.5225440085422
 30
0.0
 10
5506.136816030142
 20
260.5886582565762
 30
0.0
 10
5506.142709400223
 20
260.7167461212298
 30
0.0
 10
5506.155298661455
 20
260.9000991544058
 30
0.0
 10
5506.165502718082
 20
261.0592516127167
 30
0.0
 10
5506.17060525902
 20
261.138835837263
 30
0.0
 11
5504.41222852335
 21
249.103050249986
 31
0.0
 11
5504.424314650679
 21
249.2095586603459
 31
0.0
 11
5504.442545363615
 21
249.3152681318796
 31
0.0
 11
5504.468318538455
 21
249.4055110671151
 31
0.0
 11
5504.503179044155
 21
249.4933795684685
 31
0.0
 11
5504.538222215027
 21
249.5701315208904
 31
0.0
 11
5504.563812724697
 21
249.6487533748553
 31
0.0
 11
5504.570436006814
 21
249.7267189608864
 31
0.0
 11
5504.572795492182
 21
249.8059518058828
 31
0.0
 11
5504.581974180064
 21
249.8714068075663
 31
0.0
 11
5504.595252410901
 21
249.9362019344503
 31
0.0
 11
5504.609159418002
 21
250.0048542506224
 31
0.0
 11
5504.624446405238
 21
250.0731891386325
 31
0.0
 11
5504.647410951417
 21
250.1580729223808
 31
0.0
 11
5504.666132060613
 21
250.2437213651535
 31
0.0
 11
5504.674397823969
 21
250.3407385885136
 31
0.0
 11
5504.685080085783
 21
250.4369912218756
 31
0.0
 11
5504.711666358203
 21
250.5257135612727
 31
0.0
 11
5504.744590920385
 21
250.6132780338217
 31
0.0
 11
5504.774418867305
 21
250.7140484851575
 31
0.0
 11
5504.797364679372
 21
250.8165131482259
 31
0.0
 11
5504.816930488376
 21
250.9147984411159
 31
0.0
 11
5504.836664287131
 21
251.0130111870116
 31
0.0
 11
5504.864675121627
 21
251.1389838091217
 31
0.0
 11
5504.895052275795
 21
251.2645286766597
 31
0.0
 11
5504.919770105916
 21
251.3663204500807
 31
0.0
 11
5504.939966113234
 21
251.4688866370002
 31
0.0
 11
5504.949724216945
 21
251.5439632969841
 31
0.0
 11
5504.957931648212
 21
251.6193479924154
 31
0.0
 11
5504.973799399824
 21
251.7344849697199
 31
0.0
 11
5504.996108410036
 21
251.8484085633443
 31
0.0
 11
5505.017560631806
 21
251.9328461196338
 31
0.0
 11
5505.04102224747
 21
252.0168354537352
 31
0.0
 11
5505.061231019336
 21
252.0907044162055
 31
0.0
 11
5505.079199009291
 21
252.165051117283
 31
0.0
 11
5505.107894090063
 21
252.3347022169095
 31
0.0
 11
5505.130358677251
 21
252.505641869691
 31
0.0
 11
5505.159635892367
 21
252.6862511264304
 31
0.0
 11
5505.192887160307
 21
252.8661280485284
 31
0.0
 11
5505.230527002785
 21
253.0718236438681
 31
0.0
 11
5505.266784458466
 21
253.2777738953228
 31
0.0
 11
5505.308958326589
 21
253.5248934700272
 31
0.0
 11
5505.352050571724
 21
253.7718436516022
 31
0.0
 11
5505.408675566914
 21
254.0750091553337
 31
0.0
 11
5505.465265022109
 21
254.3781804570048
 31
0.0
 11
5505.522733615856
 21
254.7150658032788
 31
0.0
 11
5505.575637268714
 21
255.052730153016
 31
0.0
 11
5505.62982855932
 21
255.4181762763845
 31
0.0
 11
5505.680325107775
 21
255.7841239245348
 31
0.0
 11
5505.729273367746
 21
256.1724414820433
 31
0.0
 11
5505.776486335508
 21
256.5609929564599
 31
0.0
 11
5505.808482562486
 21
256.8207531089077
 31
0.0
 11
5505.839506472865
 21
257.0806218309441
 31
0.0
 11
5505.869992958442
 21
257.3586113271393
 31
0.0
 11
5505.898284020327
 21
257.6368430432485
 31
0.0
 11
5505.925905936143
 21
257.921792854163
 31
0.0
 11
5505.952288654161
 21
258.2068526727021
 31
0.0
 11
5505.977036442962
 21
258.4873089947802
 31
0.0
 11
5506.000990050626
 21
258.7678467986356
 31
0.0
 11
5506.023053887661
 21
259.0324009983227
 31
0.0
 11
5506.043857885992
 21
259.2970215003789
 31
0.0
 11
5506.061311387173
 21
259.534306097043
 31
0.0
 11
5506.080361836523
 21
259.7715728572628
 31
0.0
 11
5506.098106285433
 21
259.970060908378
 31
0.0
 11
5506.109971578478
 21
260.1686969486162
 31
0.0
 11
5506.110996904993
 21
260.2349429526163
 31
0.0
 11
5506.109971578479
 21
260.301333124794
 31
0.0
 11
5506.108209756249
 21
260.3564358371388
 31
0.0
 11
5506.109971578477
 21
260.4112316707777
 31
0.0
 11
5506.11809383835
 21
260.463862211933
 31
0.0
 11
5506.12797220239
 21
260.5163932104642
 31
0.0
 11
5506.136135947848
 21
260.5886499792681
 31
0.0
 11
5506.140288418748
 21
260.6613456030053
 31
0.0
 11
5506.155117012579
 21
260.900087576917
 31
0.0
 11
5506.17060525902
 21
261.138835837263
 31
0.0
  0
SPLINE
  5
A7
330
1F
100
AcDbEntity
  8
$DDT_AUDIT_GENERATED__E2_
  6
Continuous
 62
     5
100
AcDbSpline
210
0.0
220
0.0
230
1.0
 70
     8
 71
     3
 72
   274
 73
   270
 74
   268
 42
0.0000000001
 43
0.0000000001
 44
0.00000001
 40
0.0
 40
0.0
 40
0.0
 40
0.0
 40
0.5435246253117612
 40
1.087058914524202
 40
1.315959322352815
 40
1.545030507141173
 40
1.627930415618759
 40
1.710614322517109
 40
1.771845483066005
 40
1.833060428190801
 40
1.917573764567615
 40
2.002275521590897
 40
2.075949580772474
 40
2.149732010067702
 40
2.214107646319873
 40
2.278068462215574
 40
2.339582420166643
 40
2.400816729879967
 40
2.461808578923485
 40
2.523314104807139
 40
2.605995237955214
 40
2.688901123513891
 40
2.751087027663971
 40
2.813239470115822
 40
2.875483351178393
 40
2.934784392356389
 40
2.997315576967232
 40
3.063341666271511
 40
3.12210050482288
 40
3.180594454708833
 40
3.314472381747221
 40
3.44830815561035
 40
3.579623702636519
 40
3.710678106553934
 40
3.852489480510019
 40
3.994887350004718
 40
4.126545597442106
 40
4.257579432120748
 40
4.327386290560181
 40
4.397352485384365
 40
4.46727459498066
 40
4.537115842422374
 40
4.676276118589679
 40
4.815597405631401
 40
4.995289703121232
 40
5.174910159052261
 40
5.394061861592954
 40
5.613253510944872
 40
5.871115780781837
 40
6.128866367413287
 40
6.621418530186858
 40
7.114450068101983
 40
7.596373476949539
 40
8.078075156711652
 40
8.453817687840619
 40
8.829536095435897
 40
9.216040652100036
 40
9.602740788038291
 40
9.784592433315826
 40
9.965944788613443
 40
10.13055987701733
 40
10.29520457743102
 40
10.44127843829715
 40
10.587807185337
 40
10.74911710624307
 40
10.90950669142417
 40
11.06585189464414
 40
11.22328769742272
 40
11.39457050509037
 40
11.56485801898381
 40
11.63894076473088
 40
11.71270832671845
 40
11.78312294378924
 40
11.85334292314707
 40
11.92199278108397
 40
11.99071602472776
 40
12.06629473977529
 40
12.14257546632212
 40
12.22048190891295
 40
12.29801900886206
 40
12.37889223650925
 40
12.45996951703687
 40
12.57644217536509
 40
12.69293218425071
 40
12.81716618371063
 40
12.94031786291477
 40
13.00040776817769
 40
13.06278627565046
 40
13.10711679549829
 40
13.14933167634594
 40
13.18789862784795
 40
13.19056811559653
 40
13.19325833522195
 40
13.21211267660395
 40
13.23078245050691
 40
13.30852234956817
 40
13.38914043845446
 40
13.4943262448734
 40
13.59770659518058
 40
13.69602413124485
 40
13.79587376616204
 40
13.89611342044833
 40
14.01209926492255
 40
14.12785772629668
 40
14.22712428071374
 40
14.32635990629829
 40
14.41722276675514
 40
14.508219736428
 40
14.6113645664252
 40
14.71396436419088
 40
14.86351081951032
 40
15.01366908109523
 40
15.18073959372275
 40
15.34819586382035
 40
15.54179798028366
 40
15.73554962261029
 40
15.95428211787276
 40
16.17302679709378
 40
16.32927563630949
 40
16.48549336594495
 40
16.65233277642626
 40
16.81927039476187
 40
16.97570900340197
 40
17.13181691120912
 40
17.1959410246787
 40
17.26008787901611
 40
17.30483781096332
 40
17.34969907209394
 40
17.38547305325118
 40
17.4205839927932
 40
17.45809659338033
 40
17.49642257103173
 40
17.53922403925841
 40
17.58171637629423
 40
17.61290736899435
 40
17.64400160232065
 40
17.69894102363542
 40
17.75449697499793
 40
17.80977474801122
 40
17.86487336502601
 40
17.91278756129083
 40
17.96074472039912
 40
18.00869968297529
 40
18.0566172092183
 40
18.10691001137206
 40
18.15739280502124
 40
18.22408194463193
 40
18.28824441801655
 40
18.31821659309063
 40
18.34897242670728
 40
18.37957463708518
 40
18.40966053625962
 40
18.46909435383677
 40
18.52988528976692
 40
18.59121042091503
 40
18.69285484275278
 40
18.79377572283584
 40
18.871434924707
 40
18.94934049724026
 40
19.03227150534506
 40
19.11520220567245
 40
19.17998686996679
 40
19.24483051973748
 40
19.34775846662905
 40
19.44989859810966
 40
19.53583003946394
 40
19.62195187873182
 40
19.75140358691521
 40
19.88220788910457
 40
20.01338387342865
 40
20.21625179959747
 40
20.418972698781
 40
20.67110022942492
 40
20.92355580384941
 40
21.15062984693983
 40
21.37775962386594
 40
21.62189005330074
 40
21.86570269764023
 40
22.09291544445383
 40
22.31991011593441
 40
22.53562231591074
 40
22.75172131604365
 40
22.96237025352069
 40
23.17299825734073
 40
23.39855349469283
 40
23.62400650512123
 40
23.85245386631775
 40
24.08099476970639
 40
24.32518535030615
 40
24.56930373362101
 40
24.81741464870779
 40
25.06552603050697
 40
25.43346076039038
 40
25.80169273786318
 40
26.19159275803102
 40
26.5814737760787
 40
26.79949239669437
 40
27.01749855043442
 40
27.24846818127244
 40
27.479468913488
 40
27.7072517764451
 40
27.93494850919279
 40
28.25712760534865
 40
28.57948191942156
 40
28.92649803144332
 40
29.27346689077129
 40
29.62092812917689
 40
29.96846110635015
 40
30.32705696382773
 40
30.6854792521632
 40
30.88218240351491
 40
31.07894907393562
 40
31.24317092364187
 40
31.40650428713998
 40
31.57063827094035
 40
31.73460913726305
 40
31.88056782454661
 40
32.02724616085812
 40
32.18898520296874
 40
32.35079771252308
 40
32.50179063285427
 40
32.6523204179821
 40
32.80866910376323
 40
32.96539222244239
 40
33.14820282995008
 40
33.3315411602484
 40
33.4856459162068
 40
33.63879142551085
 40
33.81003571568229
 40
33.98197443840633
 40
34.11857170813028
 40
34.25526139596872
 40
34.36302816226686
 40
34.47054940560149
 40
34.57894542405971
 40
34.60442424039822
 40
34.62895051049789
 40
34.67386540350716
 40
34.71839047283662
 40
34.76048980782006
 40
34.80633941905955
 40
34.83948796013856
 40
34.8710844096811
 40
34.90577902780019
 40
34.94075711541694
 40
34.98405861758631
 40
35.02822311720752
 40
35.04524652084647
 40
35.06233116548976
 40
35.09131228993868
 40
35.11932086425559
 40
35.1359622774557
 40
35.1533444695197
 40
35.17103029200897
 40
35.18752233111239
 40
35.18937959388771
 40
35.19131402839738
 40
35.2068098868135
 40
35.21819457456048
 40
35.22469354764395
 40
35.23354627232038
 40
35.24240749262851
 40
35.24889892208864
 40
35.26029735401141
 40
35.27574939296637
 40
35.27767058408604
 40
35.27953936094017
 40
35.29500577620344
 40
35.30986234519061
 40
35.30986234519061
 40
35.30986234519061
 40
35.30986234519061
 10
5494.71083963688
 20
215.330090188988
 30
0.0
 10
5494.759726124999
 20
215.5045359580392
 30
0.0
 10
5494.857499970441
 20
215.8534305977978
 30
0.0
 10
5494.972474494436
 20
216.2768681884119
 30
0.0
 10
5495.073229011043
 20
216.5951287589103
 30
0.0
 10
5495.123950123228
 20
216.7682317448655
 30
0.0
 10
5495.155370152392
 20
216.8959521216123
 30
0.0
 10
5495.177103474616
 20
216.9685104593242
 30
0.0
 10
5495.203631621178
 20
217.0315648964682
 30
0.0
 10
5495.230161608136
 20
217.0952994347473
 30
0.0
 10
5495.251195324154
 20
217.1693300896451
 30
0.0
 10
5495.270102279077
 20
217.248032866558
 30
0.0
 10
5495.291968859239
 20
217.3223042543274
 30
0.0
 10
5495.315475043353
 20
217.3889516113217
 30
0.0
 10
5495.341276377449
 20
217.4511278113294
 30
0.0
 10
5495.360833272776
 20
217.5116981616102
 30
0.0
 10
5495.367335104805
 20
217.5736936420138
 30
0.0
 10
5495.375269570144
 20
217.6347391912956
 30
0.0
 10
5495.398356483774
 20
217.6918908683473
 30
0.0
 10
5495.427595852935
 20
217.7537134420107
 30
0.0
 10
5495.448768119154
 20
217.8266849521378
 30
0.0
 10
5495.466079033766
 20
217.9006209187465
 30
0.0
 10
5495.486672071137
 20
217.9664709909536
 30
0.0
 10
5495.498166016617
 20
218.0283373851597
 30
0.0
 10
5495.492489842247
 20
218.089140194033
 30
0.0
 10
5495.49368231906
 20
218.1523519965055
 30
0.0
 10
5495.530148870546
 20
218.2058868084769
 30
0.0
 10
5495.571715373502
 20
218.2520918085222
 30
0.0
 10
5495.600592373926
 20
218.3066436877431
 30
0.0
 10
5495.629136383369
 20
218.3853025230758
 30
0.0
 10
5495.662119284072
 20
218.4890058047868
 30
0.0
 10
5495.693817663748
 20
218.6183304791332
 30
0.0
 10
5495.715494059612
 20
218.7486173217677
 30
0.0
 10
5495.739913735403
 20
218.8812394069778
 30
0.0
 10
5495.78049607976
 20
219.0138741319816
 30
0.0
 10
5495.830655425129
 20
219.1431456458595
 30
0.0
 10
5495.882865305947
 20
219.2676348553615
 30
0.0
 10
5495.919759152433
 20
219.3724132780224
 30
0.0
 10
5495.940179120329
 20
219.4604100596376
 30
0.0
 10
5495.953715615006
 20
219.5289791709808
 30
0.0
 10
5495.967923342107
 20
219.5974335474782
 30
0.0
 10
5495.988953163057
 20
219.6880173758329
 30
0.0
 10
5496.021486308254
 20
219.7995449557777
 30
0.0
 10
5496.068658542672
 20
219.9447929234454
 30
0.0
 10
5496.117540130926
 20
220.1036630608188
 30
0.0
 10
5496.173412241244
 20
220.2882104504279
 30
0.0
 10
5496.23495958419
 20
220.4847937403663
 30
0.0
 10
5496.307326979089
 20
220.7053046433942
 30
0.0
 10
5496.387993075628
 20
220.9365716935266
 30
0.0
 10
5496.495888595203
 20
221.2548860447653
 30
0.0
 10
5496.607280625811
 20
221.6543283427205
 30
0.0
 10
5496.724922070513
 20
222.1291058623453
 30
0.0
 10
5496.848102652793
 20
222.598804785858
 30
0.0
 10
5496.972035422747
 20
223.0278091306815
 30
0.0
 10
5497.098730538854
 20
223.418859483378
 30
0.0
 10
5497.214990971933
 20
223.7799734138694
 30
0.0
 10
5497.320521625097
 20
224.1480956505821
 30
0.0
 10
5497.414662929703
 20
224.4524224361304
 30
0.0
 10
5497.501412792755
 20
224.686803978844
 30
0.0
 10
5497.555038932769
 20
224.8547159346448
 30
0.0
 10
5497.587064409076
 20
225.022022429155
 30
0.0
 10
5497.61699557617
 20
225.1777196655113
 30
0.0
 10
5497.661989926997
 20
225.3236177312333
 30
0.0
 10
5497.716867130935
 20
225.4646983101282
 30
0.0
 10
5497.779626563724
 20
225.6075448694557
 30
0.0
 10
5497.836698468937
 20
225.7566953054067
 30
0.0
 10
5497.87166495316
 20
225.9112113095518
 30
0.0
 10
5497.898089392049
 20
226.0706836479263
 30
0.0
 10
5497.928995357735
 20
226.2341442690741
 30
0.0
 10
5497.970221821758
 20
226.3672626602309
 30
0.0
 10
5498.01597088883
 20
226.4628860037634
 30
0.0
 10
5498.043818013713
 20
226.5304548229707
 30
0.0
 10
5498.057860285227
 20
226.60063321573
 30
0.0
 10
5498.073276331226
 20
226.669003778049
 30
0.0
 10
5498.103867730078
 20
226.7313946360984
 30
0.0
 10
5498.1360742318
 20
226.7948033832463
 30
0.0
 10
5498.154712496567
 20
226.8664375929926
 30
0.0
 10
5498.1666772095
 20
226.9420217283357
 30
0.0
 10
5498.180996627066
 20
227.0179620070552
 30
0.0
 10
5498.200215966112
 20
227.0944407790205
 30
0.0
 10
5498.226768440154
 20
227.1698197949641
 30
0.0
 10
5498.262245574266
 20
227.2555882066191
 30
0.0
 10
5498.303908029062
 20
227.3516089979297
 30
0.0
 10
5498.347601721178
 20
227.4624663426684
 30
0.0
 10
5498.381890424492
 20
227.578965741743
 30
0.0
 10
5498.405183936777
 20
227.6787732964626
 30
0.0
 10
5498.422405050817
 20
227.7588515600627
 30
0.0
 10
5498.426307483274
 20
227.8146997664608
 30
0.0
 10
5498.421308378053
 20
227.8640962764138
 30
0.0
 10
5498.420117970671
 20
227.9059691382986
 30
0.0
 10
5498.431390577705
 20
227.9333863046911
 30
0.0
 10
5498.441673448415
 20
227.9438183041078
 30
0.0
 10
5498.447465907167
 20
227.9494392077177
 30
0.0
 10
5498.457259742177
 20
227.9585804684155
 30
0.0
 10
5498.484289242328
 20
227.9860255277191
 30
0.0
 10
5498.510651602114
 20
228.0405164362922
 30
0.0
 10
5498.534758111443
 20
228.1247867613376
 30
0.0
 10
5498.578077177735
 20
228.2113574700595
 30
0.0
 10
5498.624388361249
 20
228.3028039375278
 30
0.0
 10
5498.650315588704
 20
228.4005436261731
 30
0.0
 10
5498.66584075725
 20
228.4987381696768
 30
0.0
 10
5498.681680720272
 20
228.6029715045661
 30
0.0
 10
5498.708706157127
 20
228.7104407499505
 30
0.0
 10
5498.741320949074
 20
228.8158418801777
 30
0.0
 10
5498.772454168911
 20
228.9158631983477
 30
0.0
 10
5498.803176115087
 20
229.0073164627243
 30
0.0
 10
5498.83666034312
 20
229.094851501134
 30
0.0
 10
5498.87424925597
 20
229.1821520272287
 30
0.0
 10
5498.917438318215
 20
229.2710866765264
 30
0.0
 10
5498.9638051855
 20
229.3804377941583
 30
0.0
 10
5498.992397776014
 20
229.5119545969513
 30
0.0
 10
5499.020634853839
 20
229.6651081910275
 30
0.0
 10
5499.075857436811
 20
229.8175079179024
 30
0.0
 10
5499.142780005945
 20
229.9802972064103
 30
0.0
 10
5499.196163229668
 20
230.1576396772527
 30
0.0
 10
5499.247929702849
 20
230.3528797703411
 30
0.0
 10
5499.310172271883
 20
230.5539490308155
 30
0.0
 10
5499.37296175535
 20
230.7416260482923
 30
0.0
 10
5499.429398255664
 20
230.9094625245756
 30
0.0
 10
5499.479771564535
 20
231.0610854284213
 30
0.0
 10
5499.529894490397
 20
231.2165295900199
 30
0.0
 10
5499.581988225001
 20
231.3714447335441
 30
0.0
 10
5499.63787709477
 20
231.5211502921953
 30
0.0
 10
5499.676474502536
 20
231.6408406594414
 30
0.0
 10
5499.69765138929
 20
231.7332548023163
 30
0.0
 10
5499.710956805737
 20
231.7893861321673
 30
0.0
 10
5499.72550656724
 20
231.8385525571015
 30
0.0
 10
5499.741316172891
 20
231.8774201864151
 30
0.0
 10
5499.760423441432
 20
231.9108852040562
 30
0.0
 10
5499.775789706866
 20
231.9439583631759
 30
0.0
 10
5499.780424107441
 20
231.9810328749681
 30
0.0
 10
5499.781941634932
 20
232.0204906118729
 30
0.0
 10
5499.78932866066
 20
232.0612440141437
 30
0.0
 10
5499.802685733805
 20
232.0979622087732
 30
0.0
 10
5499.819874120481
 20
232.12839245051
 30
0.0
 10
5499.838983964912
 20
232.1625560078288
 30
0.0
 10
5499.853106482728
 20
232.2079767614218
 30
0.0
 10
5499.864127214545
 20
232.2620678152863
 30
0.0
 10
5499.878476109229
 20
232.3155368776577
 30
0.0
 10
5499.894156292034
 20
232.3659157375445
 30
0.0
 10
5499.909886601947
 20
232.4137193551242
 30
0.0
 10
5499.92530566473
 20
232.4591155736864
 30
0.0
 10
5499.940906606435
 20
232.5044449126039
 30
0.0
 10
5499.956148235632
 20
232.5507421604324
 30
0.0
 10
5499.970079057298
 20
232.5982576929404
 30
0.0
 10
5499.990343611465
 20
232.6506564390309
 30
0.0
 10
5500.023766188836
 20
232.7008087608413
 30
0.0
 10
5500.047575617473
 20
232.7505069871237
 30
0.0
 10
5500.048834202767
 20
232.7925300818966
 30
0.0
 10
5500.046475010186
 20
232.8228369822058
 30
0.0
 10
5500.04489871279
 20
232.8532947037633
 30
0.0
 10
5500.046166774784
 20
232.893425620014
 30
0.0
 10
5500.058851581312
 20
232.9424496196038
 30
0.0
 10
5500.082841501589
 20
232.9979888237218
 30
0.0
 10
5500.113844333278
 20
233.0659254391585
 30
0.0
 10
5500.138734656235
 20
233.150493935207
 30
0.0
 10
5500.163454789035
 20
233.2406657308487
 30
0.0
 10
5500.196712225253
 20
233.3195642591413
 30
0.0
 10
5500.228960224542
 20
233.3922261440371
 30
0.0
 10
5500.256113624889
 20
233.4688972202401
 30
0.0
 10
5500.278516983966
 20
233.5424445231823
 30
0.0
 10
5500.298596983816
 20
233.6103824766301
 30
0.0
 10
5500.322757743548
 20
233.6841128542684
 30
0.0
 10
5500.357842865074
 20
233.7668870958124
 30
0.0
 10
5500.389860730973
 20
233.8590544911936
 30
0.0
 10
5500.400375503544
 20
233.9501508199555
 30
0.0
 10
5500.409538398208
 20
234.0503134327253
 30
0.0
 10
5500.44205255928
 20
234.1619780656689
 30
0.0
 10
5500.493130019716
 20
234.281958742625
 30
0.0
 10
5500.554690271965
 20
234.4243429064609
 30
0.0
 10
5500.603326511775
 20
234.5969752031848
 30
0.0
 10
5500.654036068475
 20
234.8102634335916
 30
0.0
 10
5500.729811181982
 20
235.0338398942745
 30
0.0
 10
5500.81473831582
 20
235.2624225408973
 30
0.0
 10
5500.887240628019
 20
235.4865966243661
 30
0.0
 10
5500.956962064693
 20
235.708697570647
 30
0.0
 10
5501.03386794201
 20
235.9342684939799
 30
0.0
 10
5501.102453650438
 20
236.1628843444292
 30
0.0
 10
5501.14764878919
 20
236.3912070164666
 30
0.0
 10
5501.193617806699
 20
236.609966703948
 30
0.0
 10
5501.262888912404
 20
236.8186507191779
 30
0.0
 10
5501.3358083602
 20
237.019991099107
 30
0.0
 10
5501.396972694582
 20
237.2235341874959
 30
0.0
 10
5501.457074025059
 20
237.4306068941849
 30
0.0
 10
5501.526428480577
 20
237.6399751054485
 30
0.0
 10
5501.59527084686
 20
237.8558263544393
 30
0.0
 10
5501.650977605163
 20
238.0764496248786
 30
0.0
 10
5501.706741969516
 20
238.3034592057641
 30
0.0
 10
5501.775400683666
 20
238.5323713135248
 30
0.0
 10
5501.844836999564
 20
238.7678967874244
 30
0.0
 10
5501.899805685462
 20
239.0085503046995
 30
0.0
 10
5501.963077527056
 20
239.2896260766338
 30
0.0
 10
5502.057407033674
 20
239.6041070462289
 30
0.0
 10
5502.173281787875
 20
239.9611104465621
 30
0.0
 10
5502.276845934505
 20
240.3295826568065
 30
0.0
 10
5502.364339121367
 20
240.6504642458917
 30
0.0
 10
5502.442015063851
 20
240.9145874419807
 30
0.0
 10
5502.504164092861
 20
241.1280632003349
 30
0.0
 10
5502.563099472065
 20
241.3469328961228
 30
0.0
 10
5502.622584262277
 20
241.5690291265096
 30
0.0
 10
5502.685759959797
 20
241.7889595740644
 30
0.0
 10
5502.754629311239
 20
242.0389078088078
 30
0.0
 10
5502.818370814196
 20
242.322670658452
 30
0.0
 10
5502.885474765873
 20
242.6462912369422
 30
0.0
 10
5502.962190861885
 20
242.9763129608765
 30
0.0
 10
5503.047257037494
 20
243.3128896902215
 30
0.0
 10
5503.136896584662
 20
243.6484506013876
 30
0.0
 10
5503.230600967256
 20
243.9869240979548
 30
0.0
 10
5503.326865405228
 20
244.3284445456288
 30
0.0
 10
5503.401841641273
 20
244.6238024601558
 30
0.0
 10
5503.452690711412
 20
244.8691688379329
 30
0.0
 10
5503.496951350184
 20
245.0500021446546
 30
0.0
 10
5503.554153892777
 20
245.2150618821591
 30
0.0
 10
5503.599107914918
 20
245.3734435702923
 30
0.0
 10
5503.611700242494
 20
245.5371326367844
 30
0.0
 10
5503.625205013543
 20
245.6950714145392
 30
0.0
 10
5503.669013120673
 20
245.8414710964667
 30
0.0
 10
5503.718981881075
 20
245.9844252485028
 30
0.0
 10
5503.754620985444
 20
246.1372800209546
 30
0.0
 10
5503.787914581393
 20
246.2919577279532
 30
0.0
 10
5503.831822495362
 20
246.440040006105
 30
0.0
 10
5503.870468610479
 20
246.5879908686271
 30
0.0
 10
5503.887924001234
 20
246.7418234957883
 30
0.0
 10
5503.902671821799
 20
246.906473278662
 30
0.0
 10
5503.93647627568
 20
247.0778350206027
 30
0.0
 10
5503.983742080129
 20
247.2448081095879
 30
0.0
 10
5504.035182075617
 20
247.399957850276
 30
0.0
 10
5504.076703438535
 20
247.5544521410634
 30
0.0
 10
5504.092527005657
 20
247.7195353650361
 30
0.0
 10
5504.104427941904
 20
247.8790694113663
 30
0.0
 10
5504.132922356172
 20
248.0250489081963
 30
0.0
 10
5504.168944650436
 20
248.1470269256811
 30
0.0
 10
5504.210528651923
 20
248.2567669210659
 30
0.0
 10
5504.245047025895
 20
248.3590025888049
 30
0.0
 10
5504.259875793126
 20
248.4388457258383
 30
0.0
 10
5504.261800445504
 20
248.4914643720462
 30
0.0
 10
5504.268187997379
 20
248.5231775801968
 30
0.0
 10
5504.29437548413
 20
248.551989951677
 30
0.0
 10
5504.325512317785
 20
248.5847301151827
 30
0.0
 10
5504.329036601664
 20
248.6311904904101
 30
0.0
 10
5504.321497167672
 20
248.6705188423148
 30
0.0
 10
5504.316987199428
 20
248.7071891321567
 30
0.0
 10
5504.319564179903
 20
248.7408209273358
 30
0.0
 10
5504.33425295645
 20
248.7715417179811
 30
0.0
 10
5504.350986921831
 20
248.8055826034804
 30
0.0
 10
5504.35385628487
 20
248.8471525383978
 30
0.0
 10
5504.351241507289
 20
248.8817723339475
 30
0.0
 10
5504.351818082778
 20
248.9078717361448
 30
0.0
 10
5504.351856216605
 20
248.9289354793123
 30
0.0
 10
5504.348929455479
 20
248.9533774373483
 30
0.0
 10
5504.349359461641
 20
248.9784226870473
 30
0.0
 10
5504.357379728906
 20
248.9977351127081
 30
0.0
 10
5504.36663032293
 20
249.0123365290952
 30
0.0
 10
5504.376914965871
 20
249.0259917585659
 30
0.0
 10
5504.381775197569
 20
249.0375371928202
 30
0.0
 10
5504.381996662601
 20
249.0442966393802
 30
0.0
 10
5504.381758252477
 20
249.0507631772691
 30
0.0
 10
5504.379496187908
 20
249.0590462359474
 30
0.0
 10
5504.379089862858
 20
249.073591527206
 30
0.0
 10
5504.389393696607
 20
249.0742224493922
 30
0.0
 10
5504.39707418282
 20
249.0727340884824
 30
0.0
 10
5504.404744700112
 20
249.0712396205747
 30
0.0
 10
5504.415072046133
 20
249.071878303264
 30
0.0
 10
5504.414508262047
 20
249.0864369143318
 30
0.0
 10
5504.412262911354
 20
249.094710514035
 30
0.0
 10
5504.412191551256
 20
249.101166692744
 30
0.0
 10
5504.412336538097
 20
249.1075758518597
 30
0.0
 10
5504.411678608134
 20
249.1183127703709
 30
0.0
 10
5504.412047692582
 20
249.1284167194432
 30
0.0
 10
5504.41222852335
 20
249.133367090264
 30
0.0
 11
5494.71083963688
 21
215.330090188988
 31
0.0
 11
5494.85679956277
 21
215.8536498497284
 31
0.0
 11
5495.005025272098
 21
216.3765826012785
 31
0.0
 11
5495.072430841111
 21
216.5953333406377
 31
0.0
 11
5495.135275400664
 21
216.8156153622258
 31
0.0
 11
5495.156059950687
 21
216.8958674482168
 31
0.0
 11
5495.180750661069
 21
216.9747787736449
 31
0.0
 11
5495.203598987271
 21
217.0315873030392
 31
0.0
 11
5495.226225921475
 21
217.0884669246551
 31
0.0
 11
5495.250610896969
 21
217.1693858779088
 31
0.0
 11
5495.271701181882
 21
217.2514199411089
 31
0.0
 11
5495.29257624367
 21
217.3220747271581
 31
0.0
 11
5495.317176442287
 21
217.3916353273619
 31
0.0
 11
5495.340533591234
 21
217.4516242107982
 31
0.0
 11
5495.358862097656
 21
217.5129026884423
 31
0.0
 11
5495.367602549721
 21
217.573792519453
 31
0.0
 11
5495.377810122825
 21
217.6341700495232
 31
0.0
 11
5495.398803681035
 21
217.6914350140603
 31
0.0
 11
5495.423285383232
 21
217.7478582005334
 31
0.0
 11
5495.448035787308
 21
217.8267479164457
 31
0.0
 11
5495.46876064364
 21
217.9070216119523
 31
0.0
 11
5495.485500902654
 21
217.9669119317302
 31
0.0
 11
5495.495287878877
 21
218.0282889730335
 31
0.0
 11
5495.493590343388
 21
218.0905097019186
 31
0.0
 11
5495.499077483911
 21
218.1495563341145
 31
0.0
 11
5495.530315648361
 21
218.203725754737
 31
0.0
 11
5495.571079979551
 21
218.2556652750613
 31
0.0
 11
5495.599341564082
 21
218.3071811361883
 31
0.0
 11
5495.620344844992
 21
218.3617742160087
 31
0.0
 11
5495.660672656658
 21
218.4894337904807
 31
0.0
 11
5495.692347340631
 21
218.6194673583035
 31
0.0
 11
5495.715883472904
 21
218.7486564575666
 31
0.0
 11
5495.741612206071
 21
218.8771605005994
 31
0.0
 11
5495.782058238216
 21
219.0130817434833
 31
0.0
 11
5495.832562726877
 21
219.1462224579987
 31
0.0
 11
5495.881762966917
 21
219.2683421963637
 31
0.0
 11
5495.923513247692
 21
219.3925467851911
 31
0.0
 11
5495.939788801625
 21
219.4604298009561
 31
0.0
 11
5495.953830087966
 21
219.52897256641
 31
0.0
 11
5495.968196540574
 21
219.5974028700031
 31
0.0
 11
5495.984146928237
 21
219.6653983476293
 31
0.0
 11
5496.022135908116
 21
219.7992729900032
 31
0.0
 11
5496.064202334575
 21
219.9320918018782
 31
0.0
 11
5496.117417405207
 21
220.1037236113859
 31
0.0
 11
5496.16983757489
 21
220.275524758062
 31
0.0
 11
5496.235432045168
 21
220.484629598263
 31
0.0
 11
5496.303894852959
 21
220.6928550124058
 31
0.0
 11
5496.387649756683
 21
220.9367362669289
 31
0.0
 11
5496.469216372558
 21
221.181240361135
 31
0.0
 11
5496.60491710413
 21
221.6547305347435
 31
0.0
 11
5496.726909514848
 21
222.1324312246175
 31
0.0
 11
5496.850041562058
 21
222.5983589775417
 31
0.0
 11
5496.984602657151
 21
223.0608844578917
 31
0.0
 11
5497.098625020663
 21
223.4189086893598
 31
0.0
 11
5497.211978959179
 21
223.7771198092723
 31
0.0
 11
5497.321801923614
 21
224.1476932686631
 31
0.0
 11
5497.439355261205
 21
224.5160927908611
 31
0.0
 11
5497.500188391898
 21
224.6874676755448
 31
0.0
 11
5497.553043412218
 21
224.8609468489313
 31
0.0
 11
5497.587083043128
 21
225.0220040774489
 31
0.0
 11
5497.621256302826
 21
225.183063276801
 31
0.0
 11
5497.663585615419
 21
225.3228695789612
 31
0.0
 11
5497.715996428668
 21
225.4597044442683
 31
0.0
 11
5497.778564957972
 21
225.6083855450294
 31
0.0
 11
5497.833474184714
 21
225.7590832419367
 31
0.0
 11
5497.870083675181
 21
225.9110818201458
 31
0.0
 11
5497.897897470288
 21
226.0660412496695
 31
0.0
 11
5497.932256417934
 21
226.233842509853
 31
0.0
 11
5497.985058386069
 21
226.3957368876092
 31
0.0
 11
5498.015414172895
 21
226.4633148383296
 31
0.0
 11
5498.041902461578
 21
226.5321626688276
 31
0.0
 11
5498.058160923991
 21
226.6006745706928
 31
0.0
 11
5498.07600890688
 21
226.6685884500386
 31
0.0
 11
5498.103989892313
 21
226.7312771049051
 31
0.0
 11
5498.132852982384
 21
226.7936454161573
 31
0.0
 11
5498.15343363336
 21
226.8663680328158
 31
0.0
 11
5498.166959427685
 21
226.941440012478
 31
0.0
 11
5498.181782156897
 21
227.0179233472368
 31
0.0
 11
5498.201065872994
 21
227.0930242138232
 31
0.0
 11
5498.227414183603
 21
227.1694849585104
 31
0.0
 11
5498.257909948498
 21
227.2446084151749
 31
0.0
 11
5498.303303480836
 21
227.3518712109615
 31
0.0
 11
5498.34507086427
 21
227.4606159021018
 31
0.0
 11
5498.380839803562
 21
227.5795893008251
 31
0.0
 11
5498.409494149849
 21
227.69936101923
 31
0.0
 11
5498.420867216619
 21
227.7583648332318
 31
0.0
 11
5498.424652569987
 21
227.8206283803071
 31
0.0
 11
5498.421783544588
 21
227.8648659625561
 31
0.0
 11
5498.423273109253
 21
227.9070545553519
 31
0.0
 11
5498.439810990118
 21
227.941895741392
 31
0.0
 11
5498.44167541218
 21
227.9438062636274
 31
0.0
 11
5498.443600595151
 21
227.9456853464254
 31
0.0
 11
5498.457219049951
 21
227.9587246668758
 31
0.0
 11
5498.470127830388
 21
227.9722125816596
 31
0.0
 11
5498.508030655572
 21
228.040086492326
 31
0.0
 11
5498.534551115963
 21
228.1162175729457
 31
0.0
 11
5498.578406538853
 21
228.2118248726414
 31
0.0
 11
5498.621712031736
 21
228.3056978246342
 31
0.0
 11
5498.648527639773
 21
228.4002877874385
 31
0.0
 11
5498.665725180389
 21
228.4986452690547
 31
0.0
 11
5498.682345712277
 21
228.5974974122342
 31
0.0
 11
5498.709718772452
 21
228.7102069135864
 31
0.0
 11
5498.742979392817
 21
228.821084109225
 31
0.0
 11
5498.772809786331
 21
228.9157624934984
 31
0.0
 11
5498.804735919299
 21
229.0097222264635
 31
0.0
 11
5498.837224021286
 21
229.0945784733737
 31
0.0
 11
5498.873229521391
 21
229.1781491168545
 31
0.0
 11
5498.91673991687
 21
229.2716675719339
 31
0.0
 11
5498.955197274714
 21
229.3667872340928
 31
0.0
 11
5498.991564952717
 21
229.5118442376993
 31
0.0
 11
5499.023410165317
 21
229.6585868216913
 31
0.0
 11
5499.07687994941
 21
229.8168699173733
 31
0.0
 11
5499.13709831633
 21
229.9731240394965
 31
0.0
 11
5499.195103034287
 21
230.1578325455101
 31
0.0
 11
5499.246996862315
 21
230.3445053328062
 31
0.0
 11
5499.310952971742
 21
230.5536787549961
 31
0.0
 11
5499.379633038491
 21
230.7613618865183
 31
0.0
 11
5499.429312114083
 21
230.9095026614745
 31
0.0
 11
5499.478443480853
 21
231.0577932136068
 31
0.0
 11
5499.530215873392
 21
231.2163965183031
 31
0.0
 11
5499.583990998835
 21
231.3744357675392
 31
0.0
 11
5499.636812326186
 21
231.5216870685526
 31
0.0
 11
5499.682801441201
 21
231.6708670946287
 31
0.0
 11
5499.697727704163
 21
231.733229812676
 31
0.0
 11
5499.713118281464
 21
231.7955029935145
 31
0.0
 11
5499.726199089423
 21
231.838298424023
 31
0.0
 11
5499.743435121733
 21
231.8797164387082
 31
0.0
 11
5499.760111858888
 21
231.9113655171415
 31
0.0
 11
5499.773751962006
 21
231.9437186570581
 31
0.0
 11
5499.779852416938
 21
231.980731893237
 31
0.0
 11
5499.782734729497
 21
232.0189493347689
 31
0.0
 11
5499.790526547964
 21
232.0610355943715
 31
0.0
 11
5499.805191648215
 21
232.100917088092
 31
0.0
 11
5499.819873945066
 21
232.1284363210901
 31
0.0
 11
5499.834385642546
 21
232.155936538951
 31
0.0
 11
5499.852136394123
 21
232.207929334922
 31
0.0
 11
5499.864702482821
 21
232.262045479894
 31
0.0
 11
5499.878840004585
 21
232.3154848162266
 31
0.0
 11
5499.89501932309
 21
232.3681544208354
 31
0.0
 11
5499.909954232028
 21
232.4136815413101
 31
0.0
 11
5499.925336163358
 21
232.4591049416484
 31
0.0
 11
5499.940810125627
 21
232.5044947524808
 31
0.0
 11
5499.955653003626
 21
232.5500554624614
 31
0.0
 11
5499.970746948798
 21
232.5980298177738
 31
0.0
 11
5499.989759448929
 21
232.6447955883049
 31
0.0
 11
5500.022999200901
 21
232.7026104672799
 31
0.0
 11
5500.046603524442
 21
232.7622733443561
 31
0.0
 11
5500.048295114807
 21
232.7921977457821
 31
0.0
 11
5500.046603524439
 21
232.8229070248925
 31
0.0
 11
5500.045318714534
 21
232.8534822525045
 31
0.0
 11
5500.046603524438
 21
232.8835407054361
 31
0.0
 11
5500.06013998706
 21
232.9414124848409
 31
0.0
 11
5500.082965019854
 21
232.9977556811403
 31
0.0
 11
5500.10723720498
 21
233.0540729319567
 31
0.0
 11
5500.138491512395
 21
233.1507929234721
 31
0.0
 11
5500.167870885522
 21
233.2473427886789
 31
0.0
 11
5500.196895374739
 21
233.3193742447306
 31
0.0
 11
5500.227381720126
 21
233.3910670684768
 31
0.0
 11
5500.255522453966
 21
233.4690776524009
 31
0.0
 11
5500.280155479114
 21
233.5482654995043
 31
0.0
 11
5500.298896545276
 21
233.610280216845
 31
0.0
 11
5500.319455086873
 21
233.6717785524565
 31
0.0
 11
5500.356914094658
 21
233.7676481774013
 31
0.0
 11
5500.387667977479
 21
233.8650484091787
 31
0.0
 11
5500.400026681269
 21
233.9500864892009
 31
0.0
 11
5500.410405607679
 21
234.0355806356991
 31
0.0
 11
5500.444283513268
 21
234.1605207504123
 31
0.0
 11
5500.49320835975
 21
234.2818307865506
 31
0.0
 11
5500.543041783864
 21
234.4031723239749
 31
0.0
 11
5500.601968910231
 21
234.5972933925022
 31
0.0
 11
5500.652940329844
 21
234.7935016424523
 31
0.0
 11
5500.730902659078
 21
235.0332727143707
 31
0.0
 11
5500.815893346297
 21
235.2709918767115
 31
0.0
 11
5500.886921695932
 21
235.4866712558687
 31
0.0
 11
5500.956108732543
 21
235.7030068505625
 31
0.0
 11
5501.032479556183
 21
235.9348843265548
 31
0.0
 11
5501.100113723827
 21
236.1691282697142
 31
0.0
 11
5501.148102900109
 21
236.3912153501002
 31
0.0
 11
5501.198643454707
 21
236.6125120586647
 31
0.0
 11
5501.263748452106
 21
236.8181649033624
 31
0.0
 11
5501.334507812956
 21
237.0223508252831
 31
0.0
 11
5501.396653836688
 21
237.2236238900348
 31
0.0
 11
5501.45689801997
 21
237.4254525162845
 31
0.0
 11
5501.526044075244
 21
237.6401476213451
 31
0.0
 11
5501.592762378218
 21
237.8555025097492
 31
0.0
 11
5501.650730239872
 21
238.0764729237256
 31
0.0
 11
5501.707292663689
 21
238.2979038085037
 31
0.0
 11
5501.775225729895
 21
238.5324547372367
 31
0.0
 11
5501.842034176
 21
238.767253409723
 31
0.0
 11
5501.899677894322
 21
239.008575244465
 31
0.0
 11
5501.956564461466
 21
239.2500771621735
 31
0.0
 11
5502.058677930336
 21
239.6035581445894
 31
0.0
 11
5502.168782343354
 21
239.9549436984578
 31
0.0
 11
5502.276355286135
 21
240.3297104095039
 31
0.0
 11
5502.381000225243
 21
240.7052854951432
 31
0.0
 11
5502.441921214443
 21
240.9146195631065
 31
0.0
 11
5502.502267586327
 21
241.1241070292448
 31
0.0
 11
5502.563046892174
 21
241.3469362157312
 31
0.0
 11
5502.623534947407
 21
241.5698768658114
 31
0.0
 11
5502.685372773622
 21
241.7891053217792
 31
0.0
 11
5502.744802308484
 21
242.0089096267642
 31
0.0
 11
5502.817487891895
 21
242.3227824926893
 31
0.0
 11
5502.885017694735
 21
242.637984062371
 31
0.0
 11
5502.963269914133
 21
242.9760621186865
 31
0.0
 11
5503.04797071119
 21
243.3125337583848
 31
0.0
 11
5503.137395690002
 21
243.6482903448561
 31
0.0
 11
5503.229871752815
 21
243.9832938493594
 31
0.0
 11
5503.325379772785
 21
244.3289370282614
 31
0.0
 11
5503.411772794436
 21
244.6767915705426
 31
0.0
 11
5503.453840468502
 21
244.8689436992073
 31
0.0
 11
5503.502723315245
 21
245.0595416789519
 31
0.0
 11
5503.552795954748
 21
245.2159435545613
 31
0.0
 11
5503.593673836052
 21
245.374078896758
 31
0.0
 11
5503.611939565696
 21
245.5371933588966
 31
0.0
 11
5503.63156988639
 21
245.6999849296614
 31
0.0
 11
5503.669965439364
 21
245.8408029679426
 31
0.0
 11
5503.71494119713
 21
245.9804157021628
 31
0.0
 11
5503.754160084047
 21
246.1373277687858
 31
0.0
 11
5503.790733297809
 21
246.2949529199622
 31
0.0
 11
5503.831082961598
 21
246.4404546952858
 31
0.0
 11
5503.866525398482
 21
246.5867525075672
 31
0.0
 11
5503.887292194208
 21
246.7417158959553
 31
0.0
 11
5503.904421448824
 21
246.8975001203326
 31
0.0
 11
5503.938833522312
 21
247.0770426707645
 31
0.0
 11
5503.987792759564
 21
247.2537229935066
 31
0.0
 11
5504.033885305269
 21
247.400773165351
 31
0.0
 11
5504.071164070305
 21
247.5493121861415
 31
0.0
 11
5504.091900207291
 21
247.7192963605201
 31
0.0
 11
5504.109060120642
 21
247.8903766391784
 31
0.0
 11
5504.13500112846
 21
248.0244880786956
 31
0.0
 11
5504.173483406221
 21
248.155648991546
 31
0.0
 11
5504.209937203688
 21
248.2570629776059
 31
0.0
 11
5504.24253290703
 21
248.3595243746873
 31
0.0
 11
5504.260644321999
 21
248.4663966043141
 31
0.0
 11
5504.262527897746
 21
248.4918057015909
 31
0.0
 11
5504.268223532066
 21
248.5156614697547
 31
0.0
 11
5504.294621331421
 21
248.5520002067068
 31
0.0
 11
5504.321278002537
 21
248.5876639653954
 31
0.0
 11
5504.32714606087
 21
248.6293523318475
 31
0.0
 11
5504.321278002537
 21
248.6748248811735
 31
0.0
 11
5504.318055815094
 21
248.7078164450006
 31
0.0
 11
5504.321278002538
 21
248.7392481667443
 31
0.0
 11
5504.334264967799
 21
248.7714204414499
 31
0.0
 11
5504.347805237775
 21
248.8036714523224
 31
0.0
 11
5504.352797252298
 21
248.8466842397365
 31
0.0
 11
5504.351594842804
 21
248.8908323681023
 31
0.0
 11
5504.351760180482
 21
248.9078549688115
 31
0.0
 11
5504.351594842804
 21
248.9249388134034
 31
0.0
 11
5504.349559407145
 21
248.9538483719611
 31
0.0
 11
5504.351594842806
 21
248.9817828889059
 31
0.0
 11
5504.3576877032
 21
248.9972688078489
 31
0.0
 11
5504.366753262944
 21
249.0120997291782
 31
0.0
 11
5504.376561935401
 21
249.0268163273504
 31
0.0
 11
5504.381911683076
 21
249.042416569451
 31
0.0
 11
5504.381974642217
 21
249.0442727647972
 31
0.0
 11
5504.381911683077
 21
249.0462061744845
 31
0.0
 11
5504.3797659703
 21
249.0615527553652
 31
0.0
 11
5504.381911683078
 21
249.0727334097185
 31
0.0
 11
5504.388299011578
 21
249.0739328619996
 31
0.0
 11
5504.39707010321
 21
249.0727334097186
 31
0.0
 11
5504.405849391143
 21
249.0715311914549
 31
0.0
 11
5504.412228523347
 21
249.0727334097184
 31
0.0
 11
5504.414281003227
 21
249.0839455271205
 31
0.0
 11
5504.41222852335
 21
249.0992606449529
 31
0.0
 11
5504.41220230119
 21
249.1011816571123
 31
0.0
 11
5504.412228523348
 21
249.1030502499863
 31
0.0
 11
5504.411923392773
 21
249.1185136550586
 31
0.0
 11
5504.41222852335
 21
249.133367090264
 31
0.0
  0
SPLINE
  5
A8
330
1F
100
AcDbEntity
  8
$DDT_AUDIT_GENERATED__E2_
  6
Continuous
 62
     5
100
AcDbSpline
210
0.0
220
0.0
230
1.0
 70
     8
 71
     3
 72
   278
 73
   274
 74
   272
 42
0.0000000001
 43
0.0000000001
 44
0.00000001
 40
0.0
 40
0.0
 40
0.0
 40
0.0
 40
0.0151170053860589
 40
0.0303189848299561
 40
0.045396737681732
 40
0.0606444025974528
 40
0.0762697228479955
 40
0.0911345702554734
 40
0.0953369232739043
 40
0.0996145572948036
 40
0.1293165384747668
 40
0.1589349567377397
 40
0.1923285713786932
 40
0.2252142831005004
 40
0.2553023388304327
 40
0.2861252661874628
 40
0.3170911495600196
 40
0.3471308102753542
 40
0.3806075666703855
 40
0.4133782825929066
 40
0.4246440236831706
 40
0.4361438015965889
 40
0.4704743540787623
 40
0.5044028037651569
 40
0.575824188154029
 40
0.6479570001729913
 40
0.7309207239256421
 40
0.8137270895006744
 40
0.9539193195191878
 40
1.094227870426771
 40
1.237738802993272
 40
1.380695725716459
 40
1.533658453636924
 40
1.68739785945971
 40
1.840818568162917
 40
1.993991608842288
 40
2.094159546080378
 40
2.194390987629085
 40
2.2994469916577
 40
2.404415096751296
 40
2.497432351110069
 40
2.590476110190317
 40
2.738937934371254
 40
2.887487233768143
 40
3.033591658916183
 40
3.179683552031467
 40
3.30531544056816
 40
3.430912869216926
 40
3.570142960058296
 40
3.70946755328035
 40
3.880130151552569
 40
4.050548627872795
 40
4.224570105246496
 40
4.398751402593433
 40
4.598662532031238
 40
4.798641225954476
 40
5.111168769231215
 40
5.423639038601839
 40
5.736134825330315
 40
6.048638037145807
 40
6.368541517973202
 40
6.688466104579652
 40
6.997462305030606
 40
7.306369410313634
 40
7.672632828710293
 40
8.038941291264997
 40
8.408026173021836
 40
8.777143864462841
 40
9.152092567060176
 40
9.527168578514818
 40
9.902390104345951
 40
10.27724755493229
 40
10.52379799804654
 40
10.77047768942964
 40
11.02031153960295
 40
11.27011492507636
 40
11.50717198537048
 40
11.74414778323281
 40
12.02856409037354
 40
12.3132529839707
 40
12.5620744565634
 40
12.81058442658439
 40
13.08268415600576
 40
13.35465700916725
 40
13.62015177600166
 40
13.88592173616244
 40
14.1645636788797
 40
14.44335788820276
 40
14.72577432178091
 40
15.00802877737965
 40
15.13817615430811
 40
15.26836007102275
 40
15.3737178527894
 40
15.47886746661628
 40
15.56777612705601
 40
15.65685731773447
 40
15.74270160334853
 40
15.82849564878559
 40
15.9270534421682
 40
16.02559899212974
 40
16.10225626071535
 40
16.17893764162416
 40
16.27692369906169
 40
16.37482100250721
 40
16.48319620824274
 40
16.59198358687872
 40
16.64080141933189
 40
16.68929651030411
 40
16.74347966399729
 40
16.79662504047885
 40
16.83492872113938
 40
16.87400904746629
 40
16.91271678832954
 40
16.95130262462344
 40
17.01705822771467
 40
17.08166240779968
 40
17.12792746948256
 40
17.17491063120509
 40
17.22974433220262
 40
17.28490541562315
 40
17.3394626337829
 40
17.39131849072712
 40
17.44221953492849
 40
17.4956296514001
 40
17.53227938111574
 40
17.56861122692362
 40
17.60938286133044
 40
17.65024345812594
 40
17.69109387334666
 40
17.73187581416273
 40
17.88526768028407
 40
18.03901391862223
 40
18.22165193651812
 40
18.40362141806767
 40
18.54159533962439
 40
18.68000273833129
 40
18.81612934451308
 40
18.95263551145427
 40
19.07774538212496
 40
19.20230837386701
 40
19.33140380626064
 40
19.46083300097495
 40
19.58140511313327
 40
19.70193261932206
 40
19.83117327112074
 40
19.96044447990658
 40
20.10601773549947
 40
20.25165708554685
 40
20.40813534622938
 40
20.56454953871749
 40
20.699419992461
 40
20.83425191088742
 40
21.0015560723551
 40
21.16897439620324
 40
21.28717829418149
 40
21.40549049839295
 40
21.52073176040427
 40
21.63565372236877
 40
21.71931188391816
 40
21.80303102372105
 40
21.83976921593318
 40
21.87661271691377
 40
21.90249168920732
 40
21.92825641198448
 40
21.95662589135004
 40
21.9842617888365
 40
22.02018343240692
 40
22.05638974382068
 40
22.11094956312871
 40
22.16915558419421
 40
22.24325847709646
 40
22.31714921689709
 40
22.39129422858962
 40
22.46492584004429
 40
22.54925731514694
 40
22.63459964813019
 40
22.71948413256481
 40
22.80411712217204
 40
22.86897380149346
 40
22.93378897014824
 40
23.01295179114535
 40
23.09213916675276
 40
23.1622500177655
 40
23.23236068354602
 40
23.29195200123254
 40
23.35130994665673
 40
23.42196347609244
 40
23.49299695767476
 40
23.5646600825605
 40
23.63630347550995
 40
23.72925319172561
 40
23.82216430334793
 40
23.95289591897263
 40
24.08345965838536
 40
24.22168178686314
 40
24.36014109033569
 40
24.48536667894178
 40
24.61069270066672
 40
24.72519600913026
 40
24.83961500622955
 40
25.08655803884804
 40
25.33363753334115
 40
25.59492984932533
 40
25.85613614377452
 40
26.10680386914716
 40
26.35761709450025
 40
26.63702179101287
 40
26.91641910146792
 40
27.22131048126558
 40
27.52613918631724
 40
27.8220453319669
 40
28.11799126571691
 40
28.43871340339847
 40
28.75945347763138
 40
29.08480392738343
 40
29.41014908673841
 40
29.71987732484723
 40
30.0296047626202
 40
30.14727616595187
 40
30.26492685031632
 40
30.38255354156556
 40
30.50025492562038
 40
30.60611950695567
 40
30.71170826516489
 40
30.84615989059262
 40
30.98052996208326
 40
31.14989182167512
 40
31.31972422647191
 40
31.48147632806142
 40
31.64329056078481
 40
31.75000204972451
 40
31.85676344961575
 40
31.94241271363684
 40
32.02717689106103
 40
32.09362401346792
 40
32.16077499403063
 40
32.21640428663582
 40
32.27177992740373
 40
32.35689919080918
 40
32.44255192097767
 40
32.50756968577636
 40
32.57150069796734
 40
32.64465156053364
 40
32.71871099347094
 40
32.77027760143198
 40
32.82180293116879
 40
32.88804520516159
 40
32.95416881802834
 40
32.9983995757138
 40
33.04290106358849
 40
33.09058595307279
 40
33.13781889454689
 40
33.18338745573788
 40
33.22885107624453
 40
33.3055290680995
 40
33.38405474756801
 40
33.46344656029074
 40
33.59653982272464
 40
33.72883379729032
 40
33.89648688395803
 40
34.0643862423014
 40
34.26197840111912
 40
34.45956712057944
 40
34.67696338943801
 40
34.89436006849572
 40
35.13608623516569
 40
35.37781190041475
 40
35.64838490623474
 40
35.91895832655516
 40
36.22289777486445
 40
36.52683699493188
 40
37.25290041676836
 40
37.97896388008247
 40
37.97896388008247
 40
37.97896388008247
 40
37.97896388008247
 10
5456.02655145211
 20
249.133367090264
 30
0.0
 10
5456.026658364774
 20
249.1283288713109
 30
0.0
 10
5456.026872791068
 20
249.1182241131191
 30
0.0
 10
5456.026348018095
 20
249.1030865494536
 30
0.0
 10
5456.027043824251
 20
249.0879359826525
 30
0.0
 10
5456.026954346456
 20
249.0725482059383
 30
0.0
 10
5456.02441379012
 20
249.0575884676828
 30
0.0
 10
5456.024900747053
 20
249.0456038308001
 30
0.0
 10
5456.028252200802
 20
249.0385387160956
 30
0.0
 10
5456.034528524564
 20
249.0274750679526
 30
0.0
 10
5456.044010512955
 20
249.0084923801422
 30
0.0
 10
5456.057188945113
 20
248.9805288214796
 30
0.0
 10
5456.072307472699
 20
248.9524001035477
 30
0.0
 10
5456.084555271183
 20
248.9224109418238
 30
0.0
 10
5456.088200080101
 20
248.8910855991315
 30
0.0
 10
5456.087383989824
 20
248.8604396709552
 30
0.0
 10
5456.085373117101
 20
248.8299781435168
 30
0.0
 10
5456.08921728771
 20
248.7979773411691
 30
0.0
 10
5456.105993643156
 20
248.7703830764243
 30
0.0
 10
5456.117692907318
 20
248.7465556597886
 30
0.0
 10
5456.118248715308
 20
248.7278968776386
 30
0.0
 10
5456.116964635808
 20
248.7089291571003
 30
0.0
 10
5456.115830871212
 20
248.6823452112106
 30
0.0
 10
5456.117263667153
 20
248.6357221143061
 30
0.0
 10
5456.129201822131
 20
248.5774717900576
 30
0.0
 10
5456.149726067189
 20
248.5048494934427
 30
0.0
 10
5456.164715951672
 20
248.426877632053
 30
0.0
 10
5456.180747734653
 20
248.3261796241188
 30
0.0
 10
5456.204449195966
 20
248.2073508446446
 30
0.0
 10
5456.241044794404
 20
248.0706552443496
 30
0.0
 10
5456.288895855127
 20
247.9366987079015
 30
0.0
 10
5456.334086488228
 20
247.7970798836844
 30
0.0
 10
5456.358597643226
 20
247.6487883521342
 30
0.0
 10
5456.374389475093
 20
247.4962856385167
 30
0.0
 10
5456.394942655241
 20
247.344178077103
 30
0.0
 10
5456.417080669869
 20
247.2103960833766
 30
0.0
 10
5456.439015068204
 20
247.094590201323
 30
0.0
 10
5456.459950916959
 20
246.99494060336
 30
0.0
 10
5456.483433047826
 20
246.894211545717
 30
0.0
 10
5456.510605553363
 20
246.7968543619398
 30
0.0
 10
5456.54227870616
 20
246.7051406596699
 30
0.0
 10
5456.579074953987
 20
246.5998688435508
 30
0.0
 10
5456.614094977856
 20
246.47451933688
 30
0.0
 10
5456.64514385768
 20
246.3300527458099
 30
0.0
 10
5456.669799606056
 20
246.1852036039322
 30
0.0
 10
5456.691867160174
 20
246.0476874912428
 30
0.0
 10
5456.715756122619
 20
245.917404821087
 30
0.0
 10
5456.742962838033
 20
245.7900988840162
 30
0.0
 10
5456.776374324622
 20
245.6595590696969
 30
0.0
 10
5456.817391336255
 20
245.5155364052761
 30
0.0
 10
5456.863245881201
 20
245.3621242246584
 30
0.0
 10
5456.9071187185
 20
245.1959877151622
 30
0.0
 10
5456.937791107202
 20
245.0257605226952
 30
0.0
 10
5456.967456389606
 20
244.8454752225601
 30
0.0
 10
5457.008666635049
 20
244.6585134876196
 30
0.0
 10
5457.066450520504
 20
244.4281870077482
 30
0.0
 10
5457.133388270735
 20
244.1614627733562
 30
0.0
 10
5457.209050994994
 20
243.8582636160214
 30
0.0
 10
5457.283867390992
 20
243.5548623933896
 30
0.0
 10
5457.360536792932
 20
243.2493651798744
 30
0.0
 10
5457.441238381296
 20
242.942343788637
 30
0.0
 10
5457.525536764078
 20
242.6374948926448
 30
0.0
 10
5457.613049639785
 20
242.3373935708286
 30
0.0
 10
5457.701018699751
 20
242.0212921638344
 30
0.0
 10
5457.780004270039
 20
241.6831882894011
 30
0.0
 10
5457.862402873507
 20
241.3253033486523
 30
0.0
 10
5457.959026549609
 20
240.9699744021705
 30
0.0
 10
5458.059582603661
 20
240.6128148431736
 30
0.0
 10
5458.15288055824
 20
240.251589146872
 30
0.0
 10
5458.240448154625
 20
239.8868526462106
 30
0.0
 10
5458.323471831845
 20
239.5211315613135
 30
0.0
 10
5458.406593228989
 20
239.1992881831184
 30
0.0
 10
5458.495453158643
 20
238.9238415180804
 30
0.0
 10
5458.574379863928
 20
238.6890663499453
 30
0.0
 10
5458.648300558074
 20
238.4515224841211
 30
0.0
 10
5458.722244711887
 20
238.2173317912369
 30
0.0
 10
5458.801822753925
 20
237.9895471470696
 30
0.0
 10
5458.883178295421
 20
237.7501337570944
 30
0.0
 10
5458.956507730021
 20
237.4915167998003
 30
0.0
 10
5459.021852488921
 20
237.2267993611149
 30
0.0
 10
5459.08129698547
 20
236.9730242815451
 30
0.0
 10
5459.148160518858
 20
236.7251924032474
 30
0.0
 10
5459.237584163126
 20
236.4765102049771
 30
0.0
 10
5459.327129473218
 20
236.2217266307061
 30
0.0
 10
5459.390655318703
 20
235.9613785114667
 30
0.0
 10
5459.450483028259
 20
235.6981159555209
 30
0.0
 10
5459.529199894019
 20
235.4350150691001
 30
0.0
 10
5459.622136998149
 20
235.1708908965234
 30
0.0
 10
5459.722480305664
 20
234.9082621718864
 30
0.0
 10
5459.801538096562
 20
234.6904908221689
 30
0.0
 10
5459.855722915404
 20
234.5179055759498
 30
0.0
 10
5459.887243006688
 20
234.400078555472
 30
0.0
 10
5459.910813447459
 20
234.2889994393342
 30
0.0
 10
5459.934375664185
 20
234.1919089001162
 30
0.0
 10
5459.965453709508
 20
234.1026920615616
 30
0.0
 10
5459.99775222585
 20
234.0209020298822
 30
0.0
 10
5460.029146691094
 20
233.9398604237362
 30
0.0
 10
5460.06047129258
 20
233.8554131875715
 30
0.0
 10
5460.091140319239
 20
233.7662271600555
 30
0.0
 10
5460.117864018511
 20
233.6789459155242
 30
0.0
 10
5460.139381166646
 20
233.5977810941996
 30
0.0
 10
5460.160180992067
 20
233.5166292675316
 30
0.0
 10
5460.184412187469
 20
233.4290597228353
 30
0.0
 10
5460.212398321868
 20
233.3315767646819
 30
0.0
 10
5460.241131866388
 20
233.2305716687098
 30
0.0
 10
5460.265426343472
 20
233.1452803160421
 30
0.0
 10
5460.284265592938
 20
233.079260339346
 30
0.0
 10
5460.304125410358
 20
233.0323387362383
 30
0.0
 10
5460.335681147595
 20
232.9910464174992
 30
0.0
 10
5460.362650624228
 20
232.9498107247514
 30
0.0
 10
5460.371864231893
 20
232.9067912692414
 30
0.0
 10
5460.376334532228
 20
232.8684079962358
 30
0.0
 10
5460.384781917168
 20
232.8305092009119
 30
0.0
 10
5460.39482866815
 20
232.7838062410847
 30
0.0
 10
5460.397885232384
 20
232.7276245081293
 30
0.0
 10
5460.406287424132
 20
232.6685480648505
 30
0.0
 10
5460.430420970115
 20
232.6213253587369
 30
0.0
 10
5460.455206435016
 20
232.5786873993657
 30
0.0
 10
5460.473644353914
 20
232.5293207077846
 30
0.0
 10
5460.481448911371
 20
232.4743716746752
 30
0.0
 10
5460.476643083847
 20
232.4209608335069
 30
0.0
 10
5460.478577670097
 20
232.3670556432496
 30
0.0
 10
5460.507576802206
 20
232.322053134969
 30
0.0
 10
5460.53781694811
 20
232.2863804383007
 30
0.0
 10
5460.559179670366
 20
232.249824221043
 30
0.0
 10
5460.574946025456
 20
232.2153329984599
 30
0.0
 10
5460.589551539586
 20
232.1788141289659
 30
0.0
 10
5460.604230080396
 20
232.1407153968252
 30
0.0
 10
5460.619887219664
 20
232.1030084571789
 30
0.0
 10
5460.648993825784
 20
232.0302310201569
 30
0.0
 10
5460.678415144701
 20
231.9177941358464
 30
0.0
 10
5460.716575239308
 20
231.7587721689554
 30
0.0
 10
5460.784685172232
 20
231.5996478661673
 30
0.0
 10
5460.847901951187
 20
231.4438664896782
 30
0.0
 10
5460.876738522411
 20
231.2933931021117
 30
0.0
 10
5460.900014250843
 20
231.1578357857997
 30
0.0
 10
5460.940457328527
 20
231.0265321248684
 30
0.0
 10
5460.990476483633
 20
230.9036627074006
 30
0.0
 10
5461.044405667652
 20
230.7868193311204
 30
0.0
 10
5461.092574334508
 20
230.6698567368491
 30
0.0
 10
5461.12542134137
 20
230.5462684206831
 30
0.0
 10
5461.155371226183
 20
230.4234693864824
 30
0.0
 10
5461.195075480175
 20
230.3064274041783
 30
0.0
 10
5461.23551858104
 20
230.1897603271322
 30
0.0
 10
5461.267924680339
 20
230.0675752241158
 30
0.0
 10
5461.301694846764
 20
229.9371513604241
 30
0.0
 10
5461.346166110078
 20
229.8041603000613
 30
0.0
 10
5461.395017011357
 20
229.6631328065919
 30
0.0
 10
5461.437199672802
 20
229.5162009640957
 30
0.0
 10
5461.47970943033
 20
229.3730557687335
 30
0.0
 10
5461.529437925779
 20
229.23996995058
 30
0.0
 10
5461.579833663392
 20
229.1032330378914
 30
0.0
 10
5461.621842295528
 20
228.9523343119952
 30
0.0
 10
5461.659843367594
 20
228.8062231815852
 30
0.0
 10
5461.699954464753
 20
228.6776467613699
 30
0.0
 10
5461.738717982168
 20
228.5669586426386
 30
0.0
 10
5461.780231515886
 20
228.4584997169981
 30
0.0
 10
5461.812819852479
 20
228.358900443672
 30
0.0
 10
5461.832087824397
 20
228.2667073732719
 30
0.0
 10
5461.844125012723
 20
228.1997500915674
 30
0.0
 10
5461.854723916776
 20
228.1483979606485
 30
0.0
 10
5461.861755999395
 20
228.1159904614834
 30
0.0
 10
5461.868061253243
 20
228.0871997861021
 30
0.0
 10
5461.877086002934
 20
228.0618268953955
 30
0.0
 10
5461.892373164928
 20
228.0392991398775
 30
0.0
 10
5461.907617791324
 20
228.0119593839232
 30
0.0
 10
5461.907434151133
 20
227.9779270280295
 30
0.0
 10
5461.904684959669
 20
227.935175647165
 30
0.0
 10
5461.931728402384
 20
227.8903362454744
 30
0.0
 10
5461.974428043363
 20
227.845461738639
 30
0.0
 10
5462.004284253546
 20
227.7822352644259
 30
0.0
 10
5462.027607280866
 20
227.7120881058482
 30
0.0
 10
5462.061129655753
 20
227.6460971869455
 30
0.0
 10
5462.093967047873
 20
227.5757335580802
 30
0.0
 10
5462.110426843356
 20
227.4957119461697
 30
0.0
 10
5462.119480531037
 20
227.4114296038524
 30
0.0
 10
5462.132950054282
 20
227.3274824032065
 30
0.0
 10
5462.148732483567
 20
227.2509567566138
 30
0.0
 10
5462.165350566039
 20
227.1814707277763
 30
0.0
 10
5462.185193021134
 20
227.1146683604335
 30
0.0
 10
5462.212744157983
 20
227.0455269631886
 30
0.0
 10
5462.2414309126
 20
226.9749403090272
 30
0.0
 10
5462.263407622268
 20
226.905169964424
 30
0.0
 10
5462.284638841451
 20
226.8419510395674
 30
0.0
 10
5462.310825496664
 20
226.7846178593171
 30
0.0
 10
5462.335402347675
 20
226.7262338699471
 30
0.0
 10
5462.350453626857
 20
226.6606917064328
 30
0.0
 10
5462.36292199543
 20
226.5906967996299
 30
0.0
 10
5462.381562693138
 20
226.5216422720889
 30
0.0
 10
5462.404436370214
 20
226.4462951999472
 30
0.0
 10
5462.426866261352
 20
226.363443368085
 30
0.0
 10
5462.456220978588
 20
226.2620109430882
 30
0.0
 10
5462.498307312135
 20
226.1516598001554
 30
0.0
 10
5462.544295804764
 20
226.0265066726161
 30
0.0
 10
5462.574916973978
 20
225.8940491371649
 30
0.0
 10
5462.602434228327
 20
225.7629256189937
 30
0.0
 10
5462.639585103942
 20
225.6385519289266
 30
0.0
 10
5462.679680007895
 20
225.5236623649023
 30
0.0
 10
5462.719827756647
 20
225.4126166751635
 30
0.0
 10
5462.772045672052
 20
225.2628084457212
 30
0.0
 10
5462.828508466447
 20
225.0679383941962
 30
0.0
 10
5462.896268130922
 20
224.8254160955895
 30
0.0
 10
5462.978844084382
 20
224.5824818557558
 30
0.0
 10
5463.061426784101
 20
224.3382907691605
 30
0.0
 10
5463.128619573919
 20
224.0930000213353
 30
0.0
 10
5463.192901682853
 20
223.8407800542817
 30
0.0
 10
5463.265576490042
 20
223.5808520249129
 30
0.0
 10
5463.345645390025
 20
223.3043154376874
 30
0.0
 10
5463.426298456478
 20
223.0191317839129
 30
0.0
 10
5463.5123490965
 20
222.7297389737319
 30
0.0
 10
5463.606906820093
 20
222.4461695629695
 30
0.0
 10
5463.704650556966
 20
222.1581071382031
 30
0.0
 10
5463.79831219784
 20
221.8599767397627
 30
0.0
 10
5463.890631697601
 20
221.5512114752484
 30
0.0
 10
5463.982114101995
 20
221.2405902447897
 30
0.0
 10
5464.071864198927
 20
220.9332866130272
 30
0.0
 10
5464.160043614307
 20
220.6309506845774
 30
0.0
 10
5464.226245707702
 20
220.394312447512
 30
0.0
 10
5464.272576269554
 20
220.2186363411736
 30
0.0
 10
5464.302813383547
 20
220.1049349003493
 30
0.0
 10
5464.334453470179
 20
219.9916159540555
 30
0.0
 10
5464.363462989158
 20
219.881611051332
 30
0.0
 10
5464.387269273045
 20
219.7745392581149
 30
0.0
 10
5464.417183989916
 20
219.6629468356645
 30
0.0
 10
5464.46608234649
 20
219.5479564024882
 30
0.0
 10
5464.523217184915
 20
219.4132215622983
 30
0.0
 10
5464.557976054395
 20
219.2587060892004
 30
0.0
 10
5464.590302129835
 20
219.0947429880355
 30
0.0
 10
5464.644971069608
 20
218.9393180316642
 30
0.0
 10
5464.69399542385
 20
218.8044188602041
 30
0.0
 10
5464.724800715206
 20
218.6831683063099
 30
0.0
 10
5464.753223727682
 20
218.5873122871007
 30
0.0
 10
5464.791593909905
 20
218.5032834277325
 30
0.0
 10
5464.819837050127
 20
218.4290368163838
 30
0.0
 10
5464.829394666304
 20
218.3565113814645
 30
0.0
 10
5464.83286186432
 20
218.2935814525604
 30
0.0
 10
5464.83865146988
 20
218.2344399544631
 30
0.0
 10
5464.84949967585
 20
218.1698942986557
 30
0.0
 10
5464.871307873113
 20
218.0974371262799
 30
0.0
 10
5464.90474790044
 20
218.0259312648225
 30
0.0
 10
5464.942725172026
 20
217.9654182370583
 30
0.0
 10
5464.97420802612
 20
217.9052358376528
 30
0.0
 10
5464.987607786333
 20
217.8355642991841
 30
0.0
 10
5464.996863341629
 20
217.7699154012154
 30
0.0
 10
5465.014953565688
 20
217.7135583088518
 30
0.0
 10
5465.033130917752
 20
217.6600905720894
 30
0.0
 10
5465.04554485367
 20
217.5999822290715
 30
0.0
 10
5465.057821351093
 20
217.5423331066718
 30
0.0
 10
5465.074943859876
 20
217.4935557060533
 30
0.0
 10
5465.09179612409
 20
217.4513293911972
 30
0.0
 10
5465.108265324341
 20
217.4078767561342
 30
0.0
 10
5465.119474584119
 20
217.3620581428494
 30
0.0
 10
5465.120191636208
 20
217.315831920075
 30
0.0
 10
5465.120119541732
 20
217.2598251432801
 30
0.0
 10
5465.137471366575
 20
217.1942209620003
 30
0.0
 10
5465.170848379162
 20
217.1234997885466
 30
0.0
 10
5465.215228096843
 20
217.0371555424226
 30
0.0
 10
5465.253609629638
 20
216.9284286436814
 30
0.0
 10
5465.292241910822
 20
216.7893917855742
 30
0.0
 10
5465.341539993514
 20
216.6413748648037
 30
0.0
 10
5465.398775261269
 20
216.4731238838785
 30
0.0
 10
5465.45095632941
 20
216.2927662985389
 30
0.0
 10
5465.503966309787
 20
216.0955844065861
 30
0.0
 10
5465.56130417466
 20
215.892730318078
 30
0.0
 10
5465.623781989008
 20
215.676053262959
 30
0.0
 10
5465.68781588394
 20
215.4513834638665
 30
0.0
 10
5465.756565003325
 20
215.2096272002983
 30
0.0
 10
5465.828491880644
 20
214.9587777970405
 30
0.0
 10
5465.906600985075
 20
214.6881281534878
 30
0.0
 10
5465.98813068122
 20
214.4068898461316
 30
0.0
 10
5466.112575371863
 20
213.9800118200023
 30
0.0
 10
5466.277858372872
 20
213.4184738381232
 30
0.0
 10
5466.416527019857
 20
212.9547192342939
 30
0.0
 10
5466.48586134533
 20
212.722841925756
 30
0.0
 11
5456.02655145211
 21
249.133367090264
 31
0.0
 11
5456.026731754398
 21
249.1182511601594
 31
0.0
 11
5456.026551452109
 21
249.1030502499861
 31
0.0
 11
5456.026912056685
 21
249.0879768099209
 31
0.0
 11
5456.026551452112
 21
249.0727334097187
 31
0.0
 11
5456.024928731526
 21
249.0571925792766
 31
0.0
 11
5456.026551452111
 21
249.0424165694515
 31
0.0
 11
5456.028284743653
 21
249.0385883229442
 31
0.0
 11
5456.030341057146
 21
249.0348373593833
 31
0.0
 11
5456.043919584905
 21
249.008420863213
 31
0.0
 11
5456.056868292378
 21
248.9817828889059
 31
0.0
 11
5456.071873418516
 21
248.9519503615512
 31
0.0
 11
5456.083395527615
 21
248.9211492083689
 31
0.0
 11
5456.087461971513
 21
248.8913372119308
 31
0.0
 11
5456.087185132646
 21
248.8605155278253
 31
0.0
 11
5456.086336543474
 21
248.8295612740068
 31
0.0
 11
5456.090974737685
 21
248.7998818472879
 31
0.0
 11
5456.10572249659
 21
248.7698286140841
 31
0.0
 11
5456.117501972919
 21
248.7392481667445
 31
0.0
 11
5456.118065198873
 21
248.7279965135843
 31
0.0
 11
5456.11750197292
 21
248.7165105365434
 31
0.0
 11
5456.116247708796
 21
248.6822029039343
 31
0.0
 11
5456.117501972921
 21
248.6482976459405
 31
0.0
 11
5456.12998346123
 21
248.5779753408189
 31
0.0
 11
5456.147818813194
 21
248.5080822596873
 31
0.0
 11
5456.164285304875
 21
248.4267690743443
 31
0.0
 11
5456.178135653462
 21
248.3451292432337
 31
0.0
 11
5456.205917913617
 21
248.2077174264992
 31
0.0
 11
5456.242558939037
 21
248.0722776808041
 31
0.0
 11
5456.288290576648
 21
247.9362482535191
 31
0.0
 11
5456.32971985481
 21
247.7994261183746
 31
0.0
 11
5456.357015085984
 21
247.6489184225979
 31
0.0
 11
5456.375195115215
 21
247.4962577156695
 31
0.0
 11
5456.39570428049
 21
247.3442140114304
 31
0.0
 11
5456.420670375625
 21
247.1930893129704
 31
0.0
 11
5456.439336735719
 21
247.094675987392
 31
0.0
 11
5456.459969983377
 21
246.9965912741793
 31
0.0
 11
5456.484174327255
 21
246.8943615636257
 31
0.0
 11
5456.512743742369
 21
246.7933561597752
 31
0.0
 11
5456.542329980685
 21
246.7051696295637
 31
0.0
 11
5456.572254576976
 21
246.6170693478353
 31
0.0
 11
5456.612624255235
 21
246.4742015686955
 31
0.0
 11
5456.644257072613
 21
246.329059365267
 31
0.0
 11
5456.669571929015
 21
246.1851647472537
 31
0.0
 11
5456.693521938054
 21
246.041049382698
 31
0.0
 11
5456.716358399467
 21
245.9175104518
 31
0.0
 11
5456.742786803496
 21
245.7947250555035
 31
0.0
 11
5456.776967584372
 21
245.6597558278463
 31
0.0
 11
5456.814789299135
 21
245.5256630981071
 31
0.0
 11
5456.86239163769
 21
245.3617736847422
 31
0.0
 11
5456.904616974009
 21
245.1966692388781
 31
0.0
 11
5456.93734508799
 21
245.0257530455478
 31
0.0
 11
5456.967496346426
 21
244.854201228419
 31
0.0
 11
5457.009593576988
 21
244.658772768741
 31
0.0
 11
5457.057324021302
 21
244.4645736886483
 31
0.0
 11
5457.13332548066
 21
244.1614281073147
 31
0.0
 11
5457.208908222653
 21
243.8582368832443
 31
0.0
 11
5457.284075112473
 21
243.5549160046392
 31
0.0
 11
5457.360492424003
 21
243.2519000778406
 31
0.0
 11
5457.441893014335
 21
242.9425262248099
 31
0.0
 11
5457.527235045488
 21
242.6341944573354
 31
0.0
 11
5457.61245066938
 21
242.3371810749134
 31
0.0
 11
5457.693977666974
 21
242.0392264670321
 31
0.0
 11
5457.779809558398
 21
241.6831621777945
 31
0.0
 11
5457.864509893493
 21
241.3267807206816
 31
0.0
 11
5457.95955027177
 21
240.9701422813086
 31
0.0
 11
5458.057779750215
 21
240.6143349743301
 31
0.0
 11
5458.151830623298
 21
240.2513735950463
 31
0.0
 11
5458.239680791832
 21
239.8867308078459
 31
0.0
 11
5458.325303234318
 21
239.5214090444786
 31
0.0
 11
5458.421581833454
 21
239.1591266413612
 31
0.0
 11
5458.495915036092
 21
238.9240485777622
 31
0.0
 11
5458.573166034809
 21
238.689777040144
 31
0.0
 11
5458.648469174402
 21
238.4515620325144
 31
0.0
 11
5458.724750236158
 21
238.2136903633074
 31
0.0
 11
5458.801514730833
 21
237.9894064758065
 31
0.0
 11
5458.876334437507
 21
237.764551988936
 31
0.0
 11
5458.954908081444
 21
237.4912045575488
 31
0.0
 11
5459.024129033825
 21
237.2150592590392
 31
0.0
 11
5459.082675841419
 21
236.9732237849171
 31
0.0
 11
5459.149185999944
 21
236.7337794197448
 31
0.0
 11
5459.237296811331
 21
236.476340596589
 31
0.0
 11
5459.323507831494
 21
236.2183931351567
 31
0.0
 11
5459.389941322101
 21
235.9613443799715
 31
0.0
 11
5459.452354402642
 21
235.7030068505625
 31
0.0
 11
5459.531279664939
 21
235.4357763597635
 31
0.0
 11
5459.622886629163
 21
235.1724621458333
 31
0.0
 11
5459.721767398327
 21
234.907921722751
 31
0.0
 11
5459.816156485889
 21
234.6419174411041
 31
0.0
 11
5459.854829809577
 21
234.5176487251844
 31
0.0
 11
5459.888158981531
 21
234.3918035088748
 31
0.0
 11
5459.911329307484
 21
234.2890251153574
 31
0.0
 11
5459.937423846966
 21
234.1871648370486
 31
0.0
 11
5459.965996905447
 21
234.1029726151381
 31
0.0
 11
5459.998057527505
 21
234.0198607925977
 31
0.0
 11
5460.028960312627
 21
233.9397717219057
 31
0.0
 11
5460.058691208045
 21
233.8592938237593
 31
0.0
 11
5460.090609727081
 21
233.7660476614843
 31
0.0
 11
5460.119324888587
 21
233.6717785524563
 31
0.0
 11
5460.139277015556
 21
233.5977633549872
 31
0.0
 11
5460.158624496344
 21
233.5235628889155
 31
0.0
 11
5460.184571080023
 21
233.4290745708677
 31
0.0
 11
5460.211398255333
 21
233.3349247716814
 31
0.0
 11
5460.241101798351
 21
233.2306996079714
 31
0.0
 11
5460.270909089938
 21
233.1260754275983
 31
0.0
 11
5460.285266928998
 21
233.0794167389866
 31
0.0
 11
5460.305015535243
 21
233.035124906785
 31
0.0
 11
5460.335417533692
 21
232.9902747938034
 31
0.0
 11
5460.36185961075
 21
232.9441743859721
 31
0.0
 11
5460.371201189241
 21
232.9070272883272
 31
0.0
 11
5460.377018030883
 21
232.868382285298
 31
0.0
 11
5460.38474510677
 21
232.8304536483467
 31
0.0
 11
5460.392176451021
 21
232.7925901846235
 31
0.0
 11
5460.398883823877
 21
232.7271775674365
 31
0.0
 11
5460.411124476187
 21
232.6637436134726
 31
0.0
 11
5460.430643789483
 21
232.6217977872085
 31
0.0
 11
5460.452810131563
 21
232.5803723027304
 31
0.0
 11
5460.471691713428
 21
232.528892009109
 31
0.0
 11
5460.479337366798
 21
232.474263361783
 31
0.0
 11
5460.477738678745
 21
232.4197295718006
 31
0.0
 11
5460.483126971832
 21
232.368154420836
 31
0.0
 11
5460.507827112384
 21
232.3236480240202
 31
0.0
 11
5460.539971047336
 21
232.2809935050647
 31
0.0
 11
5460.558673554815
 21
232.2494749565223
 31
0.0
 11
5460.57407749264
 21
232.2165702194881
 31
0.0
 11
5460.589459652121
 21
232.1788115735656
 31
0.0
 11
5460.604394332911
 21
232.1407781188162
 31
0.0
 11
5460.619814701507
 21
232.102949972469
 31
0.0
 11
5460.634711173181
 21
232.0649860181386
 31
0.0
 11
5460.677875730108
 21
231.9177926568158
 31
0.0
 11
5460.718082483925
 21
231.7693968255043
 31
0.0
 11
5460.78425955041
 21
231.5991697963567
 31
0.0
 11
5460.84692905507
 21
231.4283323724677
 31
0.0
 11
5460.87626430792
 21
231.2935130638729
 31
0.0
 11
5460.903071351868
 21
231.1577265019031
 31
0.0
 11
5460.942279979735
 21
231.0273687771172
 31
0.0
 11
5460.992899026745
 21
230.9005947825729
 31
0.0
 11
5461.043699875478
 21
230.7862630131152
 31
0.0
 11
5461.089463777235
 21
230.6704113657051
 31
0.0
 11
5461.124958264179
 21
230.5462913751252
 31
0.0
 11
5461.157957379323
 21
230.4211395679307
 31
0.0
 11
5461.195203845264
 21
230.3064646578358
 31
0.0
 11
5461.233188057037
 21
230.1920789970036
 31
0.0
 11
5461.267797790152
 21
230.0675586675346
 31
0.0
 11
5461.301681659125
 21
229.9428071992292
 31
0.0
 11
5461.346403289406
 21
229.8042736345998
 31
0.0
 11
5461.392632179935
 21
229.6661660317581
 31
0.0
 11
5461.43743587431
 21
229.5162391327819
 31
0.0
 11
5461.483582700744
 21
229.3667872340927
 31
0.0
 11
5461.529349261667
 21
229.2399193453494
 31
0.0
 11
5461.574533221553
 21
229.1128836968265
 31
0.0
 11
5461.621366827586
 21
228.952268330842
 31
0.0
 11
5461.665483742368
 21
228.7907672689564
 31
0.0
 11
5461.70058754211
 21
228.6778961710572
 31
0.0
 11
5461.739591574142
 21
228.566198081769
 31
0.0
 11
5461.779387575734
 21
228.4580462129585
 31
0.0
 11
5461.81369940591
 21
228.3483659701989
 31
0.0
 11
5461.831695576793
 21
228.2666663629333
 31
0.0
 11
5461.847384783989
 21
228.1844304635529
 31
0.0
 11
5461.854777761634
 21
228.1484438181334
 31
0.0
 11
5461.862543204127
 21
228.1124279679089
 31
0.0
 11
5461.868608020607
 21
228.0872696848189
 31
0.0
 11
5461.877701624257
 21
228.0631631024723
 31
0.0
 11
5461.892206819595
 21
228.038782235636
 31
0.0
 11
5461.904228859496
 21
228.0138982370322
 31
0.0
 11
5461.907079384981
 21
227.9780898723493
 31
0.0
 11
5461.908018464531
 21
227.9418957413916
 31
0.0
 11
5461.932306326265
 21
227.8930401004144
 31
0.0
 11
5461.968652145069
 21
227.8475766827711
 31
0.0
 11
5462.002838224495
 21
227.7818305748258
 31
0.0
 11
5462.029285825609
 21
227.7128351704601
 31
0.0
 11
5462.060844445333
 21
227.6457416813572
 31
0.0
 11
5462.089919506149
 21
227.5780936581493
 31
0.0
 11
5462.109013651752
 21
227.4959522477847
 31
0.0
 11
5462.120236346418
 21
227.4113510366618
 31
0.0
 11
5462.133579156858
 21
227.3275217750207
 31
0.0
 11
5462.150553186694
 21
227.2446084151746
 31
0.0
 11
5462.165920522084
 21
227.1815986234306
 31
0.0
 11
5462.184659631999
 21
227.1195514490603
 31
0.0
 11
5462.212824592351
 21
227.0455684291396
 31
0.0
 11
5462.241503707502
 21
226.9717568527455
 31
0.0
 11
5462.263621208361
 21
226.9052260509656
 31
0.0
 11
5462.286978967905
 21
226.8391206765604
 31
0.0
 11
5462.31059250809
 21
226.7844075532392
 31
0.0
 11
5462.332454228316
 21
226.7292221305832
 31
0.0
 11
5462.34984651785
 21
226.6607427213677
 31
0.0
 11
5462.363893914518
 21
226.5911120804649
 31
0.0
 11
5462.381917375425
 21
226.521752450093
 31
0.0
 11
5462.402070676337
 21
226.4530020303438
 31
0.0
 11
5462.427130676101
 21
226.3634942309273
 31
0.0
 11
5462.45372158939
 21
226.2744695265281
 31
0.0
 11
5462.498084690173
 21
226.151495258436
 31
0.0
 11
5462.540882505171
 21
226.0281451993326
 31
0.0
 11
5462.574434817005
 21
225.8940571716361
 31
0.0
 11
5462.605305790743
 21
225.7590832419365
 31
0.0
 11
5462.640472498658
 21
225.6388969253436
 31
0.0
 11
5462.681097891421
 21
225.5203381248089
 31
0.0
 11
5462.719631148782
 21
225.4125132866397
 31
0.0
 11
5462.756889992095
 21
225.3043306378821
 31
0.0
 11
5462.828114559243
 21
225.0678820760479
 31
0.0
 11
5462.897105378343
 21
224.8306300086622
 31
0.0
 11
5462.978789385307
 21
224.5824337206184
 31
0.0
 11
5463.060058394799
 21
224.3341917492355
 31
0.0
 11
5463.127882464884
 21
224.0928741078154
 31
0.0
 11
5463.191431369302
 21
223.8502451508476
 31
0.0
 11
5463.265987968951
 21
223.5809715021514
 31
0.0
 11
5463.343015570652
 21
223.3124019475371
 31
0.0
 11
5463.426960709058
 21
223.0192945146514
 31
0.0
 11
5463.514810998849
 21
222.7273992149169
 31
0.0
 11
5463.607147420261
 21
222.4462685828005
 31
0.0
 11
5463.700975346133
 21
222.1655902686582
 31
0.0
 11
5463.797600502198
 21
221.8597696205418
 31
0.0
 11
5463.88998189719
 21
221.5526216544437
 31
0.0
 11
5463.981996830878
 21
221.2405540862277
 31
0.0
 11
5464.073304040699
 21
220.9282842251293
 31
0.0
 11
5464.159498526791
 21
220.6307912133636
 31
0.0
 11
5464.242415165333
 21
220.332368833569
 31
0.0
 11
5464.272617306817
 21
220.2186393747122
 31
0.0
 11
5464.303048845874
 21
220.1049925315444
 31
0.0
 11
5464.334175525649
 21
219.9915589902065
 31
0.0
 11
5464.363682526415
 21
219.877616229514
 31
0.0
 11
5464.388039559962
 21
219.7745917445695
 31
0.0
 11
5464.416736996885
 21
219.6729775576947
 31
0.0
 11
5464.466078825708
 21
219.547907083527
 31
0.0
 11
5464.515266727765
 21
219.4228636254671
 31
0.0
 11
5464.557191574773
 21
219.2587729594078
 31
0.0
 11
5464.594848433475
 21
219.0931679875266
 31
0.0
 11
5464.64521774649
 21
218.9394582784155
 31
0.0
 11
5464.697167769389
 21
218.7862099797867
 31
0.0
 11
5464.725486710968
 21
218.6833247066928
 31
0.0
 11
5464.757801449929
 21
218.5815713079652
 31
0.0
 11
5464.790890206709
 21
218.5025717471938
 31
0.0
 11
5464.818435130468
 21
218.4224078965533
 31
0.0
 11
5464.828522885519
 21
218.3567309807138
 31
0.0
 11
5464.833593550604
 21
218.2897717203674
 31
0.0
 11
5464.839295768952
 21
218.2344354492457
 31
0.0
 11
5464.84875197074
 21
218.1798731743828
 31
0.0
 11
5464.873182087913
 21
218.0983350950727
 31
0.0
 11
5464.909385651285
 21
218.020709762967
 31
0.0
 11
5464.942222900709
 21
217.964593590702
 31
0.0
 11
5464.970019331822
 21
217.9070216119527
 31
0.0
 11
5464.986935781292
 21
217.835853624546
 31
0.0
 11
5465.000336172091
 21
217.7630166206713
 31
0.0
 11
5465.015092647682
 21
217.7136064852258
 31
0.0
 11
5465.030653012359
 21
217.6644868897918
 31
0.0
 11
5465.045619504156
 21
217.5999574934904
 31
0.0
 11
5465.060969852632
 21
217.5356403186441
 31
0.0
 11
5465.075199758095
 21
217.4937610909057
 31
0.0
 11
5465.0912866929
 21
217.4522690079064
 31
0.0
 11
5465.107400283683
 21
217.4073891585616
 31
0.0
 11
5465.117813928139
 21
217.3613184870944
 31
0.0
 11
5465.120064077742
 21
217.3158055153634
 31
0.0
 11
5465.121603533171
 21
217.2703679662817
 31
0.0
 11
5465.139425599775
 21
217.1957898972742
 31
0.0
 11
5465.171124498374
 21
217.1239465805105
 31
0.0
 11
5465.205816978362
 21
217.052535854708
 31
0.0
 11
5465.252222805746
 21
216.9277948602831
 31
0.0
 11
5465.290030423559
 21
216.8010183650575
 31
0.0
 11
5465.341680044895
 21
216.6415195434785
 31
0.0
 11
5465.394455095598
 21
216.4821301192517
 31
0.0
 11
5465.450350554266
 21
216.2926087248748
 31
0.0
 11
5465.502641137848
 21
216.1020647747565
 31
0.0
 11
5465.561486985972
 21
215.8927843316373
 31
0.0
 11
5465.621433654822
 21
215.6838161212341
 31
0.0
 11
5465.687792960615
 21
215.4513769201781
 31
0.0
 11
5465.754014588949
 21
215.2188989788999
 31
0.0
 11
5465.828566489972
 21
214.9587994488498
 31
0.0
 11
5465.903565882643
 21
214.6988281679689
 31
0.0
 11
5465.988203691878
 21
214.4069110059408
 31
0.0
 11
5466.073269478328
 21
214.1151185086576
 31
0.0
 11
5466.278356559384
 21
213.4186220034883
 31
0.0
 11
5466.48586134533
 21
212.722841925756
 31
0.0
  0
SPLINE
  5
A9
330
1F
100
AcDbEntity
  8
$DDT_AUDIT_GENERATED__E2_
  6
Continuous
 62
     5
100
AcDbSpline
210
0.0
220
0.0
230
1.0
 70
     8
 71
     3
 72
    73
 73
    69
 74
    67
 42
0.0000000001
 43
0.0000000001
 44
0.00000001
 40
0.0
 40
0.0
 40
0.0
 40
0.0
 40
0.0454752604017585
 40
0.090950520803176
 40
0.1549329884436372
 40
0.2189269563636531
 40
0.308028572256102
 40
0.397129381008992
 40
0.5160531965385597
 40
0.6349757244490827
 40
0.7883558679146108
 40
0.9417341473263978
 40
1.134169676189863
 40
1.326619192631003
 40
1.562764303220902
 40
1.798837361477172
 40
2.287661840935172
 40
2.776807184745171
 40
3.293810722055599
 40
3.810669513074062
 40
4.343955780392287
 40
4.877321850879116
 40
5.221756290705295
 40
5.566195508734197
 40
5.922528802703476
 40
6.278799846354815
 40
6.629809057276224
 40
6.98102802096091
 40
7.310309421842993
 40
7.639070863043949
 40
7.774651601443734
 40
7.910060297134016
 40
8.0328607922004
 40
8.15576170844554
 40
8.269272610384164
 40
8.382804075139763
 40
8.492380064112618
 40
8.60194323638026
 40
8.722736420567488
 40
8.843582716211873
 40
8.98488655505948
 40
9.126148396192786
 40
9.306749025111136
 40
9.487548512023888
 40
9.691257538829953
 40
9.893980915931106
 40
10.01855722182687
 40
10.14335068654405
 40
10.25410960989512
 40
10.36493019002191
 40
10.47344164363195
 40
10.58196712525325
 40
10.69057770257388
 40
10.79904380518616
 40
10.89622932839411
 40
10.99324498238362
 40
11.09864538123084
 40
11.20452867978503
 40
11.24801432603525
 40
11.29135220931536
 40
11.33972209702904
 40
11.38794642295838
 40
11.4511374192006
 40
11.51472824982387
 40
11.60018710765555
 40
11.68588627880673
 40
11.94603000113869
 40
12.20627670375855
 40
12.20627670375855
 40
12.20627670375855
 40
12.20627670375855
 10
5454.23785787617
 20
260.744716913743
 30
0.0
 10
5454.237875243353
 20
260.7295585853607
 30
0.0
 10
5454.237909977723
 20
260.6992419285963
 30
0.0
 10
5454.237614130088
 20
260.6475960361379
 30
0.0
 10
5454.239196230098
 20
260.5897871624602
 30
0.0
 10
5454.243159472477
 20
260.517531301446
 30
0.0
 10
5454.249479133118
 20
260.4370392605638
 30
0.0
 10
5454.258913438448
 20
260.3384460431752
 30
0.0
 10
5454.270173587003
 20
260.2300458627528
 30
0.0
 10
5454.284514892113
 20
260.1004273668946
 30
0.0
 10
5454.300786101579
 20
259.9594694145715
 30
0.0
 10
5454.320244560107
 20
259.7942129998411
 30
0.0
 10
5454.34107295065
 20
259.6160053297855
 30
0.0
 10
5454.365696923846
 20
259.4104626792262
 30
0.0
 10
5454.393694520239
 20
259.1906868193702
 30
0.0
 10
5454.430672832325
 20
258.8724430334384
 30
0.0
 10
5454.45861438111
 20
258.4685738882725
 30
0.0
 10
5454.483384168686
 20
257.970890172223
 30
0.0
 10
5454.521180251657
 20
257.464552087571
 30
0.0
 10
5454.574841491195
 20
256.9448477811724
 30
0.0
 10
5454.64573528268
 20
256.4217401260551
 30
0.0
 10
5454.714464858647
 20
255.9564315840635
 30
0.0
 10
5454.771206215213
 20
255.5529863308091
 30
0.0
 10
5454.819427682247
 20
255.207937480713
 30
0.0
 10
5454.869503983076
 20
254.8591655939582
 30
0.0
 10
5454.922773103644
 20
254.5086407286596
 30
0.0
 10
5454.980149317535
 20
254.1605114365308
 30
0.0
 10
5455.034318386972
 20
253.8209283510996
 30
0.0
 10
5455.079959789594
 20
253.4876840610331
 30
0.0
 10
5455.128987296464
 20
253.2272598156267
 30
0.0
 10
5455.18263568419
 20
253.0346757610648
 30
0.0
 10
5455.21477765193
 20
252.907277216136
 30
0.0
 10
5455.234100061463
 20
252.781633721323
 30
0.0
 10
5455.251074363156
 20
252.6630834274348
 30
0.0
 10
5455.27523774596
 20
252.5489161188497
 30
0.0
 10
5455.299498722073
 20
252.4393582122993
 30
0.0
 10
5455.318658233353
 20
252.330116845667
 30
0.0
 10
5455.338139865442
 20
252.2184833024854
 30
0.0
 10
5455.363326242757
 20
252.1041260274058
 30
0.0
 10
5455.392850005032
 20
251.9799444869402
 30
0.0
 10
5455.422125962377
 20
251.8486916950694
 30
0.0
 10
5455.453527611727
 20
251.6975246634867
 30
0.0
 10
5455.484939210102
 20
251.5329365536012
 30
0.0
 10
5455.513852324957
 20
251.3466895055496
 30
0.0
 10
5455.533432321897
 20
251.1520162240677
 30
0.0
 10
5455.561779008774
 20
250.9766951855499
 30
0.0
 10
5455.606969330685
 20
250.8327719497219
 30
0.0
 10
5455.644115195439
 20
250.7185885229313
 30
0.0
 10
5455.670613935723
 20
250.6061140128351
 30
0.0
 10
5455.692589157254
 20
250.4983125091703
 30
0.0
 10
5455.716308849193
 20
250.391629842498
 30
0.0
 10
5455.739112587389
 20
250.2854846333307
 30
0.0
 10
5455.758520598773
 20
250.1787218095167
 30
0.0
 10
5455.781295612227
 20
250.0763151322737
 30
0.0
 10
5455.81330161182
 20
249.9805963584952
 30
0.0
 10
5455.843697047623
 20
249.8853423557261
 30
0.0
 10
5455.861809844948
 20
249.7839437330831
 30
0.0
 10
5455.872035405335
 20
249.6996627947188
 30
0.0
 10
5455.880867370314
 20
249.6360396479258
 30
0.0
 10
5455.890148797822
 20
249.5918258977103
 30
0.0
 10
5455.905793943772
 20
249.5478549886945
 30
0.0
 10
5455.922863988211
 20
249.4972515166307
 30
0.0
 10
5455.929956317546
 20
249.4390536241184
 30
0.0
 10
5455.93478830612
 20
249.3684809470549
 30
0.0
 10
5455.951471800977
 20
249.2917173507699
 30
0.0
 10
5455.992973865156
 20
249.154119176912
 30
0.0
 10
5456.046599084148
 20
248.9592857961069
 30
0.0
 10
5456.093864558868
 20
248.7923938251279
 30
0.0
 10
5456.11750197292
 20
248.708931326476
 30
0.0
 11
5454.23785787617
 21
260.744716913743
 31
0.0
 11
5454.237857876171
 21
260.6992416533412
 31
0.0
 11
5454.237857876169
 21
260.6537663929398
 31
0.0
 11
5454.239488369295
 21
260.589804703957
 31
0.0
 11
5454.242910682879
 21
260.5259023119839
 31
0.0
 11
5454.249731255739
 21
260.4370621310943
 31
0.0
 11
5454.258069103019
 21
260.3483522983634
 31
0.0
 11
5454.27030546059
 21
260.2300596719934
 31
0.0
 11
5454.283333136575
 21
260.1118528731067
 31
0.0
 11
5454.300844135637
 21
259.9594756001248
 31
0.0
 11
5454.318702783557
 21
259.8071405572431
 31
0.0
 11
5454.341164261724
 21
259.6160203993122
 31
0.0
 11
5454.364178043963
 21
259.4249518718005
 31
0.0
 11
5454.393267066363
 21
259.1906052438509
 31
0.0
 11
5454.419758917787
 21
258.9560233378084
 31
0.0
 11
5454.457031891487
 21
258.4686219660941
 31
0.0
 11
5454.484883982072
 21
257.98027021948
 31
0.0
 11
5454.523620456386
 21
257.4647198891055
 31
0.0
 11
5454.576957348826
 21
256.9506204962271
 31
0.0
 11
5454.646781362639
 21
256.4219250735069
 31
0.0
 11
5454.722927320494
 21
255.894022470512
 31
0.0
 11
5454.771156348064
 21
255.5529813524074
 31
0.0
 11
5454.819088548221
 21
255.2118935644341
 31
0.0
 11
5454.869989668653
 21
254.859214542759
 31
0.0
 11
5454.923776387279
 21
254.5070270281537
 31
0.0
 11
5454.979841278357
 21
254.160524222768
 31
0.0
 11
5455.034148633888
 21
253.813529306974
 31
0.0
 11
5455.082710954939
 21
253.4878485707598
 31
0.0
 11
5455.147363084272
 21
253.1655068461984
 31
0.0
 11
5455.182120005644
 21
253.0344568822846
 31
0.0
 11
5455.213610994494
 21
252.902760897191
 31
0.0
 11
5455.23388346502
 21
252.7816452973398
 31
0.0
 11
5455.252910602252
 21
252.6602261750293
 31
0.0
 11
5455.275407894876
 21
252.548967033007
 31
0.0
 11
5455.298947285629
 21
252.4379026797135
 31
0.0
 11
5455.318643481262
 21
252.3301114127345
 31
0.0
 11
5455.338246893387
 21
252.2223162600121
 31
0.0
 11
5455.363647434724
 21
252.104223898507
 31
0.0
 11
5455.391020652371
 21
251.9865186134657
 31
0.0
 11
5455.421791732497
 21
251.8486059037507
 31
0.0
 11
5455.450531486975
 21
251.710298513229
 31
0.0
 11
5455.48390453874
 21
251.5328081569231
 31
0.0
 11
5455.511165167518
 21
251.3540756400535
 31
0.0
 11
5455.53551128498
 21
251.1518266989765
 31
0.0
 11
5455.571798848058
 21
250.9523775064759
 31
0.0
 11
5455.607146031582
 21
250.8329211018441
 31
0.0
 11
5455.643801343696
 21
250.713632389344
 31
0.0
 11
5455.670059439491
 21
250.6060310347654
 31
0.0
 11
5455.693066209137
 21
250.4976249024201
 31
0.0
 11
5455.716181875322
 21
250.3916041424652
 31
0.0
 11
5455.738541469544
 21
250.2854070205298
 31
0.0
 11
5455.759228305013
 21
250.1787847323149
 31
0.0
 11
5455.784016729948
 21
250.0731891386325
 31
0.0
 11
5455.813110753364
 21
249.980460697889
 31
0.0
 11
5455.840860805458
 21
249.8874984919784
 31
0.0
 11
5455.860802747379
 21
249.7840018107294
 31
0.0
 11
5455.874967250764
 21
249.6790702151226
 31
0.0
 11
5455.881371198592
 21
249.636058694782
 31
0.0
 11
5455.890687093864
 21
249.5937339239912
 31
0.0
 11
5455.905689739255
 21
249.5477495063184
 31
0.0
 11
5455.919881088197
 21
249.5016605572467
 31
0.0
 11
5455.929380759396
 21
249.4391876971137
 31
0.0
 11
5455.935600931298
 21
249.3759018124247
 31
0.0
 11
5455.952528096288
 21
249.2921361424442
 31
0.0
 11
5455.976023384992
 21
249.209720613903
 31
0.0
 11
5456.0468955252
 21
248.9594170062361
 31
0.0
 11
5456.11750197292
 21
248.708931326476
 31
0.0
  0
SPLINE
  5
AA
330
1F
100
AcDbEntity
  8
$DDT_AUDIT_GENERATED__E2_
  6
Continuous
 62
     5
100
AcDbSpline
210
0.0
220
0.0
230
1.0
 70
     8
 71
     3
 72
   253
 73
   249
 74
   247
 42
0.0000000001
 43
0.0000000001
 44
0.00000001
 40
0.0
 40
0.0
 40
0.0
 40
0.0
 40
0.2193998860291824
 40
0.4388501550916218
 40
0.543602026532841
 40
0.6453321795128433
 40
0.7239609957380916
 40
0.8108989934864751
 40
0.8698474566651516
 40
0.9127013385693583
 40
0.919998703619469
 40
0.9278953925942895
 40
0.9359079160441586
 40
0.9431407006425513
 40
0.9532400794970798
 40
0.9646933581947474
 40
0.9760006660177237
 40
0.986165697818886
 40
1.000491859880311
 40
1.016757904306062
 40
1.032153655533289
 40
1.047090872779971
 40
1.054664448707729
 40
1.062249475281472
 40
1.069773269442823
 40
1.077408002584154
 40
1.093289883787488
 40
1.108203082567053
 40
1.12842747429071
 40
1.148536456032734
 40
1.156581007304539
 40
1.164174755279959
 40
1.178876473209975
 40
1.194874306246114
 40
1.22226749533616
 40
1.2542898031487
 40
1.273482304371857
 40
1.291637197185313
 40
1.299124541305408
 40
1.306814844328261
 40
1.31443050796615
 40
1.32197998230865
 40
1.362067157696749
 40
1.402969269983969
 40
1.44173682856018
 40
1.478279942621238
 40
1.522000589623544
 40
1.566993456195195
 40
1.591421381174588
 40
1.615524158481596
 40
1.653246491320961
 40
1.693401118588296
 40
1.733111260704904
 40
1.771071991532817
 40
1.829535595843229
 40
1.887816624979514
 40
1.947227658119304
 40
2.007523617691728
 40
2.085132995132415
 40
2.164303068607495
 40
2.2223879061218
 40
2.280570553940504
 40
2.335335866803711
 40
2.39063335641219
 40
2.441561667151938
 40
2.491666310509342
 40
2.530123635672486
 40
2.568732321923104
 40
2.69349506973868
 40
2.823416458973306
 40
2.976255248662897
 40
3.127552094322986
 40
3.222448858914503
 40
3.317503110200576
 40
3.419669898524597
 40
3.521919800628003
 40
3.643764259094125
 40
3.7654932450079
 40
3.941101129711336
 40
4.11680872337874
 40
4.307521564361561
 40
4.498224764598897
 40
4.611925884592452
 40
4.725633604336747
 40
4.828989750488353
 40
4.932475127566551
 40
5.023354424381139
 40
5.113493065846578
 40
5.195765856232786
 40
5.278779745780337
 40
5.352004931636324
 40
5.424829566463362
 40
5.532137462657351
 40
5.639949542216792
 40
5.73252945360796
 40
5.825037460342819
 40
5.924754481021287
 40
6.023906113353741
 40
6.159449417230999
 40
6.296145493043213
 40
6.45362779751357
 40
6.611128204288704
 40
6.781499686999239
 40
6.951806076955079
 40
7.126050341594673
 40
7.300313595312943
 40
7.631038737832851
 40
7.96178630813608
 40
8.282223367835643
 40
8.602595172507367
 40
8.850385178037893
 40
9.098213226827378
 40
9.346025137020126
 40
9.593826648885981
 40
9.920506497575067
 40
10.24719195416265
 40
10.59928352301237
 40
10.95134730070837
 40
11.14113619015862
 40
11.33087343163058
 40
11.53528955007413
 40
11.73978300398798
 40
11.94285860464208
 40
12.14590054951164
 40
12.3820211250107
 40
12.6181458384085
 40
12.84387915441487
 40
13.0695042492556
 40
13.27388490183044
 40
13.47822839475996
 40
13.69085647991395
 40
13.90347757647638
 40
14.13981356025068
 40
14.37606100941548
 40
14.69035253731282
 40
15.00498642558369
 40
15.33572568139724
 40
15.66649910896082
 40
15.95714533669785
 40
16.2483231595657
 40
16.5354691967693
 40
16.82149634655546
 40
16.891547276442
 40
16.96185230437699
 40
17.03455472941151
 40
17.10679162427383
 40
17.16262148574401
 40
17.21831670890784
 40
17.30277016046795
 40
17.38794886637594
 40
17.46341953958651
 40
17.53879028660382
 40
17.62352294088737
 40
17.70832985130293
 40
17.88074091882695
 40
18.0532012557297
 40
18.22238145022579
 40
18.39017043008726
 40
18.47284206674346
 40
18.55562567733576
 40
18.64129228534893
 40
18.72710050783417
 40
18.79625992460569
 40
18.86520296752881
 40
18.96705433199023
 40
19.06892733050175
 40
19.16470455697705
 40
19.26044333446765
 40
19.34117377797178
 40
19.42251092391063
 40
19.51477009979963
 40
19.60640243989996
 40
19.75012026934485
 40
19.89479794922627
 40
20.07503555114132
 40
20.25509978428621
 40
20.47372085092034
 40
20.69237612628115
 40
20.95193282498004
 40
21.2114719219587
 40
21.58396209392501
 40
21.95647661060786
 40
22.33837465498548
 40
22.72026280413167
 40
23.08909941330908
 40
23.45791890691237
 40
23.9842632138592
 40
24.51068588268546
 40
25.01179221861712
 40
25.51280920479407
 40
26.04862893246875
 40
26.5844846333475
 40
27.09898999610282
 40
27.61350104620952
 40
28.1307176844108
 40
28.64797038810543
 40
29.1759458845656
 40
29.703864482023
 40
30.19907325661352
 40
30.69429358126097
 40
31.19641932263931
 40
31.6986016352399
 40
32.17988923557134
 40
32.66100932979019
 40
33.12430721515125
 40
33.58763566097231
 40
34.0597775115423
 40
34.53199210447283
 40
35.01854447862597
 40
35.50510312982823
 40
36.06066649401011
 40
36.61630409820188
 40
37.16873058531782
 40
37.72092919738367
 40
38.06941478154464
 40
38.41800820375368
 40
38.76450480691297
 40
39.11093533897431
 40
39.45631117960244
 40
39.80171878018651
 40
40.29679717442988
 40
40.79185235748201
 40
41.2900155500095
 40
41.78825107375393
 40
42.27322797744817
 40
42.75814003431248
 40
43.2039903481942
 40
43.64990834663836
 40
44.09535729866581
 40
44.54069191223209
 40
44.97828427420124
 40
45.41583896474756
 40
45.65431612500816
 40
45.89283195814795
 40
46.14110405286863
 40
46.3893647274359
 40
46.65254535081072
 40
46.91572947756549
 40
47.19897219721451
 40
47.48221381362522
 40
47.79065953116362
 40
48.09910560467355
 40
48.43789927277398
 40
48.77669282774316
 40
49.15097822405529
 40
49.52526365903622
 40
50.40088644776423
 40
51.27650924257898
 40
51.27650924257898
 40
51.27650924257898
 40
51.27650924257898
 10
6244.93136896322
 20
213.420129251964
 30
0.0
 10
6244.898860916162
 20
213.4856287995402
 30
0.0
 10
6244.833837356894
 20
213.6166429360217
 30
0.0
 10
6244.750641713105
 20
213.7777814950366
 30
0.0
 10
6244.693478606245
 20
213.9076359302635
 30
0.0
 10
6244.650992105543
 20
213.9930845753394
 30
0.0
 10
6244.601242193366
 20
214.0665163317526
 30
0.0
 10
6244.572681149273
 20
214.1388846336762
 30
0.0
 10
6244.57128490488
 20
214.1990908822354
 30
0.0
 10
6244.549516609932
 20
214.2386038349399
 30
0.0
 10
6244.52973561308
 20
214.239340430875
 30
0.0
 10
6244.522035097973
 20
214.2387787655098
 30
0.0
 10
6244.514462788491
 20
214.2376422396059
 30
0.0
 10
6244.505644058569
 20
214.2380128970101
 30
0.0
 10
6244.498410112539
 20
214.2452334679268
 30
0.0
 10
6244.492227821838
 20
214.2541849093976
 30
0.0
 10
6244.483601879818
 20
214.2609701072043
 30
0.0
 10
6244.474554994294
 20
214.2694735602441
 30
0.0
 10
6244.474009849843
 20
214.2841362060985
 30
0.0
 10
6244.47707618052
 20
214.2989129567297
 30
0.0
 10
6244.477295554188
 20
214.3145832160123
 30
0.0
 10
6244.476567376365
 20
214.3271752375382
 30
0.0
 10
6244.476567482224
 20
214.3372124966681
 30
0.0
 10
6244.476637690248
 20
214.3447729105224
 30
0.0
 10
6244.476579550237
 20
214.3523510805917
 30
0.0
 10
6244.476566913493
 20
214.362714588942
 30
0.0
 10
6244.477265839119
 20
214.3753932542218
 30
0.0
 10
6244.473767835195
 20
214.3929746997328
 30
0.0
 10
6244.458587434186
 20
214.4043640306065
 30
0.0
 10
6244.446339368168
 20
214.4163681220181
 30
0.0
 10
6244.444791795745
 20
214.4282827225713
 30
0.0
 10
6244.442679552193
 20
214.4386033442555
 30
0.0
 10
6244.430175435244
 20
214.4450844429162
 30
0.0
 10
6244.410844325428
 20
214.4502543913989
 30
0.0
 10
6244.402964294212
 20
214.4782100019652
 30
0.0
 10
6244.404410888324
 20
214.5042566654019
 30
0.0
 10
6244.392443021641
 20
214.5246024768295
 30
0.0
 10
6244.385423233982
 20
214.5381811115529
 30
0.0
 10
6244.385164698409
 20
214.5494183973593
 30
0.0
 10
6244.385714475107
 20
214.5569790193447
 30
0.0
 10
6244.385967409199
 20
214.5646015649322
 30
0.0
 10
6244.385471716861
 20
214.5830207642191
 30
0.0
 10
6244.377440907942
 20
214.6121928217682
 30
0.0
 10
6244.353594385249
 20
214.6455282816213
 30
0.0
 10
6244.321543772894
 20
214.6670812123517
 30
0.0
 10
6244.289708454962
 20
214.6930696400166
 30
0.0
 10
6244.279450237084
 20
214.7349773468723
 30
0.0
 10
6244.27023194805
 20
214.7722857368936
 30
0.0
 10
6244.249276825269
 20
214.7958795620827
 30
0.0
 10
6244.229730686606
 20
214.8172780801727
 30
0.0
 10
6244.220344866941
 20
214.8513115428343
 30
0.0
 10
6244.219236890242
 20
214.8903328794679
 30
0.0
 10
6244.216320478284
 20
214.9295245060573
 30
0.0
 10
6244.203864458368
 20
214.9741198882136
 30
0.0
 10
6244.16925756641
 20
215.0132523704998
 30
0.0
 10
6244.130266895593
 20
215.0590365493226
 30
0.0
 10
6244.121921517451
 20
215.1193912127767
 30
0.0
 10
6244.116833513138
 20
215.1857368233704
 30
0.0
 10
6244.074465206968
 20
215.2471212880497
 30
0.0
 10
6244.02882350642
 20
215.3028139175544
 30
0.0
 10
6244.009128129919
 20
215.3657238322722
 30
0.0
 10
6243.994188655672
 20
215.4208593129013
 30
0.0
 10
6243.966338835311
 20
215.4699304506315
 30
0.0
 10
6243.938143216424
 20
215.5156679619098
 30
0.0
 10
6243.918340605161
 20
215.56386238154
 30
0.0
 10
6243.896779538571
 20
215.6056202988132
 30
0.0
 10
6243.867061370259
 20
215.6361806989444
 30
0.0
 10
6243.81819293066
 20
215.682643207878
 30
0.0
 10
6243.77641241692
 20
215.7747694346649
 30
0.0
 10
6243.746949249849
 20
215.9068384249132
 30
0.0
 10
6243.690965391079
 20
216.0411044924015
 30
0.0
 10
6243.633636475942
 20
216.1610163661279
 30
0.0
 10
6243.592725483768
 20
216.2672218646901
 30
0.0
 10
6243.557178221758
 20
216.3578982674741
 30
0.0
 10
6243.513949701057
 20
216.447968331713
 30
0.0
 10
6243.463037805815
 20
216.5440651916544
 30
0.0
 10
6243.408773466845
 20
216.6457652630613
 30
0.0
 10
6243.34588550932
 20
216.7705955978355
 30
0.0
 10
6243.283692554956
 20
216.9155570456675
 30
0.0
 10
6243.214143237239
 20
217.0823356832642
 30
0.0
 10
6243.133461160743
 20
217.2496557766699
 30
0.0
 10
6243.061428448459
 20
217.3981657589678
 30
0.0
 10
6243.005845480863
 20
217.5259918384472
 30
0.0
 10
6242.962466417202
 20
217.6273544866656
 30
0.0
 10
6242.918627089028
 20
217.7247993622615
 30
0.0
 10
6242.873059648194
 20
217.8131157990338
 30
0.0
 10
6242.82276952081
 20
217.8934621412688
 30
0.0
 10
6242.780664292081
 20
217.9708841140539
 30
0.0
 10
6242.755185339312
 20
218.0524716667739
 30
0.0
 10
6242.736532460558
 20
218.1297076126832
 30
0.0
 10
6242.715063031439
 20
218.2030334134357
 30
0.0
 10
6242.68507072727
 20
218.2821535626765
 30
0.0
 10
6242.638954029289
 20
218.3665859557283
 30
0.0
 10
6242.586038974008
 20
218.4544194485635
 30
0.0
 10
6242.541736025763
 20
218.5415343565024
 30
0.0
 10
6242.50588402579
 20
218.62963894079
 30
0.0
 10
6242.478864562754
 20
218.7229172465932
 30
0.0
 10
6242.444306681084
 20
218.8292513680231
 30
0.0
 10
6242.382172247188
 20
218.9371214983813
 30
0.0
 10
6242.302987880026
 20
219.056407719903
 30
0.0
 10
6242.235004420419
 20
219.1911637490446
 30
0.0
 10
6242.171030383136
 20
219.3397155465182
 30
0.0
 10
6242.104112268125
 20
219.4917090818119
 30
0.0
 10
6242.03526666401
 20
219.6489363727819
 30
0.0
 10
6241.967857869447
 20
219.8081991070602
 30
0.0
 10
6241.879687625235
 20
220.0167374624809
 30
0.0
 10
6241.766854904389
 20
220.2714673836051
 30
0.0
 10
6241.6289563563
 20
220.5683196099049
 30
0.0
 10
6241.48860816197
 20
220.8601752511411
 30
0.0
 10
6241.362718317228
 20
221.1283232545452
 30
0.0
 10
6241.254099875536
 20
221.3777115500183
 30
0.0
 10
6241.157179419404
 20
221.6057797682245
 30
0.0
 10
6241.058727805734
 20
221.8332000092716
 30
0.0
 10
6240.949277583998
 20
222.0844970602195
 30
0.0
 10
6240.830056681782
 20
222.3602126939427
 30
0.0
 10
6240.695596302563
 20
222.6672200221583
 30
0.0
 10
6240.553717465002
 20
222.9801674722125
 30
0.0
 10
6240.43389912321
 20
223.2530476502827
 30
0.0
 10
6240.342272903403
 20
223.4790436312385
 30
0.0
 10
6240.267433744155
 20
223.658758706268
 30
0.0
 10
6240.183334876338
 20
223.8397614414297
 30
0.0
 10
6240.094987689783
 20
224.0236270821643
 30
0.0
 10
6240.009746124314
 20
224.2084677339196
 30
0.0
 10
6239.923932389478
 20
224.4046204158406
 30
0.0
 10
6239.839012086278
 20
224.6130819027759
 30
0.0
 10
6239.749933952767
 20
224.8280579499958
 30
0.0
 10
6239.654117072142
 20
225.0362223148983
 30
0.0
 10
6239.565755115117
 20
225.2362637284781
 30
0.0
 10
6239.493113155318
 20
225.4348828726429
 30
0.0
 10
6239.420701502112
 20
225.6290378427438
 30
0.0
 10
6239.332563111217
 20
225.8195777319348
 30
0.0
 10
6239.240393050512
 20
226.0200530161118
 30
0.0
 10
6239.16332601198
 20
226.2351870687492
 30
0.0
 10
6239.074783984618
 20
226.4822599369644
 30
0.0
 10
6238.948868056093
 20
226.742105655759
 30
0.0
 10
6238.804509942218
 20
227.0276688253054
 30
0.0
 10
6238.684554599343
 20
227.3304497176889
 30
0.0
 10
6238.572615497997
 20
227.6274392018355
 30
0.0
 10
6238.449438097228
 20
227.9057239413778
 30
0.0
 10
6238.326314280719
 20
228.1678927122015
 30
0.0
 10
6238.205875282662
 20
228.429628565652
 30
0.0
 10
6238.129667195217
 20
228.6305270240368
 30
0.0
 10
6238.090287069985
 20
228.767102565628
 30
0.0
 10
6238.07083470306
 20
228.8354080248231
 30
0.0
 10
6238.049480813028
 20
228.9039087980302
 30
0.0
 10
6238.022330601767
 20
228.9655038134164
 30
0.0
 10
6237.987985323037
 20
229.016299381851
 30
0.0
 10
6237.951753528101
 20
229.07085347724
 30
0.0
 10
6237.924607621877
 20
229.1414235824017
 30
0.0
 10
6237.900508795763
 20
229.2194518636404
 30
0.0
 10
6237.868459264401
 20
229.2914410815041
 30
0.0
 10
6237.835063230055
 20
229.3625111214584
 30
0.0
 10
6237.806127361077
 20
229.4389062714841
 30
0.0
 10
6237.767334169349
 20
229.5461142743418
 30
0.0
 10
6237.708171156934
 20
229.6765657404112
 30
0.0
 10
6237.640442269233
 20
229.8343993460519
 30
0.0
 10
6237.596426780953
 20
229.9983727938235
 30
0.0
 10
6237.550480713823
 20
230.1315666208532
 30
0.0
 10
6237.492940989359
 20
230.2267906773988
 30
0.0
 10
6237.449819173139
 20
230.298672582372
 30
0.0
 10
6237.417270395452
 20
230.3770896352796
 30
0.0
 10
6237.387314450034
 20
230.4515775925724
 30
0.0
 10
6237.351696205566
 20
230.5171969080008
 30
0.0
 10
6237.315205897139
 20
230.5886051550136
 30
0.0
 10
6237.289727904051
 20
230.6761067437618
 30
0.0
 10
6237.261560140951
 20
230.772263231401
 30
0.0
 10
6237.214030412646
 20
230.858133953768
 30
0.0
 10
6237.169674994611
 20
230.9375075984187
 30
0.0
 10
6237.142702012694
 20
231.019519048596
 30
0.0
 10
6237.123813846923
 20
231.1021503952252
 30
0.0
 10
6237.105212834962
 20
231.1885669033962
 30
0.0
 10
6237.076517240717
 20
231.2941486568213
 30
0.0
 10
6237.024353567629
 20
231.4100791676545
 30
0.0
 10
6236.951968022758
 20
231.5484441441645
 30
0.0
 10
6236.885935858268
 20
231.7034948795248
 30
0.0
 10
6236.817349174214
 20
231.8838382605499
 30
0.0
 10
6236.74191153612
 20
232.0753063321655
 30
0.0
 10
6236.656208880575
 20
232.2911924764772
 30
0.0
 10
6236.567422476835
 20
232.5205244639879
 30
0.0
 10
6236.459802000502
 20
232.7975527648789
 30
0.0
 10
6236.334159841635
 20
233.1079450057247
 30
0.0
 10
6236.191732553947
 20
233.4555289033432
 30
0.0
 10
6236.050979947966
 20
233.8071788612767
 30
0.0
 10
6235.914546731781
 20
234.1592193894656
 30
0.0
 10
6235.784406988799
 20
234.5089757332413
 30
0.0
 10
6235.636953500405
 20
234.9036732466201
 30
0.0
 10
6235.462566941605
 20
235.3443125092131
 30
0.0
 10
6235.267078812842
 20
235.8239600426244
 30
0.0
 10
6235.075869087249
 20
236.2962359987293
 30
0.0
 10
6234.890243223494
 20
236.7741504914221
 30
0.0
 10
6234.713746638304
 20
237.2678048044875
 30
0.0
 10
6234.536997252899
 20
237.7661292008881
 30
0.0
 10
6234.351600660601
 20
238.2537203195103
 30
0.0
 10
6234.167203717135
 20
238.7350196469563
 30
0.0
 10
6233.990715386532
 20
239.2202735736843
 30
0.0
 10
6233.818522449628
 20
239.7118065282904
 30
0.0
 10
6233.648486136657
 20
240.2078502664098
 30
0.0
 10
6233.477054786235
 20
240.6956690341697
 30
0.0
 10
6233.29900817044
 20
241.1694478092961
 30
0.0
 10
6233.12424093015
 20
241.6352717105482
 30
0.0
 10
6232.959022780097
 20
242.107066279769
 30
0.0
 10
6232.805209196073
 20
242.5778179195392
 30
0.0
 10
6232.662634859514
 20
243.0447154962719
 30
0.0
 10
6232.518018316335
 20
243.4975233437611
 30
0.0
 10
6232.355825989256
 20
243.9379089848472
 30
0.0
 10
6232.194279153929
 20
244.3753365282817
 30
0.0
 10
6232.050099055924
 20
244.821949257008
 30
0.0
 10
6231.907050214729
 20
245.2769675898532
 30
0.0
 10
6231.750211402596
 20
245.7325389358636
 30
0.0
 10
6231.582793759662
 20
246.2138107536531
 30
0.0
 10
6231.419121090325
 20
246.7206837339434
 30
0.0
 10
6231.260671728021
 20
247.2521654170115
 30
0.0
 10
6231.113850934575
 20
247.7857405431809
 30
0.0
 10
6230.978637932638
 20
248.2509697307199
 30
0.0
 10
6230.846241222425
 20
248.6458535634038
 30
0.0
 10
6230.729167003054
 20
248.9734261169897
 30
0.0
 10
6230.609695733969
 20
249.2993924668664
 30
0.0
 10
6230.493604499882
 20
249.6254664731464
 30
0.0
 10
6230.386317502484
 20
249.9541805284101
 30
0.0
 10
6230.272790611863
 20
250.3328557334109
 30
0.0
 10
6230.156374903533
 20
250.7625722730746
 30
0.0
 10
6230.028480780804
 20
251.2419131130569
 30
0.0
 10
6229.888858369883
 20
251.719099829675
 30
0.0
 10
6229.744076641445
 20
252.1911884687137
 30
0.0
 10
6229.599724596775
 20
252.6587878639741
 30
0.0
 10
6229.464441956389
 20
253.1109147467133
 30
0.0
 10
6229.341021272427
 20
253.5529208344726
 30
0.0
 10
6229.226696950759
 20
253.9837607909494
 30
0.0
 10
6229.11594520166
 20
254.4153311340101
 30
0.0
 10
6228.999465366152
 20
254.8426146359275
 30
0.0
 10
6228.86776585629
 20
255.2626375393229
 30
0.0
 10
6228.758418984125
 20
255.617431758982
 30
0.0
 10
6228.679291390295
 20
255.9118623498914
 30
0.0
 10
6228.618802564947
 20
256.1459241252886
 30
0.0
 10
6228.555950049824
 20
256.3827440573983
 30
0.0
 10
6228.49044771918
 20
256.627363308858
 30
0.0
 10
6228.424232328657
 20
256.8769375926861
 30
0.0
 10
6228.35533355457
 20
257.1378634237503
 30
0.0
 10
6228.28472450349
 20
257.405253919906
 30
0.0
 10
6228.210353560839
 20
257.6872553600938
 30
0.0
 10
6228.134037505021
 20
257.9774321316061
 30
0.0
 10
6228.053193920672
 20
258.2855651483346
 30
0.0
 10
6227.969941488475
 20
258.6035244473189
 30
0.0
 10
6227.881303885848
 20
258.9427599402262
 30
0.0
 10
6227.789859972956
 20
259.2934898986331
 30
0.0
 10
6227.653538578948
 20
259.8174442345835
 30
0.0
 10
6227.47562389483
 20
260.5032528829038
 30
0.0
 10
6227.329642022247
 20
261.0684534397452
 30
0.0
 10
6227.2566510857
 20
261.351053719148
 30
0.0
 11
6244.93136896322
 21
213.420129251964
 31
0.0
 11
6244.833309864766
 21
213.6163962211669
 31
0.0
 11
6244.735885977156
 21
213.8130355018674
 31
0.0
 11
6244.69228600676
 21
213.9082825341146
 31
0.0
 11
6244.645420525789
 21
213.9985745643204
 31
0.0
 11
6244.604988504811
 21
214.066011515769
 31
0.0
 11
6244.575327991081
 21
214.1477334184498
 31
0.0
 11
6244.564607713772
 21
214.2056988992598
 31
0.0
 11
6244.537250039704
 21
214.238683939261
 31
0.0
 11
6244.529971196035
 21
214.2392035270924
 31
0.0
 11
6244.522091619571
 21
214.2386839392609
 31
0.0
 11
6244.514120305351
 21
214.2378723472241
 31
0.0
 11
6244.506933199437
 21
214.2386839392609
 31
0.0
 11
6244.499049283151
 21
214.2449959371412
 31
0.0
 11
6244.491774779303
 21
214.2538423593951
 31
0.0
 11
6244.483357795762
 21
214.261392829465
 31
0.0
 11
6244.476616359169
 21
214.2690007795292
 31
0.0
 11
6244.474572855918
 21
214.2831804485618
 31
0.0
 11
6244.476616359168
 21
214.2993176198048
 31
0.0
 11
6244.477110815635
 21
214.3147054288969
 31
0.0
 11
6244.476616359168
 21
214.3296344600737
 31
0.0
 11
6244.476579181131
 21
214.337207944749
 31
0.0
 11
6244.476616359168
 21
214.344792880208
 31
0.0
 11
6244.476587859817
 21
214.3523166203929
 31
0.0
 11
6244.476616359168
 21
214.3599513003421
 31
0.0
 11
6244.476572917408
 21
214.3758331221321
 31
0.0
 11
6244.472826754136
 21
214.3902681406142
 31
0.0
 11
6244.458774778374
 21
214.4048135178108
 31
0.0
 11
6244.446299518892
 21
214.4205849808868
 31
0.0
 11
6244.44466333237
 21
214.4284613822749
 31
0.0
 11
6244.442509913855
 21
214.4357434010209
 31
0.0
 11
6244.430554817628
 21
214.4443000466424
 31
0.0
 11
6244.415982678624
 21
214.4509018211548
 31
0.0
 11
6244.405000081969
 21
214.4759970274544
 31
0.0
 11
6244.40082425849
 21
214.5077458966612
 31
0.0
 11
6244.392421349426
 21
214.5250011341984
 31
0.0
 11
6244.385665838357
 21
214.5418523419675
 31
0.0
 11
6244.38528401141
 21
214.5493299438661
 31
0.0
 11
6244.385665838356
 21
214.5570107621016
 31
0.0
 11
6244.385891506872
 21
214.5646230814831
 31
0.0
 11
6244.385665838356
 21
214.5721691822357
 31
0.0
 11
6244.375363554233
 21
214.6109099175468
 31
0.0
 11
6244.351559393055
 21
214.644171677876
 31
0.0
 11
6244.321096707386
 21
214.668149759113
 31
0.0
 11
6244.294715317546
 21
214.6934365433163
 31
0.0
 11
6244.279563517427
 21
214.7344477360259
 31
0.0
 11
6244.264398477279
 21
214.7768078540573
 31
0.0
 11
6244.249172599857
 21
214.7959101098284
 31
0.0
 11
6244.234081637011
 21
214.8147039043968
 31
0.0
 11
6244.22207824709
 21
214.8504655182483
 31
0.0
 11
6244.218923216868
 21
214.8904960050711
 31
0.0
 11
6244.21492208234
 21
214.9300040587997
 31
0.0
 11
6244.203764796729
 21
214.9662881057456
 31
0.0
 11
6244.169285625587
 21
215.013502296264
 31
0.0
 11
6244.13555190613
 21
215.0610282315919
 31
0.0
 11
6244.122585199921
 21
215.1190069810508
 31
0.0
 11
6244.112814275925
 21
215.1785059876395
 31
0.0
 11
6244.074107362575
 21
215.2457740359657
 31
0.0
 11
6244.029442965179
 21
215.3111421638213
 31
0.0
 11
6244.009527617375
 21
215.3657061379333
 31
0.0
 11
6243.991546914845
 21
215.4210407098006
 31
0.0
 11
6243.96616513823
 21
215.469569102612
 31
0.0
 11
6243.938773155856
 21
215.5176054602864
 31
0.0
 11
6243.917520056588
 21
215.5638871910912
 31
0.0
 11
6243.892736472484
 21
215.6074331351612
 31
0.0
 11
6243.866934752675
 21
215.6359504476851
 31
0.0
 11
6243.839962713492
 21
215.6635754319626
 31
0.0
 11
6243.781435007539
 21
215.7737582385992
 31
0.0
 11
6243.745222587651
 21
215.8985309440542
 31
0.0
 11
6243.689638090617
 21
216.0409039025936
 31
0.0
 11
6243.627744831603
 21
216.1789617165531
 31
0.0
 11
6243.592658949202
 21
216.267134143003
 31
0.0
 11
6243.557005537634
 21
216.3552485284978
 31
0.0
 11
6243.513364428173
 21
216.4476255072397
 31
0.0
 11
6243.466055016822
 21
216.5382724160549
 31
0.0
 11
6243.409175166622
 21
216.6460256280726
 31
0.0
 11
6243.354893269162
 21
216.7549816816894
 31
0.0
 11
6243.283983110055
 21
216.915636213233
 31
0.0
 11
6243.214677882921
 21
217.0770981095561
 31
0.0
 11
6243.133396139649
 21
217.2496225018212
 31
0.0
 11
6243.051724866469
 21
217.4219521676303
 31
0.0
 11
6243.005948133958
 21
217.5260311542144
 31
0.0
 11
6242.960774345658
 21
217.6303804444856
 31
0.0
 11
6242.917803396345
 21
217.7243803937541
 31
0.0
 11
6242.869823824841
 21
217.8160710911407
 31
0.0
 11
6242.823407184554
 21
217.894202660266
 31
0.0
 11
6242.782241841836
 21
217.9743923681106
 31
0.0
 11
6242.756141608941
 21
218.0524153767731
 31
0.0
 11
6242.735082312531
 21
218.1327136450764
 31
0.0
 11
6242.714120425694
 21
218.2028743687321
 31
0.0
 11
6242.687922783225
 21
218.270823695195
 31
0.0
 11
6242.638402531828
 21
218.366022063286
 31
0.0
 11
6242.584620957119
 21
218.4594618124333
 31
0.0
 11
6242.542900147816
 21
218.5421081315546
 31
0.0
 11
6242.508267433475
 21
218.6278887028248
 31
0.0
 11
6242.478281686792
 21
218.7229904336652
 31
0.0
 11
6242.44538806106
 21
218.8165268200632
 31
0.0
 11
6242.381220093833
 21
218.9359188600319
 31
0.0
 11
6242.308962279849
 21
219.0519560327858
 31
0.0
 11
6242.23647982499
 21
219.1917665115023
 31
0.0
 11
6242.172536498631
 21
219.3357027096893
 31
0.0
 11
6242.104156744974
 21
219.4917496622732
 31
0.0
 11
6242.036110717409
 21
219.6478714243453
 31
0.0
 11
6241.967870795321
 21
219.8081972700257
 31
0.0
 11
6241.899684936197
 21
219.9685667503265
 31
0.0
 11
6241.765960190519
 21
220.2710511504007
 31
0.0
 11
6241.626833373767
 21
220.5711139506976
 31
0.0
 11
6241.489044952521
 21
220.8604135535307
 31
0.0
 11
6241.353981811336
 21
221.1509235208672
 31
0.0
 11
6241.254444778967
 21
221.3778425946093
 31
0.0
 11
6241.15692234958
 21
221.6056761249188
 31
0.0
 11
6241.058642569765
 21
221.8331664053988
 31
0.0
 11
6240.959862887822
 21
222.0604287289773
 31
0.0
 11
6240.829823118493
 21
222.3601108638006
 31
0.0
 11
6240.698380140489
 21
222.659186324311
 31
0.0
 11
6240.554347560173
 21
222.9804698263187
 31
0.0
 11
6240.414159762958
 21
223.3034191800533
 31
0.0
 11
6240.341989369702
 21
223.4789505359304
 31
0.0
 11
6240.268189791287
 21
223.6537471120616
 31
0.0
 11
6240.18294924459
 21
223.8395426951045
 31
0.0
 11
6240.095271517154
 21
224.0242862709208
 31
0.0
 11
6240.010349052867
 21
224.2087527303123
 31
0.0
 11
6239.929090318634
 21
224.39482542978
 31
0.0
 11
6239.838791992829
 21
224.6129976977952
 31
0.0
 11
6239.747189277014
 21
224.8306300086601
 31
0.0
 11
6239.654623752604
 21
225.0365114154115
 31
0.0
 11
6239.565288235393
 21
225.2436969573459
 31
0.0
 11
6239.492901979249
 21
225.4348295842528
 31
0.0
 11
6239.41931826372
 21
225.6254645755623
 31
0.0
 11
6239.332633972516
 21
225.8196205341492
 31
0.0
 11
6239.246399989589
 21
226.0139692693956
 31
0.0
 11
6239.163310075281
 21
226.2352174634375
 31
0.0
 11
6239.080218791073
 21
226.4563705681537
 31
0.0
 11
6238.948150311094
 21
226.7415671338834
 31
0.0
 11
6238.811156833674
 21
227.0248113232196
 31
0.0
 11
6238.685439039506
 21
227.330725513093
 31
0.0
 11
6238.564832506479
 21
227.6387273386937
 31
0.0
 11
6238.448534918069
 21
227.9050919396218
 31
0.0
 11
6238.32608738935
 21
228.1692720434159
 31
0.0
 11
6238.208720458
 21
228.4313366348955
 31
0.0
 11
6238.110079902423
 21
228.6998167481443
 31
0.0
 11
6238.090347524759
 21
228.7670310773436
 31
0.0
 11
6238.070780294662
 21
228.8345582604573
 31
0.0
 11
6238.048120932227
 21
228.9036393425272
 31
0.0
 11
6238.018006535676
 21
228.9692997727705
 31
0.0
 11
6237.988016742539
 21
229.0163910218446
 31
0.0
 11
6237.958495701075
 21
229.0636188313866
 31
0.0
 11
6237.925626398184
 21
229.1414133968003
 31
0.0
 11
6237.897862020532
 21
229.2219401083545
 31
0.0
 11
6237.868220154545
 21
229.2913460324223
 31
0.0
 11
6237.837228339989
 21
229.3600501584737
 31
0.0
 11
6237.806335256866
 21
229.4389503493294
 31
0.0
 11
6237.776594659446
 21
229.5183714354422
 31
0.0
 11
6237.708689615831
 21
229.6768469264695
 31
0.0
 11
6237.643958483269
 21
229.8366982582808
 31
0.0
 11
6237.594345540429
 21
229.9984403187119
 31
0.0
 11
6237.534059937285
 21
230.155025081114
 31
0.0
 11
6237.492999509249
 21
230.2267791106658
 31
0.0
 11
6237.452092183965
 21
230.2987493609141
 31
0.0
 11
6237.417439476082
 21
230.3770944792361
 31
0.0
 11
6237.383598581875
 21
230.4559477919461
 31
0.0
 11
6237.351904266335
 21
230.5174172582737
 31
0.0
 11
6237.321842055405
 21
230.5794608449005
 31
0.0
 11
6237.289698916396
 21
230.676107205708
 31
0.0
 11
6237.257418769821
 21
230.7727307016228
 31
0.0
 11
6237.213980052692
 21
230.8580908502021
 31
0.0
 11
6237.170257854044
 21
230.9432629281433
 31
0.0
 11
6237.143986294916
 21
231.019599090539
 31
0.0
 11
6237.124782593643
 21
231.0986367345255
 31
0.0
 11
6237.104360756222
 21
231.1886073080041
 31
0.0
 11
6237.079307333237
 21
231.2767481711095
 31
0.0
 11
6237.023253585094
 21
231.4090840763637
 31
0.0
 11
6236.958987373411
 21
231.5387046190715
 31
0.0
 11
6236.887021204575
 21
231.7039512943394
 31
0.0
 11
6236.821614190939
 21
231.8717161614161
 31
0.0
 11
6236.741829255197
 21
232.0752586257936
 31
0.0
 11
6236.661503378265
 21
232.2786250019186
 31
0.0
 11
6236.567373713018
 21
232.5205119299657
 31
0.0
 11
6236.472970527835
 21
232.7622733443555
 31
0.0
 11
6236.333918090143
 21
233.1078357088911
 31
0.0
 11
6236.193381889784
 21
233.4528235949511
 31
0.0
 11
6236.051630130996
 21
233.8074396622408
 31
0.0
 11
6235.913793251737
 21
234.1635850723956
 31
0.0
 11
6235.784328887591
 21
234.5089536040915
 31
0.0
 11
6235.654415840536
 21
234.8541353229971
 31
0.0
 11
6235.461751147731
 21
235.343950232531
 31
0.0
 11
6235.264086522057
 21
235.8318534217105
 31
0.0
 11
6235.0769592066
 21
236.2967092356147
 31
0.0
 11
6234.896494833789
 21
236.7640962600214
 31
0.0
 11
6234.713963644663
 21
237.2678671857025
 31
0.0
 11
6234.532692750546
 21
237.7721311990033
 31
0.0
 11
6234.351400257014
 21
238.2536380007132
 31
0.0
 11
6234.168890667299
 21
238.7346908775824
 31
0.0
 11
6233.991684334631
 21
239.2206033866769
 31
0.0
 11
6233.820247004191
 21
239.7086193712624
 31
0.0
 11
6233.647837012732
 21
240.2076513539126
 31
0.0
 11
6233.471603341082
 21
240.7052854951429
 31
0.0
 11
6233.299051796778
 21
241.1694597027307
 31
0.0
 11
6233.12674928301
 21
241.633738728418
 31
0.0
 11
6232.960696838903
 21
242.1076130218341
 31
0.0
 11
6232.804632855136
 21
242.5849295919004
 31
0.0
 11
6232.661634760401
 21
243.0444829610916
 31
0.0
 11
6232.512833267534
 21
243.5020140100726
 31
0.0
 11
6232.355765102128
 21
243.9378746781721
 31
0.0
 11
6232.198296049731
 21
244.3736231678355
 31
0.0
 11
6232.050685529791
 21
244.8220973158783
 31
0.0
 11
6231.906496462134
 21
245.2717595608408
 31
0.0
 11
6231.74996791719
 21
245.7324460349333
 31
0.0
 11
6231.591959244326
 21
246.1926335840474
 31
0.0
 11
6231.421127356889
 21
246.7212800801634
 31
0.0
 11
6231.262263606391
 21
247.2537229935068
 31
0.0
 11
6231.11255484056
 21
247.7854769865343
 31
0.0
 11
6230.955305598658
 21
248.3148124029658
 31
0.0
 11
6230.845171285056
 21
248.6454370168942
 31
0.0
 11
6230.728490719597
 21
248.9739229673575
 31
0.0
 11
6230.610190601737
 21
249.2995991533384
 31
0.0
 11
6230.49493876492
 21
249.6262964561353
 31
0.0
 11
6230.387651116534
 21
249.9545857063301
 31
0.0
 11
6230.288335112715
 21
250.2854070205263
 31
0.0
 11
6230.156678407622
 21
250.7626586611214
 31
0.0
 11
6230.026852365385
 21
251.2403874890393
 31
0.0
 11
6229.88783907888
 21
251.7187616862578
 31
0.0
 11
6229.74263198785
 21
252.1953679575504
 31
0.0
 11
6229.600389457994
 21
252.6590161645102
 31
0.0
 11
6229.462201215349
 21
253.1238211908243
 31
0.0
 11
6229.341953910914
 21
253.5531498390235
 31
0.0
 11
6229.227245703255
 21
253.9840615334949
 31
0.0
 11
6229.114859521153
 21
254.4150999481806
 31
0.0
 11
6228.996079796196
 21
254.8443018761579
 31
0.0
 11
6228.868100342582
 21
255.262761354132
 31
0.0
 11
6228.74217625893
 21
255.6818045886265
 31
0.0
 11
6228.679666569267
 21
255.9119434481531
 31
0.0
 11
6228.619370183051
 21
256.1427120518833
 31
0.0
 11
6228.555860708733
 21
256.3827236759537
 31
0.0
 11
6228.491823202106
 21
256.6225831353912
 31
0.0
 11
6228.424282510098
 21
256.8769495943495
 31
0.0
 11
6228.357040102912
 21
257.1313986919142
 31
0.0
 11
6228.284738994147
 21
257.4052581228373
 31
0.0
 11
6228.212525672263
 21
257.6791395742162
 31
0.0
 11
6228.134066960755
 21
257.9774397439385
 31
0.0
 11
6228.055784696984
 21
258.2757866350611
 31
0.0
 11
6227.969969460678
 21
258.6035318024743
 31
0.0
 11
6227.884321963884
 21
258.9313207272133
 31
0.0
 11
6227.789890874469
 21
259.2934979314165
 31
0.0
 11
6227.695642259761
 21
259.655722703436
 31
0.0
 11
6227.475774834854
 21
260.5032919239745
 31
0.0
 11
6227.2566510857
 21
261.351053719148
 31
0.0
  0
SPLINE
  5
AB
330
1F
100
AcDbEntity
  8
$DDT_AUDIT_GENERATED__E2_
  6
Continuous
 62
     5
100
AcDbSpline
210
0.0
220
0.0
230
1.0
 70
     8
 71
     3
 72
    71
 73
    67
 74
    65
 42
0.0000000001
 43
0.0000000001
 44
0.00000001
 40
0.0
 40
0.0
 40
0.0
 40
0.0
 40
0.0454752604013606
 40
0.0909505208030623
 40
0.1548970341459781
 40
0.2188461609388413
 40
0.3077253259857416
 40
0.3966053402328319
 40
0.5151032245335805
 40
0.6336002429441514
 40
0.786385269686667
 40
0.9391708187125647
 40
1.13090488169692
 40
1.322639630860962
 40
1.5579837357039
 40
1.793319461448233
 40
2.282531831702316
 40
2.771798554519577
 40
3.289471860248451
 40
3.807052039645916
 40
4.340931118768812
 40
4.874789582220687
 40
5.218383275815507
 40
5.561994564251894
 40
5.918404334453917
 40
6.27483228383367
 40
6.626510179118429
 40
6.97821024758494
 40
7.307563128612526
 40
7.636889395600477
 40
7.8348765572733
 40
8.032439577738156
 40
8.204381595478845
 40
8.375657032669192
 40
8.4874257311753
 40
8.599661066874472
 40
8.721476483581979
 40
8.843161893619213
 40
8.984524486715793
 40
9.125958659016865
 40
9.307780889872133
 40
9.4894803647399
 40
9.692508208003328
 40
9.894324295470211
 40
10.01882992649697
 40
10.1436976636132
 40
10.25445653870326
 40
10.36525512760877
 40
10.47518014432294
 40
10.58495795464425
 40
10.69230453591064
 40
10.79994364921261
 40
10.89447707903305
 40
10.98881767962622
 40
11.09692985763775
 40
11.20489329111019
 40
11.24833850762303
 40
11.29168208074098
 40
11.34003760060694
 40
11.38827511023757
 40
11.4515545306167
 40
11.51502873870821
 40
11.60193006840406
 40
11.6895110206191
 40
11.94483525635919
 40
12.19997009880282
 40
12.19997009880282
 40
12.19997009880282
 40
12.19997009880282
 10
6069.39686379877
 20
260.744716913743
 30
0.0
 10
6069.396854920879
 20
260.7295585160398
 30
0.0
 10
6069.396837165098
 20
260.6992417206334
 30
0.0
 10
6069.396988363686
 20
260.647608993904
 30
0.0
 10
6069.396180311383
 20
260.5898207353266
 30
0.0
 10
6069.394084513224
 20
260.5175910379949
 30
0.0
 10
6069.390586936605
 20
260.43709453274
 30
0.0
 10
6069.385184077571
 20
260.3384891783863
 30
0.0
 10
6069.378480723537
 20
260.2300703248717
 30
0.0
 10
6069.369649281837
 20
260.1004435727741
 30
0.0
 10
6069.359306884418
 20
259.9594659632781
 30
0.0
 10
6069.346512267141
 20
259.7941920408407
 30
0.0
 10
6069.332274292054
 20
259.616008342475
 30
0.0
 10
6069.315093280746
 20
259.4104532304517
 30
0.0
 10
6069.295587199455
 20
259.190511926038
 30
0.0
 10
6069.2679133995
 20
258.8717432566652
 30
0.0
 10
6069.238695181271
 20
258.4681846138034
 30
0.0
 10
6069.203306618344
 20
257.9707211529168
 30
0.0
 10
6069.158480377589
 20
257.4644925540297
 30
0.0
 10
6069.098382118902
 20
256.944797301495
 30
0.0
 10
6069.018590736456
 20
256.422386121261
 30
0.0
 10
6068.948129006174
 20
255.9572005410201
 30
0.0
 10
6068.900253836039
 20
255.5529792972004
 30
0.0
 10
6068.859598857422
 20
255.2074847643801
 30
0.0
 10
6068.809940742033
 20
254.8588174091041
 30
0.0
 10
6068.7535530803
 20
254.5084757883803
 30
0.0
 10
6068.693453969248
 20
254.1603606943614
 30
0.0
 10
6068.635530015591
 20
253.8210037691052
 30
0.0
 10
6068.583736284851
 20
253.4882620588479
 30
0.0
 10
6068.530237140628
 20
253.2074845867127
 30
0.0
 10
6068.46960377262
 20
252.9736710842505
 30
0.0
 10
6068.431196568809
 20
252.7879281391934
 30
0.0
 10
6068.419383644763
 20
252.6079836852076
 30
0.0
 10
6068.40405225909
 20
252.4566146095869
 30
0.0
 10
6068.369226136861
 20
252.3292486525813
 30
0.0
 10
6068.334034133214
 20
252.2195178574274
 30
0.0
 10
6068.302891649964
 20
252.1050447186688
 30
0.0
 10
6068.273263959406
 20
251.9802175816529
 30
0.0
 10
6068.244726790611
 20
251.8484445750518
 30
0.0
 10
6068.21210982075
 20
251.6970279379586
 30
0.0
 10
6068.173086258172
 20
251.533349812218
 30
0.0
 10
6068.137698929891
 20
251.347459744779
 30
0.0
 10
6068.12480391037
 20
251.1523975627454
 30
0.0
 10
6068.103967116347
 20
250.9763117804119
 30
0.0
 10
6068.05842923552
 20
250.8326698719078
 30
0.0
 10
6068.020452207432
 20
250.718733097059
 30
0.0
 10
6067.995819119024
 20
250.6057979630257
 30
0.0
 10
6067.973448974002
 20
250.4975599913024
 30
0.0
 10
6067.942720567673
 20
250.3917230912709
 30
0.0
 10
6067.91352154587
 20
250.2866068057244
 30
0.0
 10
6067.895197751127
 20
250.1797772582505
 30
0.0
 10
6067.881906404402
 20
250.0774795864197
 30
0.0
 10
6067.867508382657
 20
249.9796928426629
 30
0.0
 10
6067.847478999571
 20
249.8825796367117
 30
0.0
 10
6067.816005607307
 20
249.7840095242248
 30
0.0
 10
6067.792620660216
 20
249.7004545894486
 30
0.0
 10
6067.78332960166
 20
249.6362037709753
 30
0.0
 10
6067.775107927622
 20
249.5917900017301
 30
0.0
 10
6067.759344810309
 20
249.5478285493541
 30
0.0
 10
6067.741973296354
 20
249.4972565474999
 30
0.0
 10
6067.735955739077
 20
249.4389319248532
 30
0.0
 10
6067.730919539364
 20
249.3677657667539
 30
0.0
 10
6067.707244275683
 20
249.2914600825016
 30
0.0
 10
6067.654149318284
 20
249.1582728870016
 30
0.0
 10
6067.628203266398
 20
248.9587288060191
 30
0.0
 10
6067.594632525306
 20
248.7921765546171
 30
0.0
 10
6067.57785338256
 20
248.708931326476
 30
0.0
 11
6069.39686379877
 21
260.744716913743
 31
0.0
 11
6069.396863798772
 21
260.6992416533416
 31
0.0
 11
6069.396863798773
 21
260.6537663929399
 31
0.0
 11
6069.396020228453
 21
260.5898254439492
 31
0.0
 11
6069.394197039672
 21
260.5259023119841
 31
0.0
 11
6069.3904195535
 21
260.4371034573875
 31
0.0
 11
6069.385635339407
 21
260.3483522983637
 31
0.0
 11
6069.378357042112
 21
260.2300781466134
 31
0.0
 11
6069.370336563536
 21
260.1118528731073
 31
0.0
 11
6069.359204579646
 21
259.9594739266239
 31
0.0
 11
6069.347458577591
 21
259.8071405572432
 31
0.0
 11
6069.332157958463
 21
259.616017973641
 31
0.0
 11
6069.316159247122
 21
259.4249518718007
 31
0.0
 11
6069.295659537195
 21
259.190502283238
 31
0.0
 11
6069.275596437685
 21
258.9560233378087
 31
0.0
 11
6069.238798814908
 21
258.468196854141
 31
0.0
 11
6069.202611451852
 21
257.9802702194802
 31
0.0
 11
6069.15617461433
 21
257.4646838818168
 31
0.0
 11
6069.095941087942
 21
256.950620496227
 31
0.0
 11
6069.018698013106
 21
256.4223588389823
 31
0.0
 11
6068.942111194719
 21
255.8940224705117
 31
0.0
 11
6068.900297790217
 21
255.5529824941423
 31
0.0
 11
6068.858739883975
 21
255.2118935644338
 31
0.0
 11
6068.808878540794
 21
254.8589888028455
 31
0.0
 11
6068.752630943026
 21
254.5070270281535
 31
0.0
 11
6068.693564158313
 21
254.1603449591398
 31
0.0
 11
6068.63515318698
 21
253.8135293069739
 31
0.0
 11
6068.581892328493
 21
253.4885114594726
 31
0.0
 11
6068.517675430936
 21
253.1655068461985
 31
0.0
 11
6068.471150685882
 21
252.9730637006076
 31
0.0
 11
6068.434304120195
 21
252.7789671327548
 31
0.0
 11
6068.418348162286
 21
252.6077670601147
 31
0.0
 11
6068.396408069859
 21
252.4379026797137
 31
0.0
 11
6068.368505513877
 21
252.3296728809731
 31
0.0
 11
6068.335774389312
 21
252.2223162600118
 31
0.0
 11
6068.303523883752
 21
252.1048475380525
 31
0.0
 11
6068.275140708773
 21
251.9865186134651
 31
0.0
 11
6068.244756630135
 21
251.8484599647235
 31
0.0
 11
6068.214507028232
 21
251.7102985132285
 31
0.0
 11
6068.174424528934
 21
251.5329493748512
 31
0.0
 11
6068.14250453259
 21
251.354075640053
 31
0.0
 11
6068.123007855827
 21
251.1519860937242
 31
0.0
 11
6068.093239667151
 21
250.9523775064755
 31
0.0
 11
6068.058184528828
 21
250.8329087263089
 31
0.0
 11
6068.021237171511
 21
250.7136323893439
 31
0.0
 11
6067.996022456072
 21
250.6057818143035
 31
0.0
 11
6067.971972306065
 21
250.4976249024203
 31
0.0
 11
6067.942910101357
 21
250.391611235579
 31
0.0
 11
6067.915128230565
 21
250.2854070205299
 31
0.0
 11
6067.895936789961
 21
250.1797898954169
 31
0.0
 11
6067.881021785253
 21
250.0731891386325
 31
0.0
 11
6067.866605506997
 21
249.9797614110841
 31
0.0
 11
6067.846915339951
 21
249.887498491978
 31
0.0
 11
6067.816600848313
 21
249.7837233763138
 31
0.0
 11
6067.790071264453
 21
249.6790702151222
 31
0.0
 11
6067.783039218404
 21
249.6361978794475
 31
0.0
 11
6067.774351421351
 21
249.5937339239912
 31
0.0
 11
6067.759428010312
 21
249.5477388361613
 31
0.0
 11
6067.745157427014
 21
249.501660557247
 31
0.0
 11
6067.736304130831
 21
249.4390035210084
 31
0.0
 11
6067.729437583906
 21
249.3759018124248
 31
0.0
 11
6067.706271489131
 21
249.2921451819064
 31
0.0
 11
6067.676663824915
 21
249.209720613903
 31
0.0
 11
6067.625336829456
 21
248.9596086291973
 31
0.0
 11
6067.57785338256
 21
248.708931326476
 31
0.0
  0
SPLINE
  5
AC
330
1F
100
AcDbEntity
  8
$DDT_AUDIT_GENERATED__E2_
  6
Continuous
 62
     5
100
AcDbSpline
210
0.0
220
0.0
230
1.0
 70
     8
 71
     3
 72
   285
 73
   281
 74
   279
 42
0.0000000001
 43
0.0000000001
 44
0.00000001
 40
0.0
 40
0.0
 40
0.0
 40
0.0
 40
0.0151570369655466
 40
0.0303168413825133
 40
0.0454724962734318
 40
0.0606336860681458
 40
0.075804604436245
 40
0.0909506158081584
 40
0.0947317861930377
 40
0.0985299933291179
 40
0.1257118684130679
 40
0.1517019679510607
 40
0.1874405112749674
 40
0.2254567766080638
 40
0.2574453560946216
 40
0.2893723478413042
 40
0.319427302288466
 40
0.3501263293317842
 40
0.3819362374353559
 40
0.4113181863845834
 40
0.4248194339168149
 40
0.4386561564079499
 40
0.4732294744623907
 40
0.5090443701465815
 40
0.5804827584680815
 40
0.6506073943484324
 40
0.7344507263269088
 40
0.8188385129796655
 40
0.9601454130490357
 40
1.101058292402133
 40
1.239612266862512
 40
1.378361124687576
 40
1.532008316845165
 40
1.685519958542199
 40
1.841301046852751
 40
1.997180159673175
 40
2.098940199851023
 40
2.200649314097883
 40
2.304874587940155
 40
2.409036595899482
 40
2.50099915962031
 40
2.593061468390473
 40
2.741580309497871
 40
2.8900256437823
 40
3.036090701491491
 40
3.182225031195904
 40
3.307874211011448
 40
3.433461263902347
 40
3.572700094105567
 40
3.711999699774872
 40
3.881676603974944
 40
4.051336926595456
 40
4.226772532354416
 40
4.402218720768598
 40
4.601430540187289
 40
4.800609680554287
 40
5.113066938993769
 40
5.425628308894479
 40
5.73819184920559
 40
6.050639669533115
 40
6.263581404087038
 40
6.476664645547261
 40
6.685851609839787
 40
6.89486177118556
 40
7.107737808227653
 40
7.31946017705423
 40
7.47812704979366
 40
7.637882400536188
 40
7.797885059927512
 40
8.046345812971373
 40
8.29472301798735
 40
8.535984879534094
 40
8.776917426062314
 40
9.031731646079718
 40
9.286838986373207
 40
9.537927383906638
 40
9.789117135732235
 40
10.04114316637328
 40
10.29316316340131
 40
10.53669867193475
 40
10.78025065764828
 40
11.02892765106778
 40
11.27759241258728
 40
11.51449396604848
 40
11.75127207550148
 40
12.03623448313102
 40
12.32129137485208
 40
12.57359417275062
 40
12.82587876101787
 40
13.09239642434114
 40
13.3590493037026
 40
13.62565319805671
 40
13.892204412366
 40
14.17088082624694
 40
14.4495638969924
 40
14.73196056994481
 40
15.01423550445994
 40
15.14439836215386
 40
15.27454044421521
 40
15.37973001657967
 40
15.4850270257006
 40
15.57208158538397
 40
15.65892022794911
 40
15.74592822569081
 40
15.83305799486356
 40
15.93264629730428
 40
16.03233338335929
 40
16.1100131320154
 40
16.18756947382706
 40
16.28398107264929
 40
16.38025808439524
 40
16.4895224551884
 40
16.59937191432848
 40
16.64818081258995
 40
16.6967227231005
 40
16.75170022979955
 40
16.80431157532979
 40
16.84266945844119
 40
16.88051084028183
 40
16.92672284539978
 40
16.97305258115782
 40
17.01415033473369
 40
17.05848039155019
 40
17.10270859506045
 40
17.14640917893353
 40
17.19029991341072
 40
17.24354948716642
 40
17.29772439178145
 40
17.35245267596217
 40
17.40529071030505
 40
17.45671241865834
 40
17.50947018351954
 40
17.54603306694053
 40
17.58243446666232
 40
17.62322069487703
 40
17.66406720087754
 40
17.70492869430198
 40
17.74570075646769
 40
17.89703177110003
 40
18.04918474905933
 40
18.22884341116311
 40
18.4088574640508
 40
18.62044310815045
 40
18.83192623362602
 40
19.0183689437937
 40
19.20472321915683
 40
19.33693447245824
 40
19.46932014025346
 40
19.59009670593924
 40
19.710555973939
 40
19.8378557926156
 40
19.96448637364464
 40
20.11422111061474
 40
20.26514978437439
 40
20.42212650014319
 40
20.57927610652564
 40
20.71234814325924
 40
20.84536615014814
 40
21.01431873180915
 40
21.18334359940071
 40
21.30080658357768
 40
21.41812875618656
 40
21.53309477366262
 40
21.64877893933452
 40
21.73929921296271
 40
21.82691698006513
 40
21.86245349380006
 40
21.89907080186637
 40
21.9244604616334
 40
21.94858558038868
 40
21.97643919935702
 40
22.0045397858665
 40
22.04040916451871
 40
22.07671027512735
 40
22.13092212600257
 40
22.18890072645259
 40
22.26157650020797
 40
22.33417062441309
 40
22.40440441930956
 40
22.47453232096507
 40
22.56058207788753
 40
22.64658896538625
 40
22.73140876922742
 40
22.81458308427074
 40
22.88297411964255
 40
22.95196220892113
 40
23.02768924886486
 40
23.10367532612235
 40
23.17638022628629
 40
23.24986788377368
 40
23.3133244229518
 40
23.37553718999904
 40
23.44502916195383
 40
23.51586654975071
 40
23.58609605409447
 40
23.65600410871853
 40
23.74802593944423
 40
23.83989868036719
 40
23.9736236829324
 40
24.10828126602928
 40
24.25393647725334
 40
24.39803788870208
 40
24.51908149400011
 40
24.63978317035013
 40
24.75516270454096
 40
24.87141638280048
 40
25.03313685928554
 40
25.1952103300894
 40
25.36460738864533
 40
25.53371784764456
 40
25.71141433974461
 40
25.88907686374644
 40
26.14036804395449
 40
26.39211660173345
 40
26.67147360797508
 40
26.95061671426284
 40
27.2511606726225
 40
27.5514566125176
 40
27.84726163166409
 40
28.14351834532933
 40
28.46477456941416
 40
28.78597468300184
 40
29.11265580480331
 40
29.43926621194124
 40
29.75135947318967
 40
30.06373208599119
 40
30.18107060066792
 40
30.29820768787875
 40
30.41330444622264
 40
30.52814026980446
 40
30.63523674204203
 40
30.74281384443179
 40
30.87541768921848
 40
31.00770997911608
 40
31.17927102289849
 40
31.35076999351502
 40
31.5153354740942
 40
31.67946130348232
 40
31.78598176546481
 40
31.89295428991296
 40
31.97929739925939
 40
32.06357097805906
 40
32.12967593632624
 40
32.19626758834594
 40
32.25250094524547
 40
32.30940631089951
 40
32.39357010106747
 40
32.47630549233841
 40
32.54399066476285
 40
32.61090547715765
 40
32.68372874402138
 40
32.75824571577058
 40
32.80988043768043
 40
32.86138507781472
 40
32.92900216210001
 40
32.99681483327944
 40
33.0397413798499
 40
33.082413277443
 40
33.12800405346114
 40
33.17344492572768
 40
33.22060584268811
 40
33.26835399159098
 40
33.38529313419089
 40
33.50150032102913
 40
33.63279797459151
 40
33.76440302503411
 40
33.92926640208257
 40
34.09394086330261
 40
34.29306458726716
 40
34.49233793243108
 40
34.71088557604013
 40
34.92940137335068
 40
35.17187677431982
 40
35.41435949580406
 40
35.68539008987082
 40
35.95641871933663
 40
36.26059315890929
 40
36.56476821544178
 40
37.29093171537353
 40
38.01709534535055
 40
38.01709534535055
 40
38.01709534535055
 40
38.01709534535055
 10
6067.63848706309
 20
249.133367090264
 30
0.0
 10
6067.638484635148
 20
249.1283147454177
 30
0.0
 10
6067.638479778823
 20
249.1182091332416
 30
0.0
 10
6067.638491648481
 20
249.1030516256625
 30
0.0
 10
6067.638476005851
 20
249.0878927787958
 30
0.0
 10
6067.638477599322
 20
249.0727300684584
 30
0.0
 10
6067.638535988552
 20
249.0575711630299
 30
0.0
 10
6067.638525284767
 20
249.0462040210516
 30
0.0
 10
6067.638453174612
 20
249.0386303992358
 30
0.0
 10
6067.638502154702
 20
249.0270346744602
 30
0.0
 10
6067.640767072928
 20
249.0083138541325
 30
0.0
 10
6067.64071009913
 20
248.9777579294496
 30
0.0
 10
6067.62032604014
 20
248.9496285645344
 30
0.0
 10
6067.596179195861
 20
248.9240960673122
 30
0.0
 10
6067.582770899681
 20
248.8921200921604
 30
0.0
 10
6067.577394117201
 20
248.8611960494428
 30
0.0
 10
6067.575283003556
 20
248.8303330648812
 30
0.0
 10
6067.577190837124
 20
248.7993460834114
 30
0.0
 10
6067.583262486287
 20
248.769583239686
 30
0.0
 10
6067.581649396048
 20
248.7433264305935
 30
0.0
 10
6067.570695543686
 20
248.7276259700366
 30
0.0
 10
6067.558048869688
 20
248.7113023312432
 30
0.0
 10
6067.549580230456
 20
248.6835744743966
 30
0.0
 10
6067.547123429319
 20
248.6364639174394
 30
0.0
 10
6067.541025512408
 20
248.5775542022139
 30
0.0
 10
6067.528579964738
 20
248.5034193693327
 30
0.0
 10
6067.509830303528
 20
248.4261516610579
 30
0.0
 10
6067.481754441144
 20
248.326868941252
 30
0.0
 10
6067.44833627208
 20
248.2093255004892
 30
0.0
 10
6067.413770520194
 20
248.0733373847984
 30
0.0
 10
6067.38720592733
 20
247.9364258163546
 30
0.0
 10
6067.36460382396
 20
247.7945582551818
 30
0.0
 10
6067.342912433547
 20
247.6475186069015
 30
0.0
 10
6067.317503044229
 20
247.4952726705824
 30
0.0
 10
6067.284297074468
 20
247.3437500268068
 30
0.0
 10
6067.249589234943
 20
247.2103583397911
 30
0.0
 10
6067.21683892648
 20
247.0951474508866
 30
0.0
 10
6067.190510955688
 20
246.9959814831805
 30
0.0
 10
6067.169336537696
 20
246.8947997585591
 30
0.0
 10
6067.147720660942
 20
246.7969964401823
 30
0.0
 10
6067.120286158241
 20
246.7048845387251
 30
0.0
 10
6067.086640372485
 20
246.5992747688886
 30
0.0
 10
6067.052044345926
 20
246.4742365840378
 30
0.0
 10
6067.019709386215
 20
246.3300736790431
 30
0.0
 10
6066.994885126594
 20
246.1852746749428
 30
0.0
 10
6066.973160276406
 20
246.0476996471625
 30
0.0
 10
6066.949573836024
 20
245.9173442875158
 30
0.0
 10
6066.922208963759
 20
245.7900538842232
 30
0.0
 10
6066.887685559826
 20
245.6598121802993
 30
0.0
 10
6066.847101279049
 20
245.5160288729118
 30
0.0
 10
6066.806791030971
 20
245.3616442517124
 30
0.0
 10
6066.766341019755
 20
245.1948838682173
 30
0.0
 10
6066.727707948348
 20
245.0257207637437
 30
0.0
 10
6066.688879796478
 20
244.8465105315213
 30
0.0
 10
6066.650106536645
 20
244.6592039850491
 30
0.0
 10
6066.600560328333
 20
244.4274796739611
 30
0.0
 10
6066.535233780496
 20
244.1605835722319
 30
0.0
 10
6066.455971896647
 20
243.858278357067
 30
0.0
 10
6066.377659975818
 20
243.5557231724389
 30
0.0
 10
6066.311246892969
 20
243.2843938828104
 30
0.0
 10
6066.257430523709
 20
243.0441884563313
 30
0.0
 10
6066.211074516676
 20
242.8375817161183
 30
0.0
 10
6066.16169918754
 20
242.633032563211
 30
0.0
 10
6066.098991513551
 20
242.4317805674997
 30
0.0
 10
6066.013520622618
 20
242.2386221126424
 30
0.0
 10
6065.940951073087
 20
242.0576547593864
 30
0.0
 10
6065.902999709613
 20
241.8845526847286
 30
0.0
 10
6065.880008044765
 20
241.7267915690515
 30
0.0
 10
6065.852970635004
 20
241.5392311616026
 30
0.0
 10
6065.803145930389
 20
241.3258154231411
 30
0.0
 10
6065.741402853821
 20
241.0876337294519
 30
0.0
 10
6065.693715811627
 20
240.8488068967209
 30
0.0
 10
6065.640399333299
 20
240.6087561256138
 30
0.0
 10
6065.561534667185
 20
240.3709766326862
 30
0.0
 10
6065.477871472574
 20
240.1314641979821
 30
0.0
 10
6065.411970675933
 20
239.8875915431531
 30
0.0
 10
6065.351321524621
 20
239.6436004074721
 30
0.0
 10
6065.282997782155
 20
239.4012665282532
 30
0.0
 10
6065.213352020908
 20
239.162007956811
 30
0.0
 10
6065.147830313817
 20
238.9245046861672
 30
0.0
 10
6065.082885874543
 20
238.6880049153351
 30
0.0
 10
6065.0147310518
 20
238.4506235411041
 30
0.0
 10
6064.941706132948
 20
238.2169688044906
 30
0.0
 10
6064.862089072996
 20
237.9897377234799
 30
0.0
 10
6064.781387680521
 20
237.7499836076498
 30
0.0
 10
6064.712012221664
 20
237.4900605342261
 30
0.0
 10
6064.642614762868
 20
237.2248292881754
 30
0.0
 10
6064.561715443323
 20
236.9742865392302
 30
0.0
 10
6064.482129159571
 20
236.7298566484035
 30
0.0
 10
6064.41346647869
 20
236.4771074744978
 30
0.0
 10
6064.349370775153
 20
236.2183477004364
 30
0.0
 10
6064.283731081066
 20
235.9599446684979
 30
0.0
 10
6064.212780507432
 20
235.6987775826606
 30
0.0
 10
6064.133464786638
 20
235.4358020843448
 30
0.0
 10
6064.043500651579
 20
235.1706409843326
 30
0.0
 10
6063.942509346292
 20
234.9082951080511
 30
0.0
 10
6063.86295993364
 20
234.6906640248602
 30
0.0
 10
6063.810213501599
 20
234.5176228829243
 30
0.0
 10
6063.778425495231
 20
234.3999910625188
 30
0.0
 10
6063.751754512422
 20
234.2896201880279
 30
0.0
 10
6063.729159048386
 20
234.1930472189244
 30
0.0
 10
6063.707186862366
 20
234.1026172412299
 30
0.0
 10
6063.681878165866
 20
234.0192754168483
 30
0.0
 10
6063.647901739602
 20
233.9391059793096
 30
0.0
 10
6063.610532851049
 20
233.8558624403926
 30
0.0
 10
6063.577425567563
 20
233.7662453272573
 30
0.0
 10
6063.548189206993
 20
233.6786834682606
 30
0.0
 10
6063.520585172213
 20
233.5983279116865
 30
0.0
 10
6063.496719092084
 20
233.5178027857172
 30
0.0
 10
6063.480231270154
 20
233.4291896120338
 30
0.0
 10
6063.46147615963
 20
233.3301785759846
 30
0.0
 10
6063.428559983142
 20
233.2301714221641
 30
0.0
 10
6063.399016004866
 20
233.1457975684471
 30
0.0
 10
6063.381192637155
 20
233.0791860093144
 30
0.0
 10
6063.36118722404
 20
233.0316955157253
 30
0.0
 10
6063.326899205835
 20
232.9927802909899
 30
0.0
 10
6063.300004497056
 20
232.9496631543095
 30
0.0
 10
6063.300825436564
 20
232.9061988906399
 30
0.0
 10
6063.298963864227
 20
232.8642080970311
 30
0.0
 10
6063.270260197065
 20
232.8294533671936
 30
0.0
 10
6063.239179121402
 20
232.7962890466585
 30
0.0
 10
6063.233130729375
 20
232.7507092024992
 30
0.0
 10
6063.238593214259
 20
232.7082167456649
 30
0.0
 10
6063.241472430994
 20
232.6635853312768
 30
0.0
 10
6063.228176029075
 20
232.6210950337959
 30
0.0
 10
6063.209668227695
 20
232.5779789110862
 30
0.0
 10
6063.199934602819
 20
232.5280573600033
 30
0.0
 10
6063.196760837275
 20
232.4740678693897
 30
0.0
 10
6063.19538536622
 20
232.4202828734307
 30
0.0
 10
6063.18523250498
 20
232.3672814905615
 30
0.0
 10
6063.156262716753
 20
232.3228241937802
 30
0.0
 10
6063.127208081745
 20
232.2861008255671
 30
0.0
 10
6063.10610624591
 20
232.2497396191638
 30
0.0
 10
6063.090040821617
 20
232.2153746387337
 30
0.0
 10
6063.075439414432
 20
232.1788277961227
 30
0.0
 10
6063.060841039217
 20
232.1406928767818
 30
0.0
 10
6063.045052853641
 20
232.1030456785801
 30
0.0
 10
6063.016216848187
 20
232.030886634906
 30
0.0
 10
6062.990539600526
 20
231.918470318457
 30
0.0
 10
6062.96378327464
 20
231.7596577104151
 30
0.0
 10
6062.912021731436
 20
231.5965356889686
 30
0.0
 10
6062.843712661015
 20
231.4188794828674
 30
0.0
 10
6062.778437303048
 20
231.2286617395307
 30
0.0
 10
6062.717767858392
 20
231.0347560380023
 30
0.0
 10
6062.662285696502
 20
230.8480683022631
 30
0.0
 10
6062.612362437574
 20
230.6872804894578
 30
0.0
 10
6062.563156293858
 20
230.5452313127845
 30
0.0
 10
6062.518767146434
 20
230.4246685987891
 30
0.0
 10
6062.474419078433
 20
230.3083374478641
 30
0.0
 10
6062.438425369079
 20
230.1904841838484
 30
0.0
 10
6062.420159231394
 20
230.066969941225
 30
0.0
 10
6062.396648396165
 20
229.933937748931
 30
0.0
 10
6062.339944752665
 20
229.8023623159613
 30
0.0
 10
6062.272068656445
 20
229.6657697291831
 30
0.0
 10
6062.223398346265
 20
229.5181078051511
 30
0.0
 10
6062.184525839937
 20
229.3742704929743
 30
0.0
 10
6062.142876048696
 20
229.2394378160171
 30
0.0
 10
6062.098094282863
 20
229.1015190091914
 30
0.0
 10
6062.050261521134
 20
228.9519818725789
 30
0.0
 10
6062.004623282377
 20
228.8071886793466
 30
0.0
 10
6061.964556985035
 20
228.6786927313908
 30
0.0
 10
6061.93094546131
 20
228.567033029746
 30
0.0
 10
6061.899514042369
 20
228.4554553791292
 30
0.0
 10
6061.861779217093
 20
228.3546914899514
 30
0.0
 10
6061.813711230972
 20
228.2696128537514
 30
0.0
 10
6061.787238733333
 20
228.2020434680309
 30
0.0
 10
6061.784234151588
 20
228.1485884974957
 30
0.0
 10
6061.786565081209
 20
228.116068337935
 30
0.0
 10
6061.790628905345
 20
228.0877622386522
 30
0.0
 10
6061.789119613298
 20
228.0612272464491
 30
0.0
 10
6061.774287825597
 20
228.0384618101108
 30
0.0
 10
6061.757081157191
 20
228.0124568391666
 30
0.0
 10
6061.75675300586
 20
227.977895943673
 30
0.0
 10
6061.760621529457
 20
227.9354022549238
 30
0.0
 10
6061.734025763504
 20
227.8902820826423
 30
0.0
 10
6061.691989666795
 20
227.8457970238096
 30
0.0
 10
6061.662976357293
 20
227.7830088067787
 30
0.0
 10
6061.645246367922
 20
227.7135434261322
 30
0.0
 10
6061.625897996086
 20
227.6452027526315
 30
0.0
 10
6061.60405815854
 20
227.5729550621342
 30
0.0
 10
6061.579480542559
 20
227.496119858383
 30
0.0
 10
6061.56099772859
 20
227.4119700889421
 30
0.0
 10
6061.559368139469
 20
227.327412114922
 30
0.0
 10
6061.550511682383
 20
227.2479466324188
 30
0.0
 10
6061.517335846751
 20
227.1816867081113
 30
0.0
 10
6061.484041222937
 20
227.1186439148445
 30
0.0
 10
6061.468779621129
 20
227.0460661841387
 30
0.0
 10
6061.456627383608
 20
226.9722139110484
 30
0.0
 10
6061.429731302499
 20
226.9026615651695
 30
0.0
 10
6061.395639036811
 20
226.8415221873195
 30
0.0
 10
6061.359264038903
 20
226.7860880886404
 30
0.0
 10
6061.328748628535
 20
226.728024674227
 30
0.0
 10
6061.315670729424
 20
226.6610922064629
 30
0.0
 10
6061.309854821628
 20
226.5912453929028
 30
0.0
 10
6061.2990838461
 20
226.5216658554998
 30
0.0
 10
6061.284109261268
 20
226.4457501321071
 30
0.0
 10
6061.266806291072
 20
226.3629314463875
 30
0.0
 10
6061.239479509911
 20
226.2605068910244
 30
0.0
 10
6061.194555948817
 20
226.1488232843729
 30
0.0
 10
6061.133940258857
 20
226.0248240494254
 30
0.0
 10
6061.071638134488
 20
225.897897604981
 30
0.0
 10
6061.026177739865
 20
225.7675419541794
 30
0.0
 10
6061.012003713371
 20
225.6394783251948
 30
0.0
 10
6060.996537429711
 20
225.5209132335392
 30
0.0
 10
6060.953947086029
 20
225.4107430688243
 30
0.0
 10
6060.899764410904
 20
225.2913918371993
 30
0.0
 10
6060.858349198973
 20
225.1501186940539
 30
0.0
 10
6060.8230443196
 20
224.989641475087
 30
0.0
 10
6060.782432778354
 20
224.8277387823798
 30
0.0
 10
6060.731881618884
 20
224.6631055267453
 30
0.0
 10
6060.667905224871
 20
224.5003535872411
 30
0.0
 10
6060.593815121908
 20
224.3121059775842
 30
0.0
 10
6060.530780489809
 20
224.0938333073917
 30
0.0
 10
6060.467336070873
 20
223.8408965009618
 30
0.0
 10
6060.390892026955
 20
223.5818295290812
 30
0.0
 10
6060.312686428055
 20
223.3062439681845
 30
0.0
 10
6060.25153899123
 20
223.0193092676797
 30
0.0
 10
6060.185456054127
 20
222.7276067590994
 30
0.0
 10
6060.092668599774
 20
222.4446929220955
 30
0.0
 10
6059.989445167507
 20
222.1583260923955
 30
0.0
 10
6059.894154554049
 20
221.8602036875833
 30
0.0
 10
6059.801216709824
 20
221.5508264705168
 30
0.0
 10
6059.706795632914
 20
221.240018388112
 30
0.0
 10
6059.6112239186
 20
220.932736851222
 30
0.0
 10
6059.514077160165
 20
220.6309673756679
 30
0.0
 10
6059.440541513673
 20
220.3948608060585
 30
0.0
 10
6059.389741395794
 20
220.219806354782
 30
0.0
 10
6059.363865953511
 20
220.1059830491758
 30
0.0
 10
6059.350302274279
 20
219.9910586199092
 30
0.0
 10
6059.334798858144
 20
219.8796058978158
 30
0.0
 10
6059.304280472046
 20
219.7737989232687
 30
0.0
 10
6059.264457308802
 20
219.6651172747802
 30
0.0
 10
6059.221144670933
 20
219.5487675661792
 30
0.0
 10
6059.174489748159
 20
219.4108564774227
 30
0.0
 10
6059.13524171949
 20
219.2573464640803
 30
0.0
 10
6059.08948997599
 20
219.0941240088875
 30
0.0
 10
6059.024310326729
 20
218.940569961597
 30
0.0
 10
6058.970489207592
 20
218.8054373375232
 30
0.0
 10
6058.940884045724
 20
218.683099531965
 30
0.0
 10
6058.912496576862
 20
218.586748573072
 30
0.0
 10
6058.870710112511
 20
218.5043552251928
 30
0.0
 10
6058.843018234698
 20
218.4290285559331
 30
0.0
 10
6058.843871796195
 20
218.3561312727679
 30
0.0
 10
6058.845756703691
 20
218.2929804898175
 30
0.0
 10
6058.832385034013
 20
218.2341668902926
 30
0.0
 10
6058.812847962963
 20
218.1713773207839
 30
0.0
 10
6058.797895892123
 20
218.0984098005435
 30
0.0
 10
6058.772856289693
 20
218.023146977255
 30
0.0
 10
6058.729464657306
 20
217.9648394008004
 30
0.0
 10
6058.690024524088
 20
217.9070865993922
 30
0.0
 10
6058.675170339246
 20
217.8359971281748
 30
0.0
 10
6058.668006418038
 20
217.7701804510731
 30
0.0
 10
6058.651599608496
 20
217.7130506731999
 30
0.0
 10
6058.632437441465
 20
217.6594875005318
 30
0.0
 10
6058.612634455513
 20
217.6003896773592
 30
0.0
 10
6058.594958139724
 20
217.5436203598729
 30
0.0
 10
6058.580522819086
 20
217.494572934751
 30
0.0
 10
6058.572269731163
 20
217.4514089014343
 30
0.0
 10
6058.57227370479
 20
217.4067677841493
 30
0.0
 10
6058.57165555333
 20
217.3605547336654
 30
0.0
 10
6058.560321184109
 20
217.3148070150065
 30
0.0
 10
6058.5353412565
 20
217.2487801804459
 30
0.0
 10
6058.500903343598
 20
217.1617002395639
 30
0.0
 10
6058.457662919194
 20
217.0481530739589
 30
0.0
 10
6058.41887352023
 20
216.9278210956969
 30
0.0
 10
6058.380486280611
 20
216.7904742324843
 30
0.0
 10
6058.343208569913
 20
216.6413496441105
 30
0.0
 10
6058.29923060438
 20
216.4706712062591
 30
0.0
 10
6058.243355026513
 20
216.29142890955
 30
0.0
 10
6058.178823376096
 20
216.0961757288609
 30
0.0
 10
6058.116612614442
 20
215.8933727781221
 30
0.0
 10
6058.052450295923
 20
215.6761397198902
 30
0.0
 10
6057.985625278066
 20
215.4513710486907
 30
0.0
 10
6057.913877525074
 20
215.2098046769495
 30
0.0
 10
6057.840062793564
 20
214.9589240126032
 30
0.0
 10
6057.760766406298
 20
214.6882212443173
 30
0.0
 10
6057.678272992699
 20
214.4069424871591
 30
0.0
 10
6057.552838986341
 20
213.9801559092112
 30
0.0
 10
6057.387222193677
 20
213.4185657875939
 30
0.0
 10
6057.248525515284
 20
212.9547498935457
 30
0.0
 10
6057.17917716988
 20
212.722841925756
 30
0.0
 11
6067.63848706309
 21
249.133367090264
 31
0.0
 11
6067.638482971161
 21
249.1182100538508
 31
0.0
 11
6067.638487063095
 21
249.1030502499861
 31
0.0
 11
6067.638478879237
 21
249.0878945973047
 31
0.0
 11
6067.638487063095
 21
249.0727334097188
 31
0.0
 11
6067.638523890461
 21
249.0575625360499
 31
0.0
 11
6067.638487063092
 21
249.0424165694508
 31
0.0
 11
6067.638461872149
 21
249.0386354829805
 31
0.0
 11
6067.638487063092
 21
249.0348373593826
 31
0.0
 11
6067.640253114426
 21
249.0077129166092
 31
0.0
 11
6067.638487063095
 21
248.981782888906
 31
0.0
 11
6067.620376051643
 21
248.9509732354982
 31
0.0
 11
6067.596801407729
 21
248.9211492083689
 31
0.0
 11
6067.583952703932
 21
248.8918544984656
 31
0.0
 11
6067.577853382561
 21
248.8605155278251
 31
0.0
 11
6067.575942793402
 21
248.8305213627945
 31
0.0
 11
6067.577853382558
 21
248.7998818472878
 31
0.0
 11
6067.581973185909
 21
248.7683398518864
 31
0.0
 11
6067.577853382556
 21
248.7392481667446
 31
0.0
 11
6067.570685991419
 21
248.7278064802774
 31
0.0
 11
6067.56269496242
 21
248.7165105365435
 31
0.0
 11
6067.551118379112
 21
248.6839329823043
 31
0.0
 11
6067.547536542281
 21
248.6482976459402
 31
0.0
 11
6067.540229206149
 21
248.57723396911
 31
0.0
 11
6067.528588517112
 21
248.5080822596873
 31
0.0
 11
6067.509370029955
 21
248.4264712673599
 31
0.0
 11
6067.486902861748
 21
248.345129243234
 31
0.0
 11
6067.448937625072
 21
248.2090179622489
 31
0.0
 11
6067.414900366105
 21
248.0722776808042
 31
0.0
 11
6067.387984782585
 21
247.9363631664854
 31
0.0
 11
6067.365635500662
 21
247.7994261183745
 31
0.0
 11
6067.342426130486
 21
247.6475420020425
 31
0.0
 11
6067.31637063523
 21
247.4962577156693
 31
0.0
 11
6067.283325403125
 21
247.3440218456835
 31
0.0
 11
6067.244368139584
 21
247.1930893129706
 31
0.0
 11
6067.217117898156
 21
247.0950458016141
 31
0.0
 11
6067.191594380598
 21
246.9965912741797
 31
0.0
 11
6067.169140090196
 21
246.8948135135929
 31
0.0
 11
6067.145557697221
 21
246.7933561597753
 31
0.0
 11
6067.120020829403
 21
246.7050103533771
 31
0.0
 11
6067.092783938236
 21
246.6170693478357
 31
0.0
 11
6067.053222070704
 21
246.4739166154089
 31
0.0
 11
6067.020781442592
 21
246.3290593652674
 31
0.0
 11
6066.995206211753
 21
246.1852507818967
 31
0.0
 11
6066.971516577157
 21
246.041049382698
 31
0.0
 11
6066.948896207678
 21
245.9174531235598
 31
0.0
 11
6066.922251711718
 21
245.7947250555034
 31
0.0
 11
6066.88733445086
 21
245.6599354537881
 31
0.0
 11
6066.850249216071
 21
245.5256630981067
 31
0.0
 11
6066.807268188076
 21
245.3615202242089
 31
0.0
 11
6066.76715861681
 21
245.196669238878
 31
0.0
 11
6066.728027347552
 21
245.0256534631898
 31
0.0
 11
6066.690805093172
 21
244.8542012284189
 31
0.0
 11
6066.649891979263
 21
244.6592359337985
 31
0.0
 11
6066.607714493915
 21
244.4645736886481
 31
0.0
 11
6066.534417621296
 21
244.1608351385498
 31
0.0
 11
6066.456130292562
 21
243.8582368832442
 31
0.0
 11
6066.37831774291
 21
243.5555139507657
 31
0.0
 11
6066.304546091207
 21
243.2519000778407
 31
0.0
 11
6066.257429978965
 21
243.0442362767535
 31
0.0
 11
6066.210227032592
 21
242.8364470815461
 31
0.0
 11
6066.159472047099
 21
242.6335108416145
 31
0.0
 11
6066.095696747122
 21
242.4344682364804
 31
0.0
 11
6066.014483067933
 21
242.2376928684607
 31
0.0
 11
6065.940744007961
 21
242.039226467032
 31
0.0
 11
6065.904937950386
 21
241.8846525276185
 31
0.0
 11
6065.880057782631
 21
241.7268464778505
 31
0.0
 11
6065.855407716836
 21
241.5687540198755
 31
0.0
 11
6065.802170892663
 21
241.3260637103139
 31
0.0
 11
6065.743123123244
 21
241.0848074214877
 31
0.0
 11
6065.692841099268
 21
240.8488434329177
 31
0.0
 11
6065.637575605264
 21
240.6143349743302
 31
0.0
 11
6065.56094103714
 21
240.3713176299049
 31
0.0
 11
6065.480377174232
 21
240.1292655300071
 31
0.0
 11
6065.412808773056
 21
239.8874393640563
 31
0.0
 11
6065.350127045664
 21
239.644196085684
 31
0.0
 11
6065.282657670794
 21
239.40136897934
 31
0.0
 11
6065.21313984148
 21
239.159126641361
 31
0.0
 11
6065.147878263282
 21
238.9244982749436
 31
0.0
 11
6065.082889712913
 21
238.6897770401438
 31
0.0
 11
6065.013801591032
 21
238.450889873324
 31
0.0
 11
6064.93916543311
 21
238.2136903633073
 31
0.0
 11
6064.862530939581
 21
237.9895263598771
 31
0.0
 11
6064.788704077697
 21
237.7645519889358
 31
0.0
 11
6064.712247798922
 21
237.4900378523271
 31
0.0
 11
6064.637119876345
 21
237.2150592590388
 31
0.0
 11
6064.561617654308
 21
236.9743184932866
 31
0.0
 11
6064.48553567499
 21
236.7337794197449
 31
0.0
 11
6064.414447574256
 21
236.476917303431
 31
0.0
 11
6064.349109893781
 21
236.2183931351567
 31
0.0
 11
6064.283016671801
 21
235.9601116559656
 31
0.0
 11
6064.212684112566
 21
235.7030068505628
 31
0.0
 11
6064.131951691429
 21
235.4362807366728
 31
0.0
 11
6064.042151886042
 21
235.1724621458333
 31
0.0
 11
6063.943238005808
 21
234.9079551984924
 31
0.0
 11
6063.848882029319
 21
234.6419174411039
 31
0.0
 11
6063.810878069002
 21
234.5174262023629
 31
0.0
 11
6063.77687953368
 21
234.3918035088747
 31
0.0
 11
6063.751886914179
 21
234.2896261380694
 31
0.0
 11
6063.727614668239
 21
234.1871648370487
 31
0.0
 11
6063.706372104603
 21
234.1027417960477
 31
0.0
 11
6063.68045513893
 21
234.0198607925977
 31
0.0
 11
6063.647642420711
 21
233.9392771888431
 31
0.0
 11
6063.613084382776
 21
233.8592938237591
 31
0.0
 11
6063.577936296248
 21
233.7661142015422
 31
0.0
 11
6063.545713626625
 21
233.6717785524562
 31
0.0
 11
6063.521094406336
 21
233.5981033371962
 31
0.0
 11
6063.499676943244
 21
233.5235628889153
 31
0.0
 11
6063.480169897615
 21
233.4291453505111
 31
0.0
 11
6063.460377335485
 21
233.3349247716812
 31
0.0
 11
6063.428299347805
 21
233.2304752363485
 31
0.0
 11
6063.394129425265
 21
233.1260754275985
 31
0.0
 11
6063.380060850998
 21
233.0793380360625
 31
0.0
 11
6063.360022979966
 21
233.0351249067851
 31
0.0
 11
6063.327372201332
 21
232.9908930981239
 31
0.0
 11
6063.303178904463
 21
232.9441743859719
 31
0.0
 11
6063.300412026834
 21
232.9059164249053
 31
0.0
 11
6063.295599694395
 21
232.8683822852975
 31
0.0
 11
6063.269999379484
 21
232.8299092649651
 31
0.0
 11
6063.242545223918
 21
232.7925901846234
 31
0.0
 11
6063.235019703877
 21
232.7521873147118
 31
0.0
 11
6063.238145683428
 21
232.707967611081
 31
0.0
 11
6063.238755618886
 21
232.6637436134724
 31
0.0
 11
6063.227529326902
 21
232.6215096058584
 31
0.0
 11
6063.212228383654
 21
232.58037230273
 31
0.0
 11
6063.201175431417
 21
232.528282482688
 31
0.0
 11
6063.197069963516
 21
232.474263361783
 31
0.0
 11
6063.193827927022
 21
232.4196311891304
 31
0.0
 11
6063.181911543379
 21
232.3681544208354
 31
0.0
 11
6063.15595240636
 21
232.3237661870879
 31
0.0
 11
6063.125067467869
 21
232.2809935050642
 31
0.0
 11
6063.106566710996
 21
232.2494567576225
 31
0.0
 11
6063.090961022571
 21
232.2165702194879
 31
0.0
 11
6063.07553916186
 21
232.1788120068155
 31
0.0
 11
6063.0606441823
 21
232.1407781188161
 31
0.0
 11
6063.045146160685
 21
232.1029697471122
 31
0.0
 11
6063.030327342024
 21
232.0649860181388
 31
0.0
 11
6062.992050346426
 21
231.9185758149504
 31
0.0
 11
6062.96211445142
 21
231.7693968255046
 31
0.0
 11
6062.91040238094
 21
231.5973413209849
 31
0.0
 11
6062.848426300407
 21
231.4283323724676
 31
0.0
 11
6062.77934664972
 21
231.2283411560357
 31
0.0
 11
6062.715790124223
 21
231.026634238882
 31
0.0
 11
6062.661913820028
 21
230.8481455052853
 31
0.0
 11
6062.605891578249
 21
230.6704113657054
 31
0.0
 11
6062.562774433884
 21
230.5454284574283
 31
0.0
 11
6062.517186749308
 21
230.4211395679307
 31
0.0
 11
6062.475653113307
 21
230.3077290926677
 31
0.0
 11
6062.441956071599
 21
230.1920789970034
 31
0.0
 11
6062.419523228231
 21
230.0667713301449
 31
0.0
 11
6062.393673696356
 21
229.9428071992295
 31
0.0
 11
6062.338938887657
 21
229.8034350636638
 31
0.0
 11
6062.276195940302
 21
229.6661660317588
 31
0.0
 11
6062.224807306367
 21
229.517839036253
 31
0.0
 11
6062.181455814461
 21
229.3667872340934
 31
0.0
 11
6062.14256930298
 21
229.2395237036329
 31
0.0
 11
6062.101874108756
 21
229.1128836968268
 31
0.0
 11
6062.050382873634
 21
228.9519687268723
 31
0.0
 11
6061.999554772842
 21
228.7907672689562
 31
0.0
 11
6061.964726331352
 21
228.6785864670554
 31
0.0
 11
6061.93106117075
 21
228.566198081769
 31
0.0
 11
6061.898022290464
 21
228.4560816998643
 31
0.0
 11
6061.85583049304
 21
228.3483659701988
 31
0.0
 11
6061.815062673586
 21
228.2675457695392
 31
0.0
 11
6061.787336890949
 21
228.1844304635531
 31
0.0
 11
6061.785001847781
 21
228.1489707486383
 31
0.0
 11
6061.78733689095
 21
228.1124279679091
 31
0.0
 11
6061.789820339198
 21
228.0871600572735
 31
0.0
 11
6061.787336890949
 21
228.0631631024719
 31
0.0
 11
6061.774303415295
 21
228.0385469979465
 31
0.0
 11
6061.760809655716
 21
228.0138982370321
 31
0.0
 11
6061.757358452624
 21
227.9781952746605
 31
0.0
 11
6061.757020050682
 21
227.9418957413915
 31
0.0
 11
6061.733435667485
 21
227.8930828164173
 31
0.0
 11
6061.697509216077
 21
227.8475766827711
 31
0.0
 11
6061.665163494172
 21
227.7824957918326
 31
0.0
 11
6061.644735457088
 21
227.71283517046
 31
0.0
 11
6061.625691411698
 21
227.6452325796757
 31
0.0
 11
6061.60543584933
 21
227.5780936581491
 31
0.0
 11
6061.580747069938
 21
227.4956617175038
 31
0.0
 11
6061.563750193954
 21
227.4113510366622
 31
0.0
 11
6061.558027833932
 21
227.3267244822041
 31
0.0
 11
6061.544802168785
 21
227.2446084151749
 31
0.0
 11
6061.517227705116
 21
227.1820226126908
 31
0.0
 11
6061.487958093281
 21
227.1195514490603
 31
0.0
 11
6061.469364535861
 21
227.0461425653942
 31
0.0
 11
6061.453851647972
 21
226.9717568527451
 31
0.0
 11
6061.428323350976
 21
226.9036810967056
 31
0.0
 11
6061.393217967434
 21
226.8391206765602
 31
0.0
 11
6061.359879098923
 21
226.7851276009777
 31
0.0
 11
6061.332584286895
 21
226.7292221305829
 31
0.0
 11
6061.317029070102
 21
226.6614934852645
 31
0.0
 11
6061.309004522246
 21
226.5911120804646
 31
0.0
 11
6061.298594129657
 21
226.5216584484034
 31
0.0
 11
6061.285424757592
 21
226.4530020303439
 31
0.0
 11
6061.265973646137
 21
226.3630594286844
 31
0.0
 11
6061.241633766091
 21
226.2744695265284
 31
0.0
 11
6061.193226225283
 21
226.14981365501
 31
0.0
 11
6061.135524825138
 21
226.0281451993334
 31
0.0
 11
6061.074055601331
 21
225.8960960604444
 31
0.0
 11
6061.029415884192
 21
225.7590832419373
 31
0.0
 11
6061.011592785259
 21
225.6393590107725
 31
0.0
 11
6060.991519833854
 21
225.5203381248088
 31
0.0
 11
6060.953083478268
 21
225.4115489549463
 31
0.0
 11
6060.908148523114
 21
225.3043306378819
 31
0.0
 11
6060.860202272585
 21
225.1498810682003
 31
0.0
 11
6060.822812231981
 21
224.9921794676948
 31
0.0
 11
6060.780985401017
 21
224.8280274660046
 31
0.0
 11
6060.730738865236
 21
224.6665541462735
 31
0.0
 11
6060.667888037688
 21
224.5003439877956
 31
0.0
 11
6060.604980120412
 21
224.3341917492353
 31
0.0
 11
6060.532268026782
 21
224.0936502586556
 31
0.0
 11
6060.467992916226
 21
223.8502451508481
 31
0.0
 11
6060.391334144379
 21
223.5816120001847
 31
0.0
 11
6060.31753156081
 21
223.3124019475371
 31
0.0
 11
6060.250888375192
 21
223.0193399119251
 31
0.0
 11
6060.180544356628
 21
222.7273992149166
 31
0.0
 11
6060.09137952722
 21
222.4453526894126
 31
0.0
 11
6059.993906308719
 21
222.1655902686576
 31
0.0
 11
6059.895050781581
 21
221.859921908719
 31
0.0
 11
6059.801583853254
 21
221.5526216544434
 31
0.0
 11
6059.706444761572
 21
221.2401010813998
 31
0.0
 11
6059.609261397789
 21
220.9282842251291
 31
0.0
 11
6059.514575690721
 21
220.6309009360999
 31
0.0
 11
6059.422623349876
 21
220.3323688335691
 31
0.0
 11
6059.390831071443
 21
220.2194193844398
 31
0.0
 11
6059.365779274367
 21
220.1049925315447
 31
0.0
 11
6059.349893409101
 21
219.9909973427601
 31
0.0
 11
6059.331672829067
 21
219.877616229514
 31
0.0
 11
6059.303146633707
 21
219.7743887596039
 31
0.0
 11
6059.267249543491
 21
219.6729775576951
 31
0.0
 11
6059.221731701337
 21
219.54843075646
 31
0.0
 11
6059.180088627717
 21
219.4228636254671
 31
0.0
 11
6059.134587741045
 21
219.257446392218
 31
0.0
 11
6059.085348501871
 21
219.0931679875263
 31
0.0
 11
6059.024800387915
 21
218.9401460175524
 31
0.0
 11
6058.967870745818
 21
218.7862099797866
 31
0.0
 11
6058.940054404606
 21
218.6833855664281
 31
0.0
 11
6058.907237065279
 21
218.5815713079652
 31
0.0
 11
6058.871864671303
 21
218.5028063012934
 31
0.0
 11
6058.846603384738
 21
218.4224078965532
 31
0.0
 11
6058.844068876822
 21
218.3563515435117
 31
0.0
 11
6058.842813779706
 21
218.2897717203673
 31
0.0
 11
6058.831746842493
 21
218.2346381250836
 31
0.0
 11
6058.81628654447
 21
218.1798731743828
 31
0.0
 11
6058.796105680318
 21
218.0981646907504
 31
0.0
 11
6058.767021679031
 21
218.0207097629672
 31
0.0
 11
6058.729634524581
 21
217.9642873981791
 31
0.0
 11
6058.695019183391
 21
217.9070216119528
 31
0.0
 11
6058.676487243446
 21
217.8365957970937
 31
0.0
 11
6058.664702343121
 21
217.7630166206712
 31
0.0
 11
6058.651074011637
 21
217.7132128749519
 31
0.0
 11
6058.634385502851
 21
217.6644868897916
 31
0.0
 11
6058.612885710831
 21
217.6003789415298
 31
0.0
 11
6058.592699847476
 21
217.5356403186443
 31
0.0
 11
6058.581170199641
 21
217.4942911273431
 31
0.0
 11
6058.573751822307
 21
217.4522690079067
 31
0.0
 11
6058.572170896318
 21
217.4067056505792
 31
0.0
 11
6058.569962217271
 21
217.3613184870942
 31
0.0
 11
6058.559497865011
 21
217.3153331696515
 31
0.0
 11
6058.543434982033
 21
217.2703679662814
 31
0.0
 11
6058.501045474696
 21
217.161382220701
 31
0.0
 11
6058.460344382783
 21
217.0525358547079
 31
0.0
 11
6058.419729749059
 21
216.9276778339063
 31
0.0
 11
6058.383990859138
 21
216.8010183650569
 31
0.0
 11
6058.342999496473
 21
216.6413322940343
 31
0.0
 11
6058.300900259871
 21
216.4821301192512
 31
0.0
 11
6058.242835902924
 21
216.2916602058848
 31
0.0
 11
6058.181489031869
 21
216.1020647747567
 31
0.0
 11
6058.116974885665
 21
215.8932562560929
 31
0.0
 11
6058.05465327156
 21
215.6838161212342
 31
0.0
 11
6057.985636525143
 21
215.451370409746
 31
0.0
 11
6057.91668071278
 21
215.2188989788997
 31
0.0
 11
6057.840114285272
 21
214.9589082769529
 31
0.0
 11
6057.763859089377
 21
214.698828167969
 31
0.0
 11
6057.678245136898
 21
214.4069508978187
 31
0.0
 11
6057.592476135195
 21
214.1151185086577
 31
0.0
 11
6057.386782232512
 21
213.4186966199781
 31
0.0
 11
6057.17917716988
 21
212.722841925756
 31
0.0
  0
SPLINE
  5
AD
330
1F
100
AcDbEntity
  8
$DDT_AUDIT_GENERATED__E2_
  6
Continuous
 62
     5
100
AcDbSpline
210
0.0
220
0.0
230
1.0
 70
     8
 71
     3
 72
   277
 73
   273
 74
   271
 42
0.0000000001
 43
0.0000000001
 44
0.00000001
 40
0.0
 40
0.0
 40
0.0
 40
0.0
 40
0.273895714217953
 40
0.5476942431734879
 40
0.8215349507326873
 40
1.09530281711651
 40
1.246420519233448
 40
1.397167171445007
 40
1.546796662241691
 40
1.634003016186502
 40
1.721511488213574
 40
1.783481704388177
 40
1.845424556950618
 40
1.931782220338335
 40
2.018074124984457
 40
2.090208307205155
 40
2.162384593026412
 40
2.224887654759784
 40
2.287384402407003
 40
2.349885085312333
 40
2.412385552545103
 40
2.47174668599403
 40
2.531089299495549
 40
2.615505844082855
 40
2.700116633996314
 40
2.764499044289351
 40
2.828437854174477
 40
2.889661253870292
 40
2.951181733268004
 40
3.00705104020408
 40
3.062870546988516
 40
3.12323984801974
 40
3.183247133750291
 40
3.270956962178978
 40
3.359990308844641
 40
3.449299758548296
 40
3.585511150254248
 40
3.721341688734451
 40
3.859683742618028
 40
3.998022189989241
 40
4.085341218736236
 40
4.17271526361963
 40
4.259592952411039
 40
4.329205693014543
 40
4.397966141400816
 40
4.473814781348995
 40
4.550571988958269
 40
4.641332285159479
 40
4.733017336332916
 40
4.825236764261212
 40
5.003907843931225
 40
5.182183828899675
 40
5.400817423804694
 40
5.61951511682298
 40
5.877323932660217
 40
6.134975503538885
 40
6.462632934950586
 40
6.790657401477118
 40
7.118572161163254
 40
7.605711174809239
 40
8.092951370336367
 40
8.464851810157072
 40
8.836816751930977
 40
9.222897374219682
 40
9.60887838489891
 40
9.78718088162311
 40
9.965525903886581
 40
10.13290098735752
 40
10.30025039027792
 40
10.44643875821362
 40
10.59272751105848
 40
10.75393944710665
 40
10.91439778756929
 40
11.07075048973271
 40
11.22818490402666
 40
11.3994182795633
 40
11.56972629999247
 40
11.64379036537747
 40
11.71755701832845
 40
11.78780805864479
 40
11.85818394665733
 40
11.92466996050029
 40
11.99126851966944
 40
12.0685777882179
 40
12.14591872891837
 40
12.22503962478072
 40
12.30417738126977
 40
12.38337212245388
 40
12.46245240854065
 40
12.57888053970002
 40
12.69538280755607
 40
12.81904572254595
 40
12.94280425182242
 40
13.00517726010959
 40
13.06783941831109
 40
13.13107940391939
 40
13.19318708604603
 40
13.19508087055875
 40
13.19697672278818
 40
13.21026733961787
 40
13.2235060418638
 40
13.29881583044439
 40
13.37640917362762
 40
13.47838768107669
 40
13.57919724835248
 40
13.73122566467973
 40
13.88375064570005
 40
14.00013725104076
 40
14.11643517625017
 40
14.21550954676088
 40
14.31459149795035
 40
14.40410209957451
 40
14.49360007397908
 40
14.59265875014774
 40
14.69175176704728
 40
14.84518406508165
 40
14.99857243238192
 40
15.16658050071924
 40
15.33434978372479
 40
15.52636784054358
 40
15.71859164085305
 40
15.93897503389007
 40
16.15968541732244
 40
16.31622063659656
 40
16.47252401575474
 40
16.64030054927911
 40
16.80905544773221
 40
16.91767271358155
 40
17.02517917568994
 40
17.13024656217073
 40
17.19254069804297
 40
17.25513033461212
 40
17.29782258051933
 40
17.34059950072287
 40
17.37297990813437
 40
17.40509685396953
 40
17.44425060381429
 40
17.48394135246416
 40
17.52736454580718
 40
17.56941118671093
 40
17.60443260983281
 40
17.63973809090441
 40
17.69416646311373
 40
17.75066757175247
 40
17.80634112073587
 40
17.86122768655319
 40
17.91140619484545
 40
17.96130684379575
 40
18.00762281426738
 40
18.05423684213775
 40
18.10388460840745
 40
18.15376650799789
 40
18.21480161716709
 40
18.27542224006104
 40
18.30609464125821
 40
18.33622055272095
 40
18.36896729236028
 40
18.4025256019391
 40
18.49396792710193
 40
18.58486293119515
 40
18.69095631213301
 40
18.79688743893807
 40
18.87110176397448
 40
18.94564418991179
 40
19.0274454230934
 40
19.10915837511834
 40
19.1737978392502
 40
19.23844690170881
 40
19.3383737266081
 40
19.43793136854114
 40
19.53045107085133
 40
19.62304467987982
 40
19.74858757592304
 40
19.8749740696103
 40
20.00106539235257
 40
20.14076198168049
 40
20.28108039944242
 40
20.42140222866866
 40
20.66899850146407
 40
20.91728502349556
 40
21.14038453264849
 40
21.36310993687442
 40
21.60754717470344
 40
21.85210129050829
 40
22.08247740905756
 40
22.31278462682009
 40
22.52864329695123
 40
22.74455909511953
 40
22.95517744925602
 40
23.16583223891576
 40
23.39139842296737
 40
23.61684237679847
 40
23.84528907813245
 40
24.07383052763904
 40
24.31801907167251
 40
24.56213905482495
 40
24.8102392321091
 40
25.05836351080171
 40
25.42678816196219
 40
25.79577608636976
 40
26.0587961562044
 40
26.32143839553951
 40
26.58352564126826
 40
26.79726886530392
 40
27.01118000949304
 40
27.24198239790552
 40
27.47293027698784
 40
27.70152941072056
 40
27.92994817107759
 40
28.25208984908069
 40
28.57449489027708
 40
28.92153012811018
 40
29.26850282835574
 40
29.61556948008652
 40
29.96253710312519
 40
30.31807792483173
 40
30.67327949860824
 40
30.87296945377715
 40
31.07256310459604
 40
31.23341378355928
 40
31.39443538427729
 40
31.56178695041882
 40
31.72906499636325
 40
31.87429164550683
 40
32.0195574939228
 40
32.18094952798384
 40
32.34228267697787
 40
32.49023387074755
 40
32.63821303181744
 40
32.79690215316435
 40
32.95560217915624
 40
33.13898134232105
 40
33.32233367229702
 40
33.47320022662459
 40
33.6240975412062
 40
33.79733489643472
 40
33.97051007582724
 40
34.10691911122605
 40
34.24364601014003
 40
34.35221626488348
 40
34.46023080147904
 40
34.56741648692338
 40
34.59229099411484
 40
34.61686455329431
 40
34.65505533837224
 40
34.69362356129557
 40
34.73775925299644
 40
34.7821413395441
 40
34.81521723845657
 40
34.8483318676001
 40
34.88195859426583
 40
34.91556126186278
 40
34.96494461093351
 40
35.01241903152981
 40
35.02931107645035
 40
35.04655690285852
 40
35.0750670656893
 40
35.10340541926976
 40
35.1185547243413
 40
35.13372235425498
 40
35.14888276349429
 40
35.1640391989812
 40
35.16593397826882
 40
35.16782880401948
 40
35.18109248442975
 40
35.19435603925879
 40
35.20761964320639
 40
35.22088327449309
 40
35.22277807718443
 40
35.22467287952649
 40
35.23983130169738
 40
35.25498971980421
 40
35.25498971980421
 40
35.25498971980421
 40
35.25498971980421
 10
6028.9845157186
 20
215.330090188988
 30
0.0
 10
6028.962919598303
 20
215.4188710146
 30
0.0
 10
6028.919735020571
 20
215.5964011640975
 30
0.0
 10
6028.826076247286
 20
215.8540670100094
 30
0.0
 10
6028.733958864145
 20
216.1117857005342
 30
0.0
 10
6028.66894289542
 20
216.3359587193719
 30
0.0
 10
6028.634475376981
 20
216.5247964668793
 30
0.0
 10
6028.606044947592
 20
216.6725613652166
 30
0.0
 10
6028.569965202767
 20
216.7971391066184
 30
0.0
 10
6028.525793274751
 20
216.8959424473504
 30
0.0
 10
6028.491322275724
 20
216.9668950334801
 30
0.0
 10
6028.462489301011
 20
217.0312150545578
 30
0.0
 10
6028.435437851451
 20
217.0958795740872
 30
0.0
 10
6028.407376983248
 20
217.1688908622072
 30
0.0
 10
6028.382344447664
 20
217.2466289894156
 30
0.0
 10
6028.364021143725
 20
217.3213095771669
 30
0.0
 10
6028.348877864761
 20
217.3885616995648
 30
0.0
 10
6028.332872743298
 20
217.452313203846
 30
0.0
 10
6028.317399688271
 20
217.5128680046751
 30
0.0
 10
6028.302798228147
 20
217.5736377113354
 30
0.0
 10
6028.287832366512
 20
217.6332481269797
 30
0.0
 10
6028.27114925575
 20
217.6913109957904
 30
0.0
 10
6028.250783281755
 20
217.7558871250713
 30
0.0
 10
6028.226250558643
 20
217.8279554739022
 30
0.0
 10
6028.199042094155
 20
217.900873295294
 30
0.0
 10
6028.172420569244
 20
217.966635656615
 30
0.0
 10
6028.153045214009
 20
218.027024830379
 30
0.0
 10
6028.144390607952
 20
218.0887826947707
 30
0.0
 10
6028.137176854102
 20
218.1478994068652
 30
0.0
 10
6028.123173553691
 20
218.2040806955743
 30
0.0
 10
6028.10216800466
 20
218.2576808826275
 30
0.0
 10
6028.072866702816
 20
218.3086395102568
 30
0.0
 10
6028.038564208281
 20
218.3690878810201
 30
0.0
 10
6028.014714329942
 20
218.4449900571372
 30
0.0
 10
6027.998683974418
 20
218.5321243956706
 30
0.0
 10
6027.979218507346
 20
218.6353630655261
 30
0.0
 10
6027.937950192584
 20
218.7488299762068
 30
0.0
 10
6027.889115358337
 20
218.8768895429161
 30
0.0
 10
6027.8626794876
 20
219.0120780532975
 30
0.0
 10
6027.836938108991
 20
219.1310040819808
 30
0.0
 10
6027.797660049215
 20
219.2279231864167
 30
0.0
 10
6027.763762480384
 20
219.3081389362257
 30
0.0
 10
6027.740030509067
 20
219.3864932644466
 30
0.0
 10
6027.732937523147
 20
219.461231271833
 30
0.0
 10
6027.721766507731
 20
219.5324096057804
 30
0.0
 10
6027.687551457511
 20
219.5986367460653
 30
0.0
 10
6027.645823173428
 20
219.6682125040251
 30
0.0
 10
6027.618702919628
 20
219.7510798182954
 30
0.0
 10
6027.602648583739
 20
219.8412075365345
 30
0.0
 10
6027.584951499071
 20
219.960821000764
 30
0.0
 10
6027.546933934243
 20
220.1060126979691
 30
0.0
 10
6027.486583862729
 20
220.2880936683704
 30
0.0
 10
6027.426618566345
 20
220.4843585401589
 30
0.0
 10
6027.357978551921
 20
220.7056967351068
 30
0.0
 10
6027.276924255605
 20
220.9366175141873
 30
0.0
 10
6027.185965642045
 20
221.2026040396597
 30
0.0
 10
6027.105985761666
 20
221.4965542853022
 30
0.0
 10
6027.029279365628
 20
221.8152666385638
 30
0.0
 10
6026.935498601923
 20
222.1847181648551
 30
0.0
 10
6026.800487576424
 20
222.5974909646499
 30
0.0
 10
6026.657401883502
 20
223.0229132047743
 30
0.0
 10
6026.548725244807
 20
223.4187307649994
 30
0.0
 10
6026.450469580237
 20
223.7823718131858
 30
0.0
 10
6026.335776684205
 20
224.1460985876617
 30
0.0
 10
6026.242573964757
 20
224.4489337180844
 30
0.0
 10
6026.179522456666
 20
224.6883356085227
 30
0.0
 10
6026.13604511399
 20
224.8575096411603
 30
0.0
 10
6026.091233453025
 20
225.0225659690587
 30
0.0
 10
6026.046387336629
 20
225.1764830687179
 30
0.0
 10
6026.000255007746
 20
225.3226608625262
 30
0.0
 10
6025.94874299931
 20
225.4649668486878
 30
0.0
 10
6025.88622870912
 20
225.6078385192168
 30
0.0
 10
6025.828183320624
 20
225.7566067601915
 30
0.0
 10
6025.793235782894
 20
225.9111946539536
 30
0.0
 10
6025.767067749748
 20
226.070683026186
 30
0.0
 10
6025.735705757743
 20
226.2340702492876
 30
0.0
 10
6025.694543285052
 20
226.3671044217915
 30
0.0
 10
6025.649549237692
 20
226.4631100190246
 30
0.0
 10
6025.621559466447
 20
226.5304426631218
 30
0.0
 10
6025.605549270929
 20
226.6002372387401
 30
0.0
 10
6025.590888746699
 20
226.6677661096078
 30
0.0
 10
6025.567582188234
 20
226.7315968400213
 30
0.0
 10
6025.541491974126
 20
226.7966853106352
 30
0.0
 10
6025.519325981388
 20
226.8670961267225
 30
0.0
 10
6025.498186277971
 20
226.9420873315287
 30
0.0
 10
6025.475228723732
 20
227.0171947101985
 30
0.0
 10
6025.452260584843
 20
227.0929479808015
 30
0.0
 10
6025.431323481334
 20
227.1692549736657
 30
0.0
 10
6025.404532882259
 20
227.2569060200047
 30
0.0
 10
6025.363894081507
 20
227.3527463052355
 30
0.0
 10
6025.316939152757
 20
227.4620274310085
 30
0.0
 10
6025.282449252401
 20
227.5785965883455
 30
0.0
 10
6025.259784981179
 20
227.6793506551612
 30
0.0
 10
6025.242340222039
 20
227.7604046834986
 30
0.0
 10
6025.2261639984
 20
227.8211729759933
 30
0.0
 10
6025.20406583826
 20
227.8796968909995
 30
0.0
 10
6025.194974250604
 20
227.9218228825371
 30
0.0
 10
6025.194900371971
 20
227.9437902221748
 30
0.0
 10
6025.194927412932
 20
227.9494836337925
 30
0.0
 10
6025.19512995894
 20
227.9589542771584
 30
0.0
 10
6025.195039013447
 20
227.9929360626539
 30
0.0
 10
6025.179465812839
 20
228.047406404519
 30
0.0
 10
6025.141172530878
 20
228.1230293155946
 30
0.0
 10
6025.105819115614
 20
228.2097577504492
 30
0.0
 10
6025.0677608545
 20
228.3217324936767
 30
0.0
 10
6025.028200409298
 20
228.4509622352157
 30
0.0
 10
6024.989716342645
 20
228.5858931112141
 30
0.0
 10
6024.954810524286
 20
228.7094609503785
 30
0.0
 10
6024.923971208393
 20
228.8156630759523
 30
0.0
 10
6024.893183032545
 20
228.9158622714622
 30
0.0
 10
6024.862923637795
 20
229.0068682571632
 30
0.0
 10
6024.831046433539
 20
229.0939150541287
 30
0.0
 10
6024.799266434725
 20
229.1809915420868
 30
0.0
 10
6024.769320887279
 20
229.2720946175057
 30
0.0
 10
6024.734775259366
 20
229.3840833694178
 30
0.0
 10
6024.695346491963
 20
229.5135065343298
 30
0.0
 10
6024.645231237124
 20
229.6637234121398
 30
0.0
 10
6024.584539872991
 20
229.8150580521234
 30
0.0
 10
6024.522331849052
 20
229.9798241868571
 30
0.0
 10
6024.476676202879
 20
230.1582873050469
 30
0.0
 10
6024.429873750913
 20
230.3543686364886
 30
0.0
 10
6024.362158625191
 20
230.5545847049974
 30
0.0
 10
6024.291922834258
 20
230.7409628404869
 30
0.0
 10
6024.233452260304
 20
230.9089484855561
 30
0.0
 10
6024.183802208113
 20
231.0612868773899
 30
0.0
 10
6024.136058847178
 20
231.2184328995141
 30
0.0
 10
6024.083034534216
 20
231.3574593446377
 30
0.0
 10
6024.02292039363
 20
231.4708946229143
 30
0.0
 10
6023.975962834116
 20
231.567119039751
 30
0.0
 10
6023.950395695386
 20
231.6563765925921
 30
0.0
 10
6023.948191717656
 20
231.7331428658238
 30
0.0
 10
6023.946250950426
 20
231.7890954419224
 30
0.0
 10
6023.936736428045
 20
231.8375920335639
 30
0.0
 10
6023.929201853578
 20
231.8761947356034
 30
0.0
 10
6023.926424048697
 20
231.9118455176084
 30
0.0
 10
6023.922301505607
 20
231.9462798390739
 30
0.0
 10
6023.910390153218
 20
231.9814295391724
 30
0.0
 10
6023.896456172527
 20
232.0198567413286
 30
0.0
 10
6023.889734144637
 20
232.0609473433703
 30
0.0
 10
6023.877969294816
 20
232.1002783409938
 30
0.0
 10
6023.853087443794
 20
232.1288550324071
 30
0.0
 10
6023.824702328588
 20
232.1595563607818
 30
0.0
 10
6023.808269541737
 20
232.2069783511019
 30
0.0
 10
6023.801141701941
 20
232.2618453400559
 30
0.0
 10
6023.789472619571
 20
232.3164382278992
 30
0.0
 10
6023.771870097669
 20
232.367292539424
 30
0.0
 10
6023.74768289661
 20
232.4129282496917
 30
0.0
 10
6023.726881881669
 20
232.4573751356731
 30
0.0
 10
6023.717410039187
 20
232.5042800487822
 30
0.0
 10
6023.710240386232
 20
232.5512562689009
 30
0.0
 10
6023.696368900586
 20
232.5981043634856
 30
0.0
 10
6023.677732349946
 20
232.6482662614518
 30
0.0
 10
6023.658141689451
 20
232.70196087087
 30
0.0
 10
6023.647879290953
 20
232.7522676111957
 30
0.0
 10
6023.648417025905
 20
232.7927141767698
 30
0.0
 10
6023.646441009654
 20
232.8241226964682
 30
0.0
 10
6023.634155437185
 20
232.8542575503623
 30
0.0
 10
6023.608669737423
 20
232.9001849791087
 30
0.0
 10
6023.583698612612
 20
232.9680359134623
 30
0.0
 10
6023.554499422237
 20
233.0597128718378
 30
0.0
 10
6023.509198357826
 20
233.150150788554
 30
0.0
 10
6023.467996568153
 20
233.2364977192231
 30
0.0
 10
6023.445317981526
 20
233.318549728142
 30
0.0
 10
6023.428656269842
 20
233.3935413456659
 30
0.0
 10
6023.408057951799
 20
233.4702132987913
 30
0.0
 10
6023.385745388102
 20
233.5429290351111
 30
0.0
 10
6023.363651195312
 20
233.6096920890813
 30
0.0
 10
6023.341445467362
 20
233.6828639982727
 30
0.0
 10
6023.323349180035
 20
233.7690153351516
 30
0.0
 10
6023.299730035186
 20
233.8637625692806
 30
0.0
 10
6023.261024821674
 20
233.9506260663541
 30
0.0
 10
6023.217642476568
 20
234.0447599728227
 30
0.0
 10
6023.187695856016
 20
234.1562109807328
 30
0.0
 10
6023.165407172855
 20
234.2801087453617
 30
0.0
 10
6023.13899588748
 20
234.408376853332
 30
0.0
 10
6023.092929172777
 20
234.5360782370099
 30
0.0
 10
6023.036060430896
 20
234.664074698485
 30
0.0
 10
6022.965609489494
 20
234.8255771007657
 30
0.0
 10
6022.904130250232
 20
235.0291453118053
 30
0.0
 10
6022.851343819363
 20
235.2628734723085
 30
0.0
 10
6022.798528544516
 20
235.4881480094222
 30
0.0
 10
6022.739257078791
 20
235.710567016915
 30
0.0
 10
6022.66557747249
 20
235.9361183869646
 30
0.0
 10
6022.590782845744
 20
236.1639983220117
 30
0.0
 10
6022.529460624468
 20
236.3909789351368
 30
0.0
 10
6022.469836458577
 20
236.6085263646377
 30
0.0
 10
6022.399412462256
 20
236.8177463386922
 30
0.0
 10
6022.329688039588
 20
237.0202219198039
 30
0.0
 10
6022.268792987094
 20
237.2237343669971
 30
0.0
 10
6022.207816468854
 20
237.4305610710305
 30
0.0
 10
6022.138406984413
 20
237.6399126225018
 30
0.0
 10
6022.069812622812
 20
237.8558441339474
 30
0.0
 10
6022.014084146907
 20
238.0764549385032
 30
0.0
 10
6021.958260453119
 20
238.3034476660154
 30
0.0
 10
6021.889767877394
 20
238.5324104212303
 30
0.0
 10
6021.820309916539
 20
238.7679142974429
 30
0.0
 10
6021.764661168671
 20
239.0084189982217
 30
0.0
 10
6021.701568046069
 20
239.2896607019311
 30
0.0
 10
6021.611175177513
 20
239.6057441889328
 30
0.0
 10
6021.504975678639
 20
239.9219005023839
 30
0.0
 10
6021.404771686105
 20
240.2027806161501
 30
0.0
 10
6021.320951892465
 20
240.4516496007879
 30
0.0
 10
6021.254444965691
 20
240.6889212399283
 30
0.0
 10
6021.209672615924
 20
240.9145075015929
 30
0.0
 10
6021.168201754517
 20
241.1300690809828
 30
0.0
 10
6021.112492479228
 20
241.3484242700931
 30
0.0
 10
6021.04768155177
 20
241.569230134701
 30
0.0
 10
6020.981059795428
 20
241.788654143072
 30
0.0
 10
6020.9100326625
 20
242.0385386887023
 30
0.0
 10
6020.845744672471
 20
242.3224581735097
 30
0.0
 10
6020.779509278264
 20
242.6462632745626
 30
0.0
 10
6020.704193999083
 20
242.9766313845961
 30
0.0
 10
6020.618566798819
 20
243.3129840812273
 30
0.0
 10
6020.52390283066
 20
243.6467945636705
 30
0.0
 10
6020.434622725947
 20
243.9852621667249
 30
0.0
 10
6020.366897599799
 20
244.3312684999349
 30
0.0
 10
6020.301291922594
 20
244.6279351541983
 30
0.0
 10
6020.225344519296
 20
244.8677553379344
 30
0.0
 10
6020.17089335848
 20
245.0464517246251
 30
0.0
 10
6020.133257645442
 20
245.2162562549612
 30
0.0
 10
6020.101825908034
 20
245.3762575608881
 30
0.0
 10
6020.066521925221
 20
245.537680227542
 30
0.0
 10
6020.028413792841
 20
245.6930488079104
 30
0.0
 10
6019.988106964621
 20
245.8402249771619
 30
0.0
 10
6019.948145926
 20
245.9854576173602
 30
0.0
 10
6019.910333203835
 20
246.1368252390737
 30
0.0
 10
6019.877779977298
 20
246.2903603550639
 30
0.0
 10
6019.852893969611
 20
246.4407555177282
 30
0.0
 10
6019.829028590955
 20
246.5904075787085
 30
0.0
 10
6019.79964025623
 20
246.7427535979662
 30
0.0
 10
6019.763251376844
 20
246.90568386289
 30
0.0
 10
6019.720516894544
 20
247.0755386464168
 30
0.0
 10
6019.678852401622
 20
247.2429773726689
 30
0.0
 10
6019.644665559707
 20
247.4010502425372
 30
0.0
 10
6019.614757529525
 20
247.5565450498432
 30
0.0
 10
6019.586615844567
 20
247.7199111797778
 30
0.0
 10
6019.558840005724
 20
247.8784414104216
 30
0.0
 10
6019.529725104
 20
248.0243543404087
 30
0.0
 10
6019.496404360387
 20
248.1473857057632
 30
0.0
 10
6019.454476065504
 20
248.2574998445529
 30
0.0
 10
6019.419057213839
 20
248.3594586071226
 30
0.0
 10
6019.404527713051
 20
248.4389748623165
 30
0.0
 10
6019.403776781432
 20
248.4911406615153
 30
0.0
 10
6019.401076323184
 20
248.5204142291295
 30
0.0
 10
6019.388566109535
 20
248.5521104418027
 30
0.0
 10
6019.371853436821
 20
248.5888705901523
 30
0.0
 10
6019.364560458163
 20
248.6309491638634
 30
0.0
 10
6019.360348446504
 20
248.6712326984234
 30
0.0
 10
6019.352005468944
 20
248.7071974977127
 30
0.0
 10
6019.343472458369
 20
248.7393622919687
 30
0.0
 10
6019.336386280344
 20
248.7720076380469
 30
0.0
 10
6019.324308502326
 20
248.8093284674613
 30
0.0
 10
6019.299957568881
 20
248.8452653728705
 30
0.0
 10
6019.282671600132
 20
248.8804384874433
 30
0.0
 10
6019.282162473326
 20
248.9078589618549
 30
0.0
 10
6019.283495236415
 20
248.928671193255
 30
0.0
 10
6019.2836036767
 20
248.9533969288734
 30
0.0
 10
6019.283095645967
 20
248.9773852756381
 30
0.0
 10
6019.283076422419
 20
248.9969385085522
 30
0.0
 10
6019.283136690658
 20
249.0120972418576
 30
0.0
 10
6019.283137797812
 20
249.0272588345389
 30
0.0
 10
6019.283126900804
 20
249.0379960166948
 30
0.0
 10
6019.283126704054
 20
249.0443113642692
 30
0.0
 10
6019.28312710302
 20
249.0499957925993
 30
0.0
 10
6019.283127178371
 20
249.059469813076
 30
0.0
 10
6019.283126764411
 20
249.0727334260791
 30
0.0
 10
6019.283126756769
 20
249.0859970227829
 30
0.0
 10
6019.283126832035
 20
249.095471035421
 30
0.0
 10
6019.283126833103
 20
249.1011554475278
 30
0.0
 10
6019.283126829341
 20
249.107471456596
 30
0.0
 10
6019.283126847286
 20
249.1182086708024
 30
0.0
 10
6019.283126837181
 20
249.1283142842283
 30
0.0
 10
6019.28312683213
 20
249.133367090264
 30
0.0
 11
6028.9845157186
 21
215.330090188988
 31
0.0
 11
6028.914911876219
 21
215.5949942610457
 31
0.0
 11
6028.826335501826
 21
215.8540692701795
 31
0.0
 11
6028.736565751399
 21
216.1127778417901
 31
0.0
 11
6028.663381780916
 21
216.3765826012784
 31
0.0
 11
6028.634219242699
 21
216.5248597278281
 31
0.0
 11
6028.603695949529
 21
216.6724838509483
 31
0.0
 11
6028.560079954807
 21
216.8156153622257
 31
0.0
 11
6028.525422976985
 21
216.8956393714766
 31
0.0
 11
6028.48807745917
 21
216.9747787736454
 31
0.0
 11
6028.46272501748
 21
217.0313257575886
 31
0.0
 11
6028.438812593726
 21
217.0884669246555
 31
0.0
 11
6028.408118621661
 21
217.169185733521
 31
0.0
 11
6028.381968518222
 21
217.251419941109
 31
0.0
 11
6028.364249357417
 21
217.3213439826469
 31
0.0
 11
6028.347862072923
 21
217.3916353273621
 31
0.0
 11
6028.332830006878
 21
217.4523038506378
 31
0.0
 11
6028.31754523265
 21
217.5129026884427
 31
0.0
 11
6028.30269505234
 21
217.5736135400952
 31
0.0
 11
6028.287228392383
 21
217.634170049523
 31
0.0
 11
6028.270904204044
 21
217.6912425038196
 31
0.0
 11
6028.253121947078
 21
217.7478582005334
 31
0.0
 11
6028.225885909257
 21
217.8277603359483
 31
0.0
 11
6028.196277871565
 21
217.9070216119525
 31
0.0
 11
6028.173101703765
 21
217.9670879086692
 31
0.0
 11
6028.154592216194
 21
218.0282889730339
 31
0.0
 11
6028.14458676352
 21
218.0886892676284
 31
0.0
 11
6028.135644191032
 21
218.1495563341145
 31
0.0
 11
6028.122017047193
 21
218.2037382536847
 31
0.0
 11
6028.101537745724
 21
218.2556652750608
 31
0.0
 11
6028.072850460786
 21
218.3087829951725
 31
0.0
 11
6028.044693670218
 21
218.3617742160084
 31
0.0
 11
6028.016609868827
 21
218.4448664184248
 31
0.0
 11
6027.998628154253
 21
218.5320650122178
 31
0.0
 11
6027.980270384644
 21
218.6194673583037
 31
0.0
 11
6027.937579850003
 21
218.7488159627902
 31
0.0
 11
6027.893109468866
 21
218.8771605005989
 31
0.0
 11
6027.862220444597
 21
219.0120100169216
 31
0.0
 11
6027.828686183293
 21
219.1462224579986
 31
0.0
 11
6027.797487307622
 21
219.2277776107369
 31
0.0
 11
6027.765112220363
 21
219.3089322621396
 31
0.0
 11
6027.741525267516
 21
219.3925467851911
 31
0.0
 11
6027.732187237486
 21
219.4615303691041
 31
0.0
 11
6027.718787637312
 21
219.5289725664101
 31
0.0
 11
6027.687054786061
 21
219.5978640922566
 31
0.0
 11
6027.650574746706
 21
219.6653983476288
 31
0.0
 11
6027.620884660777
 21
219.7511650670719
 31
0.0
 11
6027.603120514957
 21
219.8411127392594
 31
0.0
 11
6027.588046263648
 21
219.9320918018777
 31
0.0
 11
6027.545092977854
 21
220.105522969636
 31
0.0
 11
6027.491411335289
 21
220.2755247580616
 31
0.0
 11
6027.426478965331
 21
220.4842936162582
 31
0.0
 11
6027.360669961627
 21
220.6928550124057
 31
0.0
 11
6027.277231934586
 21
220.9367883663509
 31
0.0
 11
6027.195822142654
 21
221.1812403611349
 31
0.0
 11
6027.107587089065
 21
221.4967937919154
 31
0.0
 11
6027.028605354388
 21
221.8151676856747
 31
0.0
 11
6026.945708210423
 21
222.1324312246174
 31
0.0
 11
6026.799862269655
 21
222.5972251361283
 31
0.0
 11
6026.650119017791
 21
223.060884457892
 31
0.0
 11
6026.54897629259
 21
223.4187672407663
 31
0.0
 11
6026.449269950997
 21
223.7771198092726
 31
0.0
 11
6026.336188190669
 21
224.1462685088339
 31
0.0
 11
6026.225683254002
 21
224.5160927908614
 31
0.0
 11
6026.17969852844
 21
224.6883634655368
 31
0.0
 11
6026.134732733193
 21
224.8609468489315
 31
0.0
 11
6026.090736433737
 21
225.0224359947002
 31
0.0
 11
6026.043782212385
 21
225.1830632768007
 31
0.0
 11
6025.999299483183
 21
225.3223196077966
 31
0.0
 11
6025.949042086547
 21
225.459704444268
 31
0.0
 11
6025.887110599353
 21
225.6085459009203
 31
0.0
 11
6025.831564330498
 21
225.7590832419367
 31
0.0
 11
6025.794853251389
 21
225.9110650307947
 31
0.0
 11
6025.767141044919
 21
226.0660412496692
 31
0.0
 11
6025.732540780755
 21
226.2337424441117
 31
0.0
 11
6025.679980129136
 21
226.3957368876088
 31
0.0
 11
6025.649992665724
 21
226.4634586553018
 31
0.0
 11
6025.623136053631
 21
226.532162668827
 31
0.0
 11
6025.605695163323
 21
226.6002142963665
 31
0.0
 11
6025.589029608332
 21
226.6685884500388
 31
0.0
 11
6025.567281008687
 21
226.731416695679
 31
0.0
 11
6025.543554347923
 21
226.7936454161576
 31
0.0
 11
6025.51970622149
 21
226.8671844525201
 31
0.0
 11
6025.49807908752
 21
226.941440012478
 31
0.0
 11
6025.475258695407
 21
227.0171984830664
 31
0.0
 11
6025.452603827114
 21
227.0930242138228
 31
0.0
 11
6025.430943398846
 21
227.169199228614
 31
0.0
 11
6025.407128566707
 21
227.2446084151749
 31
0.0
 11
6025.36382061653
 21
227.3526821454552
 31
0.0
 11
6025.319967650932
 21
227.4606159021021
 31
0.0
 11
6025.283794177863
 21
227.5788698508306
 31
0.0
 11
6025.25554436536
 21
227.6993610192299
 31
0.0
 11
6025.241868869688
 21
227.7602163639493
 31
0.0
 11
6025.225227525088
 21
227.8206283803069
 31
0.0
 11
6025.205403146726
 21
227.8806807724514
 31
0.0
 11
6025.194910684822
 21
227.9418957413916
 31
0.0
 11
6025.194902933561
 21
227.9437895100413
 31
0.0
 11
6025.194910684822
 21
227.945685346425
 31
0.0
 11
6025.195076938402
 21
227.9589749233731
 31
0.0
 11
6025.194910684821
 21
227.9722125816594
 31
0.0
 11
6025.177583943352
 21
228.045502064439
 31
0.0
 11
6025.145645819378
 21
228.1162175729457
 31
0.0
 11
6025.106637314835
 21
228.2104404605839
 31
0.0
 11
6025.073643323738
 21
228.3056978246342
 31
0.0
 11
6025.02871700211
 21
228.450936473058
 31
0.0
 11
6024.98648240796
 21
228.5974974122343
 31
0.0
 11
6024.954666156047
 21
228.7094508311947
 31
0.0
 11
6024.922059122385
 21
228.8210841092249
 31
0.0
 11
6024.89282320139
 21
228.9157466245921
 31
0.0
 11
6024.861425441844
 21
229.0097222264633
 31
0.0
 11
6024.8310602031
 21
229.0939249584802
 31
0.0
 11
6024.800791761306
 21
229.1781491168547
 31
0.0
 11
6024.769614015995
 21
229.2721734196791
 31
0.0
 11
6024.740158080765
 21
229.3667872340933
 31
0.0
 11
6024.694697102028
 21
229.5133299565067
 31
0.0
 11
6024.645417954919
 21
229.6585868216914
 31
0.0
 11
6024.585032053542
 21
229.815367732332
 31
0.0
 11
6024.52794019887
 21
229.9731240394969
 31
0.0
 11
6024.477201839223
 21
230.1583173250253
 31
0.0
 11
6024.429410467993
 21
230.3445053328061
 31
0.0
 11
6024.361026114258
 21
230.5540105119564
 31
0.0
 11
6024.285405476716
 21
230.7613618865178
 31
0.0
 11
6024.233918957152
 21
230.9091875039744
 31
0.0
 11
6024.185472188416
 21
231.0577932136065
 31
0.0
 11
6024.134293293154
 21
231.2175733308966
 31
0.0
 11
6024.07206474888
 21
231.3744357675391
 31
0.0
 11
6024.023292320507
 21
231.4714870976237
 31
0.0
 11
6023.97849775753
 21
231.5692167580283
 31
0.0
 11
6023.951920233739
 21
231.6708670946289
 31
0.0
 11
6023.948132500522
 21
231.7330459691857
 31
0.0
 11
6023.944060312193
 21
231.795502993515
 31
0.0
 11
6023.93674886294
 21
231.8375645028844
 31
0.0
 11
6023.929463315026
 21
231.879716438708
 31
0.0
 11
6023.926191607236
 21
231.9119311358551
 31
0.0
 11
6023.92160339347
 21
231.9437186570578
 31
0.0
 11
6023.910319157282
 21
231.9812110848341
 31
0.0
 11
6023.898023628815
 21
232.0189493347685
 31
0.0
 11
6023.888690985461
 21
232.0613577712891
 31
0.0
 11
6023.87444386416
 21
232.1009170880921
 31
0.0
 11
6023.853043860784
 21
232.1286396408786
 31
0.0
 11
6023.830652872657
 21
232.1559365389514
 31
0.0
 11
6023.810360885258
 21
232.2064408253908
 31
0.0
 11
6023.80033603239
 21
232.2620454798937
 31
0.0
 11
6023.788305754185
 21
232.3164037033995
 31
0.0
 11
6023.770019192123
 21
232.3681544208359
 31
0.0
 11
6023.747991571933
 21
232.4132395252852
 31
0.0
 11
6023.728333536746
 21
232.459104941649
 31
0.0
 11
6023.717799820275
 21
232.5042071582026
 31
0.0
 11
6023.709385511576
 21
232.5500554624616
 31
0.0
 11
6023.695867284696
 21
232.5978274023173
 31
0.0
 11
6023.679068671307
 21
232.6447955883047
 31
0.0
 11
6023.659528538028
 21
232.7026183151753
 31
0.0
 11
6023.64875183104
 21
232.7622733443561
 31
0.0
 11
6023.648024046379
 21
232.7929371100199
 31
0.0
 11
6023.64496222601
 21
232.8229070248928
 31
0.0
 11
6023.633706406592
 21
232.853658536827
 31
0.0
 11
6023.618434990777
 21
232.8835407054364
 31
0.0
 11
6023.584296964966
 21
232.9683716787002
 31
0.0
 11
6023.554011705196
 21
233.054072931957
 31
0.0
 11
6023.509471710441
 21
233.1503641275361
 31
0.0
 11
6023.466850789415
 21
233.247342788679
 31
0.0
 11
6023.445968397617
 21
233.3185585997986
 31
0.0
 11
6023.428674027591
 21
233.3910670684765
 31
0.0
 11
6023.407589145251
 21
233.4701042083966
 31
0.0
 11
6023.383760190156
 21
233.5482654995048
 31
0.0
 11
6023.363905372385
 21
233.6097801037425
 31
0.0
 11
6023.345583428333
 21
233.6717785524565
 31
0.0
 11
6023.322704473272
 21
233.7690509727501
 31
0.0
 11
6023.296318562895
 21
233.8650484091786
 31
0.0
 11
6023.260864577313
 21
233.9505054757205
 31
0.0
 11
6023.224316067255
 21
234.0355806356994
 31
0.0
 11
6023.189518423317
 21
234.1562046081231
 31
0.0
 11
6023.16485932327
 21
234.2801621596133
 31
0.0
 11
6023.137155151479
 21
234.403172323975
 31
0.0
 11
6023.091476345487
 21
234.5351896855337
 31
0.0
 11
6023.036195820489
 21
234.6641599220968
 31
0.0
 11
6022.98178134509
 21
234.7935016424522
 31
0.0
 11
6022.907067063556
 21
235.0295560650694
 31
0.0
 11
6022.849145168914
 21
235.270991876712
 31
0.0
 11
6022.79740847821
 21
235.4880096313296
 31
0.0
 11
6022.73924662293
 21
235.7030068505628
 31
0.0
 11
6022.665534710181
 21
235.9360650346205
 31
0.0
 11
6022.591452026612
 21
236.1691282697144
 31
0.0
 11
6022.529318900868
 21
236.3909674697739
 31
0.0
 11
6022.466395060499
 21
236.6125120586646
 31
0.0
 11
6022.399184247277
 21
236.817640486867
 31
0.0
 11
6022.330530702253
 21
237.0223508252828
 31
0.0
 11
6022.268933345252
 21
237.2237604991062
 31
0.0
 11
6022.208140495235
 21
237.4254525162844
 31
0.0
 11
6022.138839388113
 21
237.640109125638
 31
0.0
 11
6022.072276136989
 21
237.8555025097492
 31
0.0
 11
6022.014325681215
 21
238.0764768069559
 31
0.0
 11
6021.957745851522
 21
238.2979038085038
 31
0.0
 11
6021.889911126045
 21
238.5324810773442
 31
0.0
 11
6021.823004339216
 21
238.7672534097229
 31
0.0
 11
6021.764935430319
 21
239.0084622399676
 31
0.0
 11
6021.708474053751
 21
239.2500771621739
 31
0.0
 11
6021.608569922919
 21
239.604697928945
 31
0.0
 11
6021.492466566822
 21
239.954943698458
 31
0.0
 11
6021.405466277616
 21
240.203158337055
 31
0.0
 11
6021.323041423085
 21
240.4525317302598
 31
0.0
 11
6021.253721449692
 21
240.7052854951428
 31
0.0
 11
6021.209889682753
 21
240.9144862170061
 31
0.0
 11
6021.167262312618
 21
241.1241070292449
 31
0.0
 11
6021.111185869776
 21
241.3479935519637
 31
0.0
 11
6021.047117797473
 21
241.5698768658114
 31
0.0
 11
6020.981691819562
 21
241.7889134046758
 31
0.0
 11
6020.920236206717
 21
242.0089096267637
 31
0.0
 11
6020.8468662307
 21
242.3225847888754
 31
0.0
 11
6020.780020820478
 21
242.6379840623704
 31
0.0
 11
6020.702775109046
 21
242.9763131275766
 31
0.0
 11
6020.617067804021
 21
243.3125337583846
 31
0.0
 11
6020.524912942132
 21
243.6471420998434
 31
0.0
 11
6020.43895636743
 21
243.9832938493595
 31
0.0
 11
6020.365447707447
 21
244.3311526609587
 31
0.0
 11
6020.283582561045
 21
244.676791570542
 31
0.0
 11
6020.225679405499
 21
244.8679022787013
 31
0.0
 11
6020.169894410034
 21
245.0595416789514
 31
0.0
 11
6020.133906992623
 21
245.2163149123525
 31
0.0
 11
6020.101681519433
 21
245.3740788967577
 31
0.0
 11
6020.065831379625
 21
245.5375454504186
 31
0.0
 11
6020.025889418752
 21
245.6999849296612
 31
0.0
 11
6019.98808270479
 21
245.8402041580177
 31
0.0
 11
6019.950097318068
 21
245.980415702163
 31
0.0
 11
6019.91126754062
 21
246.1370670253034
 31
0.0
 11
6019.878094822429
 21
246.2949529199622
 31
0.0
 11
6019.85303813973
 21
246.4407669055396
 31
0.0
 11
6019.82882995699
 21
246.5867525075674
 31
0.0
 11
6019.798885975741
 21
246.7425908700484
 31
0.0
 11
6019.764406671424
 21
246.8975001203327
 31
0.0
 11
6019.720591399333
 21
247.0755679147669
 31
0.0
 11
6019.677245755644
 21
247.2537229935066
 31
0.0
 11
6019.645233972818
 21
247.4011542078916
 31
0.0
 11
6019.616612075104
 21
247.5493121861417
 31
0.0
 11
6019.586530860954
 21
247.7199178771424
 31
0.0
 11
6019.555978394563
 21
247.890376639179
 31
0.0
 11
6019.528243021108
 21
248.023936266304
 31
0.0
 11
6019.491555108985
 21
248.1556489915461
 31
0.0
 11
6019.454915029622
 21
248.257849797802
 31
0.0
 11
6019.421616269961
 21
248.3606035457676
 31
0.0
 11
6019.404394193214
 21
248.4663966043144
 31
0.0
 11
6019.40344976053
 21
248.4912531759791
 31
0.0
 11
6019.400604588182
 21
248.5156614697551
 31
0.0
 11
6019.388331777765
 21
248.5518265660405
 31
0.0
 11
6019.374077352945
 21
248.5876639653956
 31
0.0
 11
6019.365075158313
 21
248.6308718324306
 31
0.0
 11
6019.358918932805
 21
248.6748248811738
 31
0.0
 11
6019.351842548997
 21
248.7071349396862
 31
0.0
 11
6019.343760512669
 21
248.7392481667446
 31
0.0
 11
6019.335830334849
 21
248.77192643209
 31
0.0
 11
6019.324812487505
 21
248.8036714523223
 31
0.0
 11
6019.300474669874
 21
248.8466410438773
 31
0.0
 11
6019.283126832135
 21
248.890832368102
 31
0.0
 11
6019.282394640732
 21
248.9077085370199
 31
0.0
 11
6019.283126832135
 21
248.9249388134033
 31
0.0
 11
6019.283482111524
 21
248.9534467624911
 31
0.0
 11
6019.283126832133
 21
248.9817828889061
 31
0.0
 11
6019.283088941562
 21
248.9969321465927
 31
0.0
 11
6019.28312683213
 21
249.0120997291787
 31
0.0
 11
6019.283135048696
 21
249.0272601361914
 31
0.0
 11
6019.283126832128
 21
249.0424165694512
 31
0.0
 11
6019.283126736056
 21
249.0443113487364
 31
0.0
 11
6019.283126832129
 21
249.0462061744846
 31
0.0
 11
6019.283127091795
 21
249.0594698548923
 31
0.0
 11
6019.283126832132
 21
249.0727334097188
 31
0.0
 11
6019.283126775604
 21
249.0859970136663
 31
0.0
 11
6019.283126832133
 21
249.0992606449529
 31
0.0
 11
6019.283126832855
 21
249.1011554476442
 31
0.0
 11
6019.283126832132
 21
249.1030502499863
 31
0.0
 11
6019.283126840537
 21
249.1182086721572
 31
0.0
 11
6019.28312683213
 21
249.133367090264
 31
0.0
  0
SPLINE
  5
AE
330
1F
100
AcDbEntity
  8
$DDT_AUDIT_GENERATED__E2_
  6
Continuous
 62
     5
100
AcDbSpline
210
0.0
220
0.0
230
1.0
 70
     8
 71
     3
 72
    69
 73
    65
 74
    63
 42
0.0000000001
 43
0.0000000001
 44
0.00000001
 40
0.0
 40
0.0
 40
0.0
 40
0.0
 40
0.1126820166820709
 40
0.2242385898650177
 40
0.3158074490152342
 40
0.408230748930013
 40
0.4892343019881625
 40
0.5701460029350447
 40
0.6855400042365491
 40
0.8009233442768285
 40
0.9027874851648959
 40
1.004650490908486
 40
1.091228062833508
 40
1.177858441641236
 40
1.27584552716531
 40
1.373512389162245
 40
1.518675037891772
 40
1.664918027708193
 40
1.822129057184102
 40
1.978109917313948
 40
2.158218914075492
 40
2.339550977352765
 40
2.463868657044514
 40
2.587857524100114
 40
2.706159137234341
 40
2.824606192399972
 40
2.91286396397019
 40
3.001107631984512
 40
3.077820926860787
 40
3.154473876933308
 40
3.326551112431929
 40
3.498945679362719
 40
3.681907239345356
 40
3.864836468831189
 40
4.073948143087858
 40
4.283064010194441
 40
4.533752873403008
 40
4.784437862831576
 40
5.202169270375108
 40
5.619914104235428
 40
6.095278973576324
 40
6.570604172927242
 40
7.08827919347504
 40
7.606002051274851
 40
7.913521547592079
 40
8.221029078443358
 40
8.550513879650453
 40
8.88000348794939
 40
9.213326258853925
 40
9.546655826973323
 40
9.865696431293557
 40
10.1847080555375
 40
10.47125773127508
 40
10.75788548515344
 40
10.99403339750023
 40
11.23003669353247
 40
11.2963471730196
 40
11.36267493473539
 40
11.41763645335551
 40
11.47257707894205
 40
11.54680980825024
 40
11.62108273998651
 40
11.91191859339126
 40
12.20279615010648
 40
12.20279615010648
 40
12.20279615010648
 40
12.20279615010648
 10
6019.28312683213
 20
249.103050249986
 30
0.0
 10
6019.283152858179
 20
249.1415676482776
 30
0.0
 10
6019.283204650335
 20
249.2182177414557
 30
0.0
 10
6019.219125058637
 20
249.306922075989
 30
0.0
 10
6019.194967894207
 20
249.4031146072274
 30
0.0
 10
6019.179277089916
 20
249.4899652016232
 30
0.0
 10
6019.156042996188
 20
249.5716273102806
 30
0.0
 10
6019.127628390788
 20
249.6595642144809
 30
0.0
 10
6019.099251894702
 20
249.7595599271727
 30
0.0
 10
6019.074525547228
 20
249.8677197396061
 30
0.0
 10
6019.05693882278
 20
249.9726489542752
 30
0.0
 10
6019.041949399245
 20
250.0682542452031
 30
0.0
 10
6019.024908805095
 20
250.1583479867726
 30
0.0
 10
6019.008932105856
 20
250.2473501101118
 30
0.0
 10
6018.996983268931
 20
250.3406745633169
 30
0.0
 10
6018.979291199978
 20
250.4530363848336
 30
0.0
 10
6018.941282504655
 20
250.5774787237858
 30
0.0
 10
6018.887255708971
 20
250.7168658480241
 30
0.0
 10
6018.834737770158
 20
250.860750841598
 30
0.0
 10
6018.791918946445
 20
251.0200807313687
 30
0.0
 10
6018.775911865237
 20
251.1923729203228
 30
0.0
 10
6018.770293855272
 20
251.3541164587551
 30
0.0
 10
6018.757761136731
 20
251.4968664052096
 30
0.0
 10
6018.739396121152
 20
251.6178015025385
 30
0.0
 10
6018.711730968869
 20
251.7349261299637
 30
0.0
 10
6018.68126199284
 20
251.8389135506936
 30
0.0
 10
6018.651355946961
 20
251.932570245637
 30
0.0
 10
6018.625923108457
 20
252.0130561188348
 30
0.0
 10
6018.603570649009
 20
252.09043851487
 30
0.0
 10
6018.577513794875
 20
252.1957999134969
 30
0.0
 10
6018.556016664633
 20
252.3347146570001
 30
0.0
 10
6018.535639722126
 20
252.5093192241622
 30
0.0
 10
6018.506037963387
 20
252.6863629543262
 30
0.0
 10
6018.470304103909
 20
252.8746586237932
 30
0.0
 10
6018.434495213523
 20
253.0718244942574
 30
0.0
 10
6018.395782508745
 20
253.2914093553192
 30
0.0
 10
6018.355153593776
 20
253.5247287782814
 30
0.0
 10
6018.303451736859
 20
253.8267036874261
 30
0.0
 10
6018.243963593184
 20
254.1838378590173
 30
0.0
 10
6018.173003412316
 20
254.6149847428862
 30
0.0
 10
6018.098072220577
 20
255.0649314968156
 30
0.0
 10
6018.021830637566
 20
255.548433237629
 30
0.0
 10
6017.953414598051
 20
256.0473661536251
 30
0.0
 10
6017.897312116684
 20
256.4914747990721
 30
0.0
 10
6017.850065177196
 20
256.8660905543447
 30
0.0
 10
6017.81200762634
 20
257.178621667103
 30
0.0
 10
6017.775853531906
 20
257.4987513369899
 30
0.0
 10
6017.741048378861
 20
257.8276824650125
 30
0.0
 10
6017.707790178027
 20
258.1580613743034
 30
0.0
 10
6017.676517344606
 20
258.4851353117359
 30
0.0
 10
6017.647240170216
 20
258.8076043691107
 30
0.0
 10
6017.621667748186
 20
259.1147474265559
 30
0.0
 10
6017.599884721569
 20
259.4113469305423
 30
0.0
 10
6017.581055150627
 20
259.6804655936726
 30
0.0
 10
6017.562864907955
 20
259.932731792636
 30
0.0
 10
6017.555142928179
 20
260.1121283817404
 30
0.0
 10
6017.554573520986
 20
260.2350125885216
 30
0.0
 10
6017.554981627435
 20
260.2975452763287
 30
0.0
 10
6017.55565934877
 20
260.3562838445507
 30
0.0
 10
6017.555377110551
 20
260.4176708313458
 30
0.0
 10
6017.552107343043
 20
260.4854301500013
 30
0.0
 10
6017.540595178107
 20
260.6314328303354
 30
0.0
 10
6017.51534566451
 20
260.848695063404
 30
0.0
 10
6017.501404392116
 20
261.0421176237916
 30
0.0
 10
6017.49443325619
 20
261.138835837263
 30
0.0
 11
6019.28312683213
 21
249.103050249986
 31
0.0
 11
6019.271702461438
 21
249.2151516355164
 31
0.0
 11
6019.222493151584
 21
249.3152681318796
 31
0.0
 11
6019.196064243562
 21
249.4029400703027
 31
0.0
 11
6019.177017891188
 21
249.4933795684679
 31
0.0
 11
6019.155584198842
 21
249.5714959716138
 31
0.0
 11
6019.131542630786
 21
249.6487533748548
 31
0.0
 11
6019.100214953935
 21
249.7598135036117
 31
0.0
 11
6019.074698555274
 21
249.8723400718443
 31
0.0
 11
6019.057115918033
 21
249.9726752803531
 31
0.0
 11
6019.040592109972
 21
250.0731891386328
 31
0.0
 11
6019.025043530452
 21
250.1583590725025
 31
0.0
 11
6019.010275269698
 21
250.2437213651536
 31
0.0
 11
6018.996499502638
 21
250.3407352671029
 31
0.0
 11
6018.979958429421
 21
250.4369912218754
 31
0.0
 11
6018.939743718748
 21
250.5764723017093
 31
0.0
 11
6018.889007908615
 21
250.7136323893462
 31
0.0
 11
6018.836768021329
 21
250.8619101758322
 31
0.0
 11
6018.798057387811
 21
251.0130111870119
 31
0.0
 11
6018.777688226438
 21
251.1919646669429
 31
0.0
 11
6018.767740547538
 21
251.3730236652194
 31
0.0
 11
6018.756449209644
 21
251.4968275067289
 31
0.0
 11
6018.737423707261
 21
251.6193479924151
 31
0.0
 11
6018.710733730014
 21
251.7345995294319
 31
0.0
 11
6018.677912872663
 21
251.8484085633446
 31
0.0
 11
6018.651396633594
 21
251.9325888657211
 31
0.0
 11
6018.625139113672
 21
252.016835453736
 31
0.0
 11
6018.60404275526
 21
252.090590950294
 31
0.0
 11
6018.585839505916
 21
252.1650511172838
 31
0.0
 11
6018.557099858478
 21
252.3347113885378
 31
0.0
 11
6018.534679837962
 21
252.5056418696912
 31
0.0
 11
6018.505381775839
 21
252.6862424122903
 31
0.0
 11
6018.472151354903
 21
252.8661280485282
 31
0.0
 11
6018.434672462657
 21
253.0718536544853
 31
0.0
 11
6018.398254056744
 21
253.2777738953226
 31
0.0
 11
6018.355270194515
 21
253.5247501972723
 31
0.0
 11
6018.312987943484
 21
253.7718436516018
 31
0.0
 11
6018.244097132683
 21
254.1838552837623
 31
0.0
 11
6018.176000739297
 21
254.5960125685757
 31
0.0
 11
6018.098743688705
 21
255.0650574567659
 31
0.0
 11
6018.025539383882
 21
255.5347117710155
 31
0.0
 11
6017.954325340394
 21
256.0474651102628
 31
0.0
 11
6017.888552179696
 21
256.5609929564604
 31
0.0
 11
6017.850282497357
 21
256.8661218997431
 31
0.0
 11
6017.813321501995
 21
257.1714000783804
 31
0.0
 11
6017.776237987685
 21
257.4987913537573
 31
0.0
 11
6017.741459362094
 21
257.8264403262553
 31
0.0
 11
6017.70806710335
 21
258.1580862619449
 31
0.0
 11
6017.676334297808
 21
258.4899019186507
 31
0.0
 11
6017.647635236825
 21
258.8076490997613
 31
0.0
 11
6017.621314846954
 21
259.1255730741322
 31
0.0
 11
6017.600051299367
 21
259.4113327252541
 31
0.0
 11
6017.579769547327
 21
259.6972420112655
 31
0.0
 11
6017.563999104916
 21
259.9328627439099
 31
0.0
 11
6017.555066936733
 21
260.1686969486166
 31
0.0
 11
6017.554696869754
 21
260.2350063954568
 31
0.0
 11
6017.555066936736
 21
260.3013331247946
 31
0.0
 11
6017.555511597248
 21
260.3562928446452
 31
0.0
 11
6017.555066936735
 21
260.4112316707782
 31
0.0
 11
6017.551732052826
 21
260.4853894529043
 31
0.0
 11
6017.546084169246
 21
260.5594473343198
 31
0.0
 11
6017.517459318899
 21
260.8488710921013
 31
0.0
 11
6017.49443325619
 21
261.138835837263
 31
0.0
  0
SPLINE
  5
AF
330
1F
100
AcDbEntity
  8
$DDT_AUDIT_GENERATED__E2_
  6
Continuous
 62
     7
100
AcDbSpline
210
0.0
220
0.0
230
1.0
 70
     8
 71
     3
 72
     9
 73
     5
 74
     3
 42
0.0000000001
 43
0.0000000001
 44
0.00000001
 40
0.0
 40
0.0
 40
0.0
 40
0.0
 40
91.98799052218664
 40
183.9756712367606
 40
183.9756712367606
 40
183.9756712367606
 40
183.9756712367606
 10
6584.26776210755
 20
227.759994699766
 30
0.0
 10
6554.536380062571
 20
235.4208290572399
 30
0.0
 10
6495.073716105344
 20
250.7424719711586
 30
0.0
 10
6434.07746719482
 20
257.8148637730258
 30
0.0
 10
6403.57939409717
 20
261.351053719148
 30
0.0
 11
6584.26776210755
 21
227.759994699766
 31
0.0
 11
6494.690218443043
 21
248.6801780484656
 31
0.0
 11
6403.57939409717
 21
261.351053719148
 31
0.0
  0
SPLINE
  5
B0
330
1F
100
AcDbEntity
  8
$DDT_AUDIT_GENERATED__E2_
  6
Continuous
 62
     7
100
AcDbSpline
210
0.0
220
0.0
230
1.0
 70
     8
 71
     3
 72
     9
 73
     5
 74
     3
 42
0.0000000001
 43
0.0000000001
 44
0.00000001
 40
0.0
 40
0.0
 40
0.0
 40
0.0
 40
7.693453387892801
 40
15.38685727476203
 40
15.38685727476203
 40
15.38685727476203
 40
15.38685727476203
 10
6584.26776210755
 20
227.759994699766
 30
0.0
 10
6586.761270575782
 20
227.1423992514704
 30
0.0
 10
6591.748271468576
 20
225.9072123285963
 30
0.0
 10
6596.866884140318
 20
225.4648682734081
 30
0.0
 10
6599.42618224265
 20
225.243696957346
 30
0.0
 11
6584.26776210755
 21
227.759994699766
 31
0.0
 11
6591.781190668685
 21
226.1054203471293
 31
0.0
 11
6599.42618224265
 21
225.243696957346
 31
0.0
  0
LWPOLYLINE
  5
B1
330
1F
100
AcDbEntity
  8
$DDT_AUDIT_GENERATED__3B_
  6
Continuous
 62
     1
100
AcDbPolyline
 90
        2
 70
     0
 43
0.0
 10
5461.24104797858
 20
648.527420809856
 10
5461.24104797859
 20
605.022755022122
  0
LWPOLYLINE
  5
B2
330
1F
100
AcDbEntity
  8
$DDT_AUDIT_GENERATED__3B_
  6
Continuous
 62
     1
100
AcDbPolyline
 90
        2
 70
     0
 43
0.0
 10
6024.07318759482
 20
566.550684719236
 10
5499.65248460093
 20
566.550684719236
  0
LWPOLYLINE
  5
B3
330
1F
100
AcDbEntity
  8
$DDT_AUDIT_GENERATED__3B_
  6
Continuous
 62
     1
100
AcDbPolyline
 90
        2
 70
     0
 43
0.0
 10
6062.48462421717
 20
605.022755022122
 10
6062.48462421716
 20
648.527420809856
  0
LWPOLYLINE
  5
B4
330
1F
100
AcDbEntity
  8
$DDT_AUDIT_GENERATED__3B_
  6
Continuous
 62
     7
100
AcDbPolyline
 90
        2
 70
     0
 43
0.0
 10
5502.04751498227
 20
505.644152616406
 10
6021.67815721348
 20
505.644152616406
  0
LWPOLYLINE
  5
B5
330
1F
100
AcDbEntity
  8
$DDT_AUDIT_GENERATED__E2_
  6
Continuous
 62
     7
100
AcDbPolyline
 90
        2
 70
     0
 43
0.0
 10
5454.2075410359
 20
660.411622195773
 10
5454.2075410359
 20
261.411687399693
  0
LWPOLYLINE
  5
B6
330
1F
100
AcDbEntity
  8
$DDT_AUDIT_GENERATED__E2_
  6
Continuous
 62
     7
100
AcDbPolyline
 90
        2
 70
     0
 43
0.0
 10
5454.2075410359
 20
261.138835837263
 10
5506.17060525902
 20
261.138835837263
  0
LWPOLYLINE
  5
B7
330
1F
100
AcDbEntity
  8
$DDT_AUDIT_GENERATED__E2_
  6
Continuous
 62
     7
100
AcDbPolyline
 90
        2
 70
     0
 43
0.0
 10
5506.17060525902
 20
470.749469465412
 10
5506.17060525902
 20
261.138835837263
  0
LWPOLYLINE
  5
B8
330
1F
100
AcDbEntity
  8
$DDT_AUDIT_GENERATED__E2_
  6
Continuous
 62
     7
100
AcDbPolyline
 90
        2
 70
     0
 43
0.0
 10
5502.017198142
 20
660.411622195773
 10
5454.2075410359
 20
660.411622195773
  0
LWPOLYLINE
  5
B9
330
1F
100
AcDbEntity
  8
$DDT_AUDIT_GENERATED__E2_
  6
Continuous
 62
     7
100
AcDbPolyline
 90
        2
 70
     0
 43
0.0
 10
6021.6478403732
 20
470.749469465412
 10
5502.017198142
 20
470.749469465412
  0
LWPOLYLINE
  5
BA
330
1F
100
AcDbEntity
  8
$DDT_AUDIT_GENERATED__E2_
  6
Continuous
 62
     7
100
AcDbPolyline
 90
        2
 70
     0
 43
0.0
 10
6069.45749747931
 20
660.411622195773
 10
6021.6478403732
 20
660.411622195773
  0
LWPOLYLINE
  5
BB
330
1F
100
AcDbEntity
  8
$DDT_AUDIT_GENERATED__E2_
  6
Continuous
 62
     7
100
AcDbPolyline
 90
        2
 70
     0
 43
0.0
 10
6017.49443325619
 20
261.138835837263
 10
6017.49443325619
 20
470.749469465412
  0
LWPOLYLINE
  5
BC
330
1F
100
AcDbEntity
  8
$DDT_AUDIT_GENERATED__E2_
  6
Continuous
 62
     7
100
AcDbPolyline
 90
        2
 70
     0
 43
0.0
 10
6017.49443325619
 20
261.138835837263
 10
6069.45749747931
 20
261.138835837263
  0
LWPOLYLINE
  5
BD
330
1F
100
AcDbEntity
  8
$DDT_AUDIT_GENERATED__E2_
  6
Continuous
 62
     7
100
AcDbPolyline
 90
        2
 70
     0
 43
0.0
 10
6069.45749747931
 20
261.411687399693
 10
6069.45749747931
 20
660.411622195773
  0
LWPOLYLINE
  5
BE
330
1F
100
AcDbEntity
  8
$DDT_AUDIT_GENERATED__E2_
  6
Continuous
 62
     5
100
AcDbPolyline
 90
        2
 70
     0
 43
0.0
 10
6625.07422911124
 20
212.844109286836
 10
6625.07422911124
 20
223.879439145181
  0
LWPOLYLINE
  5
BF
330
1F
100
AcDbEntity
  8
$DDT_AUDIT_GENERATED__E2_
  6
Continuous
 62
     5
100
AcDbPolyline
 90
        2
 70
     0
 43
0.0
 10
6593.90851731347
 20
212.844109286836
 10
6625.07422911124
 20
212.844109286836
  0
LWPOLYLINE
  5
C0
330
1F
100
AcDbEntity
  8
$DDT_AUDIT_GENERATED__E2_
  6
Continuous
 62
     5
100
AcDbPolyline
 90
        2
 70
     0
 43
0.0
 10
6593.90851731347
 20
225.759083241937
 10
6593.90851731347
 20
212.844109286836
  0
LWPOLYLINE
  5
C1
330
1F
100
AcDbEntity
  8
$DDT_AUDIT_GENERATED__E2_
  6
Continuous
 62
     7
100
AcDbPolyline
 90
        2
 70
     0
 43
0.0
 10
5502.017198142
 20
507.129677789652
 10
5502.017198142
 20
475.933649151618
  0
LWPOLYLINE
  5
C2
330
1F
100
AcDbEntity
  8
$DDT_AUDIT_GENERATED__E2_
  6
Continuous
 62
     7
100
AcDbPolyline
 90
        2
 70
     0
 43
0.0
 10
5502.017198142
 20
475.933649151618
 10
5502.017198142
 20
470.749469465412
  0
LWPOLYLINE
  5
C3
330
1F
100
AcDbEntity
  8
$DDT_AUDIT_GENERATED__E2_
  6
Continuous
 62
     7
100
AcDbPolyline
 90
        2
 70
     0
 43
0.0
 10
5502.017198142
 20
517.528354002324
 10
5502.017198142
 20
516.497581433141
  0
LWPOLYLINE
  5
C4
330
1F
100
AcDbEntity
  8
$DDT_AUDIT_GENERATED__E2_
  6
Continuous
 62
     7
100
AcDbPolyline
 90
        2
 70
     0
 43
0.0
 10
5502.017198142
 20
516.497581433141
 10
5502.017198142
 20
507.129677789652
  0
LWPOLYLINE
  5
C5
330
1F
100
AcDbEntity
  8
$DDT_AUDIT_GENERATED__E2_
  6
Continuous
 62
     5
100
AcDbPolyline
 90
        2
 70
     0
 43
0.0
 10
5493.89228494959
 20
212.571257724398
 10
5483.67550977853
 20
212.571257724398
  0
LWPOLYLINE
  5
C6
330
1F
100
AcDbEntity
  8
$DDT_AUDIT_GENERATED__E2_
  6
Continuous
 62
     5
100
AcDbPolyline
 90
        2
 70
     0
 43
0.0
 10
5483.67550977853
 20
212.571257724398
 10
5480.18907314746
 20
212.571257724398
  0
LWPOLYLINE
  5
C7
330
1F
100
AcDbEntity
  8
$DDT_AUDIT_GENERATED__E2_
  6
Continuous
 62
     5
100
AcDbPolyline
 90
        2
 70
     0
 43
0.0
 10
5476.73295335666
 20
212.571257724398
 10
5480.18907314746
 20
212.571257724398
  0
LWPOLYLINE
  5
C8
330
1F
100
AcDbEntity
  8
$DDT_AUDIT_GENERATED__E2_
  6
Continuous
 62
     5
100
AcDbPolyline
 90
        2
 70
     0
 43
0.0
 10
5466.5161781856
 20
212.571257724398
 10
5476.73295335666
 20
212.571257724398
  0
LWPOLYLINE
  5
C9
330
1F
100
AcDbEntity
  8
$DDT_AUDIT_GENERATED__E2_
  6
Continuous
 62
     7
100
AcDbPolyline
 90
        2
 70
     0
 43
0.0
 10
5502.017198142
 20
530.50396163797
 10
5502.017198142
 20
523.258236813399
  0
LWPOLYLINE
  5
CA
330
1F
100
AcDbEntity
  8
$DDT_AUDIT_GENERATED__E2_
  6
Continuous
 62
     7
100
AcDbPolyline
 90
        2
 70
     0
 43
0.0
 10
5502.017198142
 20
523.258236813399
 10
5502.017198142
 20
520.135602265566
  0
LWPOLYLINE
  5
CB
330
1F
100
AcDbEntity
  8
$DDT_AUDIT_GENERATED__E2_
  6
Continuous
 62
     7
100
AcDbPolyline
 90
        2
 70
     0
 43
0.0
 10
5502.017198142
 20
540.902637850651
 10
5502.017198142
 20
530.50396163797
  0
LWPOLYLINE
  5
CC
330
1F
100
AcDbEntity
  8
$DDT_AUDIT_GENERATED__E2_
  6
Continuous
 62
     7
100
AcDbPolyline
 90
        2
 70
     0
 43
0.0
 10
5502.017198142
 20
551.301314063331
 10
5502.017198142
 20
540.902637850651
  0
LWPOLYLINE
  5
CD
330
1F
100
AcDbEntity
  8
$DDT_AUDIT_GENERATED__E2_
  6
Continuous
 62
     7
100
AcDbPolyline
 90
        2
 70
     0
 43
0.0
 10
5502.017198142
 20
564.307238539245
 10
5502.017198142
 20
554.969651736023
  0
LWPOLYLINE
  5
CE
330
1F
100
AcDbEntity
  8
$DDT_AUDIT_GENERATED__E2_
  6
Continuous
 62
     7
100
AcDbPolyline
 90
        2
 70
     0
 43
0.0
 10
5502.017198142
 20
554.969651736023
 10
5502.017198142
 20
551.301314063331
  0
LWPOLYLINE
  5
CF
330
1F
100
AcDbEntity
  8
$DDT_AUDIT_GENERATED__E2_
  6
Continuous
 62
     7
100
AcDbPolyline
 90
        2
 70
     0
 43
0.0
 10
5502.017198142
 20
520.135602265566
 10
5502.017198142
 20
517.528354002324
  0
LWPOLYLINE
  5
D0
330
1F
100
AcDbEntity
  8
$DDT_AUDIT_GENERATED__E2_
  6
Continuous
 62
     1
100
AcDbPolyline
 90
        2
 70
     0
 43
0.0
 10
5502.017198142
 20
564.822624823837
 10
5502.017198142
 20
578.46520294543
  0
LWPOLYLINE
  5
D1
330
1F
100
AcDbEntity
  8
$DDT_AUDIT_GENERATED__E2_
  6
Continuous
 62
     1
100
AcDbPolyline
 90
        2
 70
     0
 43
0.0
 10
5502.017198142
 20
578.46520294543
 10
5502.017198142
 20
644.192112651218
  0
LWPOLYLINE
  5
D2
330
1F
100
AcDbEntity
  8
$DDT_AUDIT_GENERATED__E2_
  6
Continuous
 62
     1
100
AcDbPolyline
 90
        2
 70
     0
 43
0.0
 10
5502.017198142
 20
666.565940770624
 10
5502.017198142
 20
644.192112651218
  0
LWPOLYLINE
  5
D3
330
1F
100
AcDbEntity
  8
$DDT_AUDIT_GENERATED__E2_
  6
Continuous
 62
     7
100
AcDbPolyline
 90
        2
 70
     0
 43
0.0
 10
5502.017198142
 20
667.687663860622
 10
5502.017198142
 20
666.565940770624
  0
LWPOLYLINE
  5
D4
330
1F
100
AcDbEntity
  8
$DDT_AUDIT_GENERATED__E2_
  6
Continuous
 62
     7
100
AcDbPolyline
 90
        2
 70
     0
 43
0.0
 10
6403.57939409717
 20
261.351053719148
 10
6248.90287503861
 20
261.351053719148
  0
LWPOLYLINE
  5
D5
330
1F
100
AcDbEntity
  8
$DDT_AUDIT_GENERATED__E2_
  6
Continuous
 62
     5
100
AcDbPolyline
 90
        2
 70
     0
 43
0.0
 10
6246.02277521294
 20
212.571257724398
 10
6297.92520575552
 20
212.571257724398
  0
LWPOLYLINE
  5
D6
330
1F
100
AcDbEntity
  8
$DDT_AUDIT_GENERATED__E2_
  6
Continuous
 62
     7
100
AcDbPolyline
 90
        2
 70
     0
 43
0.0
 10
6227.2566510857
 20
261.351053719148
 10
6248.90287503861
 20
261.351053719148
  0
LWPOLYLINE
  5
D7
330
1F
100
AcDbEntity
  8
$DDT_AUDIT_GENERATED__E2_
  6
Continuous
 62
     7
100
AcDbPolyline
 90
        2
 70
     0
 43
0.0
 10
6599.42618224265
 20
225.243696957346
 10
6602.76103467237
 20
225.06179591572
  0
LWPOLYLINE
  5
D8
330
1F
100
AcDbEntity
  8
$DDT_AUDIT_GENERATED__E2_
  6
Continuous
 62
     7
100
AcDbPolyline
 90
        2
 70
     0
 43
0.0
 10
6602.76103467237
 20
225.06179591572
 10
6627.74211105502
 20
223.667221263296
  0
LWPOLYLINE
  5
D9
330
1F
100
AcDbEntity
  8
$DDT_AUDIT_GENERATED__E2_
  6
Continuous
 62
     7
100
AcDbPolyline
 90
        2
 70
     0
 43
0.0
 10
6021.6478403732
 20
666.565940770624
 10
6021.6478403732
 20
667.687663860622
  0
LWPOLYLINE
  5
DA
330
1F
100
AcDbEntity
  8
$DDT_AUDIT_GENERATED__E2_
  6
Continuous
 62
     7
100
AcDbPolyline
 90
        2
 70
     0
 43
0.0
 10
6021.6478403732
 20
667.687663860622
 10
5502.017198142
 20
667.687663860622
  0
LWPOLYLINE
  5
DB
330
1F
100
AcDbEntity
  8
$DDT_AUDIT_GENERATED__E2_
  6
Continuous
 62
     1
100
AcDbPolyline
 90
        2
 70
     0
 43
0.0
 10
6021.6478403732
 20
644.192112651218
 10
6021.6478403732
 20
666.565940770624
  0
LWPOLYLINE
  5
DC
330
1F
100
AcDbEntity
  8
$DDT_AUDIT_GENERATED__E2_
  6
Continuous
 62
     1
100
AcDbPolyline
 90
        2
 70
     0
 43
0.0
 10
6021.6478403732
 20
644.192112651218
 10
6021.6478403732
 20
578.46520294543
  0
LWPOLYLINE
  5
DD
330
1F
100
AcDbEntity
  8
$DDT_AUDIT_GENERATED__E2_
  6
Continuous
 62
     1
100
AcDbPolyline
 90
        2
 70
     0
 43
0.0
 10
6021.6478403732
 20
578.46520294543
 10
6021.6478403732
 20
564.822624823837
  0
LWPOLYLINE
  5
DE
330
1F
100
AcDbEntity
  8
$DDT_AUDIT_GENERATED__E2_
  6
Continuous
 62
     7
100
AcDbPolyline
 90
        2
 70
     0
 43
0.0
 10
6021.6478403732
 20
517.528354002324
 10
6021.6478403732
 20
520.135602265566
  0
LWPOLYLINE
  5
DF
330
1F
100
AcDbEntity
  8
$DDT_AUDIT_GENERATED__E2_
  6
Continuous
 62
     7
100
AcDbPolyline
 90
        2
 70
     0
 43
0.0
 10
6021.6478403732
 20
551.301314063331
 10
6021.6478403732
 20
554.969651736023
  0
LWPOLYLINE
  5
E0
330
1F
100
AcDbEntity
  8
$DDT_AUDIT_GENERATED__E2_
  6
Continuous
 62
     7
100
AcDbPolyline
 90
        2
 70
     0
 43
0.0
 10
6021.6478403732
 20
554.969651736023
 10
6021.6478403732
 20
564.307238539245
  0
LWPOLYLINE
  5
E1
330
1F
100
AcDbEntity
  8
$DDT_AUDIT_GENERATED__E2_
  6
Continuous
 62
     7
100
AcDbPolyline
 90
        2
 70
     0
 43
0.0
 10
6021.6478403732
 20
540.902637850651
 10
6021.6478403732
 20
551.301314063331
  0
LWPOLYLINE
  5
E2
330
1F
100
AcDbEntity
  8
$DDT_AUDIT_GENERATED__E2_
  6
Continuous
 62
     7
100
AcDbPolyline
 90
        2
 70
     0
 43
0.0
 10
6021.6478403732
 20
530.50396163797
 10
6021.6478403732
 20
540.902637850651
  0
LWPOLYLINE
  5
E3
330
1F
100
AcDbEntity
  8
$DDT_AUDIT_GENERATED__E2_
  6
Continuous
 62
     7
100
AcDbPolyline
 90
        2
 70
     0
 43
0.0
 10
6021.6478403732
 20
520.135602265566
 10
6021.6478403732
 20
523.258236813399
  0
LWPOLYLINE
  5
E4
330
1F
100
AcDbEntity
  8
$DDT_AUDIT_GENERATED__E2_
  6
Continuous
 62
     7
100
AcDbPolyline
 90
        2
 70
     0
 43
0.0
 10
6021.6478403732
 20
523.258236813399
 10
6021.6478403732
 20
530.50396163797
  0
LWPOLYLINE
  5
E5
330
1F
100
AcDbEntity
  8
$DDT_AUDIT_GENERATED__E2_
  6
Continuous
 62
     5
100
AcDbPolyline
 90
        2
 70
     0
 43
0.0
 10
6046.96240199882
 20
212.571257724398
 10
6057.11854348934
 20
212.571257724398
  0
LWPOLYLINE
  5
E6
330
1F
100
AcDbEntity
  8
$DDT_AUDIT_GENERATED__E2_
  6
Continuous
 62
     5
100
AcDbPolyline
 90
        2
 70
     0
 43
0.0
 10
6043.47596536775
 20
212.571257724398
 10
6046.96240199882
 20
212.571257724398
  0
LWPOLYLINE
  5
E7
330
1F
100
AcDbEntity
  8
$DDT_AUDIT_GENERATED__E2_
  6
Continuous
 62
     5
100
AcDbPolyline
 90
        2
 70
     0
 43
0.0
 10
6043.47596536775
 20
212.571257724398
 10
6039.98952873667
 20
212.571257724398
  0
LWPOLYLINE
  5
E8
330
1F
100
AcDbEntity
  8
$DDT_AUDIT_GENERATED__E2_
  6
Continuous
 62
     5
100
AcDbPolyline
 90
        2
 70
     0
 43
0.0
 10
6039.98952873667
 20
212.571257724398
 10
6029.80307040589
 20
212.571257724398
  0
LWPOLYLINE
  5
E9
330
1F
100
AcDbEntity
  8
$DDT_AUDIT_GENERATED__E2_
  6
Continuous
 62
     7
100
AcDbPolyline
 90
        2
 70
     0
 43
0.0
 10
6021.6478403732
 20
507.129677789652
 10
6021.6478403732
 20
516.497581433141
  0
LWPOLYLINE
  5
EA
330
1F
100
AcDbEntity
  8
$DDT_AUDIT_GENERATED__E2_
  6
Continuous
 62
     7
100
AcDbPolyline
 90
        2
 70
     0
 43
0.0
 10
6021.6478403732
 20
516.497581433141
 10
6021.6478403732
 20
517.528354002324
  0
LWPOLYLINE
  5
EB
330
1F
100
AcDbEntity
  8
$DDT_AUDIT_GENERATED__E2_
  6
Continuous
 62
     7
100
AcDbPolyline
 90
        2
 70
     0
 43
0.0
 10
6021.6478403732
 20
470.749469465412
 10
6021.6478403732
 20
475.933649151618
  0
LWPOLYLINE
  5
EC
330
1F
100
AcDbEntity
  8
$DDT_AUDIT_GENERATED__E2_
  6
Continuous
 62
     7
100
AcDbPolyline
 90
        2
 70
     0
 43
0.0
 10
6021.6478403732
 20
475.933649151618
 10
6021.6478403732
 20
507.129677789652
  0
LWPOLYLINE
  5
ED
330
1F
100
AcDbEntity
  8
$DDT_AUDIT_GENERATED__3B_
  6
Continuous
 62
     1
100
AcDbPolyline
 90
        2
 70
     0
 43
0.0
 10
6442.74875172627
 20
256.940244407071
 10
6442.74875172627
 20
659.211405970726
  0
ENDSEC
  0
SECTION
  2
OBJECTS
  0
DICTIONARY
  5
C
330
0
100
AcDbDictionary
281
     1
  3
ACAD_GROUP
350
D
  3
ACAD_LAYOUT
350
1A
  3
ACAD_MATERIAL
350
3B
  3
ACAD_MLEADERSTYLE
350
EF
  3
ACAD_MLINESTYLE
350
17
  3
ACAD_PLOTSETTINGS
350
19
  3
ACAD_PLOTSTYLENAME
350
E
  3
ACAD_TABLESTYLE
350
EE
  3
ACAD_VISUALSTYLE
350
2A
  0
DICTIONARY
  5
D
102
{ACAD_REACTORS
330
C
102
}
330
C
100
AcDbDictionary
281
     1
  0
DICTIONARY
  5
1A
102
{ACAD_REACTORS
330
C
102
}
330
C
100
AcDbDictionary
281
     1
  3
Layout1
350
1E
  3
Layout2
350
26
  3
Model
350
22
  0
DICTIONARY
  5
3B
102
{ACAD_REACTORS
330
C
102
}
330
C
100
AcDbDictionary
281
     1
  3
ByBlock
350
3D
  3
ByLayer
350
3C
  3
Global
350
3E
  0
DICTIONARY
  5
EF
102
{ACAD_REACTORS
330
C
102
}
330
C
100
AcDbDictionary
281
     1
  0
DICTIONARY
  5
17
102
{ACAD_REACTORS
330
C
102
}
330
C
100
AcDbDictionary
281
     1
  3
Standard
350
18
  0
DICTIONARY
  5
19
102
{ACAD_REACTORS
330
C
102
}
330
C
100
AcDbDictionary
281
     1
  0
ACDBDICTIONARYWDFLT
  5
E
102
{ACAD_REACTORS
330
C
102
}
330
C
100
AcDbDictionary
281
     1
  3
Normal
350
F
100
AcDbDictionaryWithDefault
340
F
  0
DICTIONARY
  5
EE
102
{ACAD_REACTORS
330
C
102
}
330
C
100
AcDbDictionary
281
     1
  0
DICTIONARY
  5
2A
102
{ACAD_REACTORS
330
C
102
}
330
C
100
AcDbDictionary
281
     1
  3
2dWireframe
350
2F
  3
3D Hidden
350
31
  3
3dWireframe
350
30
  3
Basic
350
32
  3
Brighten
350
36
  3
ColorChange
350
3A
  3
Conceptual
350
34
  3
Dim
350
35
  3
Facepattern
350
39
  3
Flat
350
2B
  3
FlatWithEdges
350
2C
  3
Gouraud
350
2D
  3
GouraudWithEdges
350
2E
  3
Linepattern
350
38
  3
Realistic
350
33
  3
Thicken
350
37
  0
LAYOUT
  5
1E
102
{ACAD_REACTORS
330
1A
102
}
330
1A
100
AcDbPlotSettings
  1

  2
none_device
  4

  6

 40
0.0
 41
0.0
 42
0.0
 43
0.0
 44
0.0
 45
0.0
 46
0.0
 47
0.0
 48
0.0
 49
0.0
140
0.0
141
0.0
142
1.0
143
1.0
 70
   688
 72
     0
 73
     0
 74
     5
  7

 75
    16
 76
     0
 77
     2
 78
   300
147
1.0
148
0.0
149
0.0
100
AcDbLayout
  1
Layout1
 70
     1
 71
     1
 10
0.0
 20
0.0
 11
12.0
 21
9.0
 12
0.0
 22
0.0
 32
0.0
 14
1.00000000000000E+20
 24
1.00000000000000E+20
 34
1.00000000000000E+20
 15
-1.00000000000000E+20
 25
-1.00000000000000E+20
 35
-1.00000000000000E+20
146
0.0
 13
0.0
 23
0.0
 33
0.0
 16
1.0
 26
0.0
 36
0.0
 17
0.0
 27
1.0
 37
0.0
 76
     0
330
1B
  0
LAYOUT
  5
26
102
{ACAD_REACTORS
330
1A
102
}
330
1A
100
AcDbPlotSettings
  1

  2
none_device
  4

  6

 40
0.0
 41
0.0
 42
0.0
 43
0.0
 44
0.0
 45
0.0
 46
0.0
 47
0.0
 48
0.0
 49
0.0
140
0.0
141
0.0
142
1.0
143
1.0
 70
   688
 72
     0
 73
     0
 74
     5
  7

 75
    16
 76
     0
 77
     2
 78
   300
147
1.0
148
0.0
149
0.0
100
AcDbLayout
  1
Layout2
 70
     1
 71
     2
 10
0.0
 20
0.0
 11
0.0
 21
0.0
 12
0.0
 22
0.0
 32
0.0
 14
0.0
 24
0.0
 34
0.0
 15
0.0
 25
0.0
 35
0.0
146
0.0
 13
0.0
 23
0.0
 33
0.0
 16
1.0
 26
0.0
 36
0.0
 17
0.0
 27
1.0
 37
0.0
 76
     0
330
23
  0
LAYOUT
  5
22
102
{ACAD_REACTORS
330
1A
102
}
330
1A
100
AcDbPlotSettings
  1

  2
none_device
  4

  6

 40
0.0
 41
0.0
 42
0.0
 43
0.0
 44
0.0
 45
0.0
 46
0.0
 47
0.0
 48
0.0
 49
0.0
140
0.0
141
0.0
142
1.0
143
1.0
 70
  1712
 72
     0
 73
     0
 74
     0
  7

 75
     0
 76
     0
 77
     2
 78
   300
147
1.0
148
0.0
149
0.0
100
AcDbLayout
  1
Model
 70
     1
 71
     0
 10
0.0
 20
0.0
 11
12.0
 21
9.0
 12
0.0
 22
0.0
 32
0.0
 14
5454.17694873137
 24
-868.433079146791
 34
0.0
 15
6698.164753595148
 25
673.8718935027534
 35
0.0
146
0.0
 13
0.0
 23
0.0
 33
0.0
 16
1.0
 26
0.0
 36
0.0
 17
0.0
 27
1.0
 37
0.0
 76
     0
330
1F
331
29
  0
MATERIAL
  5
3D
102
{ACAD_REACTORS
330
3B
102
}
330
3B
100
AcDbMaterial
  1
ByBlock
 72
     1
 94
      127
  0
MATERIAL
  5
3C
102
{ACAD_REACTORS
330
3B
102
}
330
3B
100
AcDbMaterial
  1
ByLayer
 72
     1
 94
      127
  0
MATERIAL
  5
3E
102
{ACAD_REACTORS
330
3B
102
}
330
3B
100
AcDbMaterial
  1
Global
 72
     1
 94
      127
  0
MLINESTYLE
  5
18
102
{ACAD_REACTORS
330
17
102
}
330
17
100
AcDbMlineStyle
  2
Standard
 70
     0
  3

 62
   256
 51
90.0
 52
90.0
 71
     2
 49
0.5
 62
   256
  6
BYLAYER
 49
-0.5
 62
   256
  6
BYLAYER
  0
ACDBPLACEHOLDER
  5
F
102
{ACAD_REACTORS
330
E
102
}
330
E
  0
VISUALSTYLE
  5
2F
102
{ACAD_REACTORS
330
2A
102
}
330
2A
100
AcDbVisualStyle
  2
2dWireframe
 70
     4
177
     2
291
     0
 71
     0
176
     1
 72
     2
176
     1
 73
     0
176
     1
 90
        0
176
     1
 40
-0.6
176
     1
 41
-30.0
176
     1
 62
     5
 63
     7
421
 16777215
176
     1
 74
     1
176
     1
 91
        4
176
     1
 64
     7
176
     1
 65
   257
176
     1
 75
     1
176
     1
175
     1
176
     1
 42
1.0
176
     1
 92
        0
176
     1
 66
   257
176
     1
 43
1.0
176
     1
 76
     1
176
     1
 77
     6
176
     1
 78
     2
176
     1
 67
     7
176
     1
 79
     5
176
     1
170
     0
176
     1
171
     0
176
     1
290
     0
176
     1
 93
        1
176
     1
 44
0.0
176
     1
173
     0
176
     1
  0
VISUALSTYLE
  5
31
102
{ACAD_REACTORS
330
2A
102
}
330
2A
100
AcDbVisualStyle
  2
3D Hidden
 70
     6
177
     2
291
     0
 71
     1
176
     1
 72
     2
176
     1
 73
     2
176
     1
 90
        0
176
     1
 40
-0.6
176
     1
 41
-30.0
176
     1
 62
     5
 63
     7
421
 16777215
176
     1
 74
     2
176
     1
 91
        2
176
     1
 64
     7
176
     1
 65
   257
176
     1
 75
     2
176
     1
175
     1
176
     1
 42
40.0
176
     1
 92
        0
176
     1
 66
   257
176
     1
 43
1.0
176
     1
 76
     1
176
     1
 77
     6
176
     1
 78
     2
176
     1
 67
     7
176
     1
 79
     3
176
     1
170
     0
176
     1
171
     0
176
     1
290
     0
176
     1
 93
        1
176
     1
 44
0.0
176
     1
173
     0
176
     1
  0
VISUALSTYLE
  5
30
102
{ACAD_REACTORS
330
2A
102
}
330
2A
100
AcDbVisualStyle
  2
3dWireframe
 70
     5
177
     2
291
     0
 71
     0
176
     1
 72
     2
176
     1
 73
     0
176
     1
 90
        0
176
     1
 40
-0.6
176
     1
 41
-30.0
176
     1
 62
     5
 63
     7
421
 16777215
176
     1
 74
     1
176
     1
 91
        4
176
     1
 64
     7
176
     1
 65
   257
176
     1
 75
     1
176
     1
175
     1
176
     1
 42
1.0
176
     1
 92
        0
176
     1
 66
   257
176
     1
 43
1.0
176
     1
 76
     1
176
     1
 77
     6
176
     1
 78
     2
176
     1
 67
     7
176
     1
 79
     5
176
     1
170
     0
176
     1
171
     0
176
     1
290
     0
176
     1
 93
        1
176
     1
 44
0.0
176
     1
173
     0
176
     1
  0
VISUALSTYLE
  5
32
102
{ACAD_REACTORS
330
2A
102
}
330
2A
100
AcDbVisualStyle
  2
Basic
 70
     7
177
     2
291
     1
 71
     1
176
     1
 72
     0
176
     1
 73
     1
176
     1
 90
        0
176
     1
 40
-0.6
176
     1
 41
-30.0
176
     1
 62
     5
 63
     7
421
 16777215
176
     1
 74
     0
176
     1
 91
        4
176
     1
 64
     7
176
     1
 65
   257
176
     1
 75
     1
176
     1
175
     1
176
     1
 42
1.0
176
     1
 92
        8
176
     1
 66
     7
176
     1
 43
1.0
176
     1
 76
     1
176
     1
 77
     6
176
     1
 78
     2
176
     1
 67
     7
176
     1
 79
     5
176
     1
170
     0
176
     1
171
     0
176
     1
290
     0
176
     1
 93
        1
176
     1
 44
0.0
176
     1
173
     0
176
     1
  0
VISUALSTYLE
  5
36
102
{ACAD_REACTORS
330
2A
102
}
330
2A
100
AcDbVisualStyle
  2
Brighten
 70
    12
177
     2
291
     1
 71
     2
176
     1
 72
     2
176
     1
 73
     0
176
     1
 90
        0
176
     1
 40
-0.6
176
     1
 41
-30.0
176
     1
 62
     5
 63
     7
421
 16777215
176
     1
 74
     1
176
     1
 91
        4
176
     1
 64
     7
176
     1
 65
   257
176
     1
 75
     1
176
     1
175
     1
176
     1
 42
1.0
176
     1
 92
        8
176
     1
 66
     7
176
     1
 43
1.0
176
     1
 76
     1
176
     1
 77
     6
176
     1
 78
     2
176
     1
 67
     7
176
     1
 79
     5
176
     1
170
     0
176
     1
171
     0
176
     1
290
     0
176
     1
 93
        1
176
     1
 44
50.0
176
     1
173
     0
176
     1
  0
VISUALSTYLE
  5
3A
102
{ACAD_REACTORS
330
2A
102
}
330
2A
100
AcDbVisualStyle
  2
ColorChange
 70
    16
177
     2
291
     1
 71
     2
176
     1
 72
     2
176
     1
 73
     3
176
     1
 90
        0
176
     1
 40
-0.6
176
     1
 41
-30.0
176
     1
 62
     5
 63
     8
421
  8421504
176
     1
 74
     1
176
     1
 91
        4
176
     1
 64
     7
176
     1
 65
   257
176
     1
 75
     1
176
     1
175
     1
176
     1
 42
1.0
176
     1
 92
        8
176
     1
 66
     8
424
  8421504
176
     1
 43
1.0
176
     1
 76
     1
176
     1
 77
     6
176
     1
 78
     2
176
     1
 67
     7
176
     1
 79
     5
176
     1
170
     0
176
     1
171
     0
176
     1
290
     0
176
     1
 93
        1
176
     1
 44
0.0
176
     1
173
     0
176
     1
  0
VISUALSTYLE
  5
34
102
{ACAD_REACTORS
330
2A
102
}
330
2A
100
AcDbVisualStyle
  2
Conceptual
 70
     9
177
     2
291
     0
 71
     3
176
     1
 72
     2
176
     1
 73
     0
176
     1
 90
        0
176
     1
 40
-0.6
176
     1
 41
-30.0
176
     1
 62
     5
 63
     7
421
 16777215
176
     1
 74
     2
176
     1
 91
        2
176
     1
 64
     7
176
     1
 65
   257
176
     1
 75
     1
176
     1
175
     1
176
     1
 42
40.0
176
     1
 92
        8
176
     1
 66
     7
176
     1
 43
1.0
176
     1
 76
     1
176
     1
 77
     6
176
     1
 78
     2
176
     1
 67
     7
176
     1
 79
     3
176
     1
170
     0
176
     1
171
     0
176
     1
290
     0
176
     1
 93
        1
176
     1
 44
0.0
176
     1
173
     0
176
     1
  0
VISUALSTYLE
  5
35
102
{ACAD_REACTORS
330
2A
102
}
330
2A
100
AcDbVisualStyle
  2
Dim
 70
    11
177
     2
291
     1
 71
     2
176
     1
 72
     2
176
     1
 73
     0
176
     1
 90
        0
176
     1
 40
-0.6
176
     1
 41
-30.0
176
     1
 62
     5
 63
     7
421
 16777215
176
     1
 74
     1
176
     1
 91
        4
176
     1
 64
     7
176
     1
 65
   257
176
     1
 75
     1
176
     1
175
     1
176
     1
 42
1.0
176
     1
 92
        8
176
     1
 66
     7
176
     1
 43
1.0
176
     1
 76
     1
176
     1
 77
     6
176
     1
 78
     2
176
     1
 67
     7
176
     1
 79
     5
176
     1
170
     0
176
     1
171
     0
176
     1
290
     0
176
     1
 93
        1
176
     1
 44
-50.0
176
     1
173
     0
176
     1
  0
VISUALSTYLE
  5
39
102
{ACAD_REACTORS
330
2A
102
}
330
2A
100
AcDbVisualStyle
  2
Facepattern
 70
    15
177
     2
291
     1
 71
     2
176
     1
 72
     2
176
     1
 73
     0
176
     1
 90
        0
176
     1
 40
-0.6
176
     1
 41
-30.0
176
     1
 62
     5
 63
     7
421
 16777215
176
     1
 74
     1
176
     1
 91
        4
176
     1
 64
     7
176
     1
 65
   257
176
     1
 75
     1
176
     1
175
     1
176
     1
 42
1.0
176
     1
 92
        8
176
     1
 66
     7
176
     1
 43
1.0
176
     1
 76
     1
176
     1
 77
     6
176
     1
 78
     2
176
     1
 67
     7
176
     1
 79
     5
176
     1
170
     0
176
     1
171
     0
176
     1
290
     0
176
     1
 93
        1
176
     1
 44
0.0
176
     1
173
     0
176
     1
  0
VISUALSTYLE
  5
2B
102
{ACAD_REACTORS
330
2A
102
}
330
2A
100
AcDbVisualStyle
  2
Flat
 70
     0
177
     2
291
     1
 71
     2
176
     1
 72
     1
176
     1
 73
     1
176
     1
 90
        2
176
     1
 40
-0.6
176
     1
 41
30.0
176
     1
 62
     5
 63
     7
421
 16777215
176
     1
 74
     0
176
     1
 91
        4
176
     1
 64
     7
176
     1
 65
   257
176
     1
 75
     1
176
     1
175
     1
176
     1
 42
1.0
176
     1
 92
        8
176
     1
 66
     7
176
     1
 43
1.0
176
     1
 76
     1
176
     1
 77
     6
176
     1
 78
     2
176
     1
 67
     7
176
     1
 79
     5
176
     1
170
     0
176
     1
171
     0
176
     1
290
     0
176
     1
 93
       13
176
     1
 44
0.0
176
     1
173
     0
176
     1
  0
VISUALSTYLE
  5
2C
102
{ACAD_REACTORS
330
2A
102
}
330
2A
100
AcDbVisualStyle
  2
FlatWithEdges
 70
     1
177
     2
291
     1
 71
     2
176
     1
 72
     1
176
     1
 73
     1
176
     1
 90
        2
176
     1
 40
-0.6
176
     1
 41
30.0
176
     1
 62
     5
 63
     7
421
 16777215
176
     1
 74
     1
176
     1
 91
        4
176
     1
 64
     7
176
     1
 65
   257
176
     1
 75
     1
176
     1
175
     1
176
     1
 42
1.0
176
     1
 92
        0
176
     1
 66
   257
176
     1
 43
1.0
176
     1
 76
     1
176
     1
 77
     6
176
     1
 78
     2
176
     1
 67
     7
176
     1
 79
     5
176
     1
170
     0
176
     1
171
     0
176
     1
290
     0
176
     1
 93
       13
176
     1
 44
0.0
176
     1
173
     0
176
     1
  0
VISUALSTYLE
  5
2D
102
{ACAD_REACTORS
330
2A
102
}
330
2A
100
AcDbVisualStyle
  2
Gouraud
 70
     2
177
     2
291
     1
 71
     2
176
     1
 72
     2
176
     1
 73
     1
176
     1
 90
        2
176
     1
 40
-0.6
176
     1
 41
30.0
176
     1
 62
     5
 63
     7
421
 16777215
176
     1
 74
     0
176
     1
 91
        4
176
     1
 64
     7
176
     1
 65
   257
176
     1
 75
     1
176
     1
175
     1
176
     1
 42
1.0
176
     1
 92
        0
176
     1
 66
     7
176
     1
 43
1.0
176
     1
 76
     1
176
     1
 77
     6
176
     1
 78
     2
176
     1
 67
     7
176
     1
 79
     5
176
     1
170
     0
176
     1
171
     0
176
     1
290
     0
176
     1
 93
       13
176
     1
 44
0.0
176
     1
173
     0
176
     1
  0
VISUALSTYLE
  5
2E
102
{ACAD_REACTORS
330
2A
102
}
330
2A
100
AcDbVisualStyle
  2
GouraudWithEdges
 70
     3
177
     2
291
     1
 71
     2
176
     1
 72
     2
176
     1
 73
     1
176
     1
 90
        2
176
     1
 40
-0.6
176
     1
 41
30.0
176
     1
 62
     5
 63
     7
421
 16777215
176
     1
 74
     1
176
     1
 91
        4
176
     1
 64
     7
176
     1
 65
   257
176
     1
 75
     1
176
     1
175
     1
176
     1
 42
1.0
176
     1
 92
        0
176
     1
 66
   257
176
     1
 43
1.0
176
     1
 76
     1
176
     1
 77
     6
176
     1
 78
     2
176
     1
 67
     7
176
     1
 79
     5
176
     1
170
     0
176
     1
171
     0
176
     1
290
     0
176
     1
 93
       13
176
     1
 44
0.0
176
     1
173
     0
176
     1
  0
VISUALSTYLE
  5
38
102
{ACAD_REACTORS
330
2A
102
}
330
2A
100
AcDbVisualStyle
  2
Linepattern
 70
    14
177
     2
291
     1
 71
     2
176
     1
 72
     2
176
     1
 73
     0
176
     1
 90
        0
176
     1
 40
-0.6
176
     1
 41
-30.0
176
     1
 62
     5
 63
     7
421
 16777215
176
     1
 74
     1
176
     1
 91
        4
176
     1
 64
     7
176
     1
 65
   257
176
     1
 75
     7
176
     1
175
     7
176
     1
 42
1.0
176
     1
 92
        8
176
     1
 66
     7
176
     1
 43
1.0
176
     1
 76
     1
176
     1
 77
     6
176
     1
 78
     2
176
     1
 67
     7
176
     1
 79
     5
176
     1
170
     0
176
     1
171
     0
176
     1
290
     0
176
     1
 93
        1
176
     1
 44
0.0
176
     1
173
     0
176
     1
  0
VISUALSTYLE
  5
33
102
{ACAD_REACTORS
330
2A
102
}
330
2A
100
AcDbVisualStyle
  2
Realistic
 70
     8
177
     2
291
     0
 71
     2
176
     1
 72
     2
176
     1
 73
     0
176
     1
 90
        0
176
     1
 40
-0.6
176
     1
 41
-30.0
176
     1
 62
     5
 63
     7
421
 16777215
176
     1
 74
     1
176
     1
 91
        0
176
     1
 64
     7
176
     1
 65
   257
176
     1
 75
     1
176
     1
175
     1
176
     1
 42
1.0
176
     1
 92
        8
176
     1
 66
     8
424
  7895160
176
     1
 43
1.0
176
     1
 76
     1
176
     1
 77
     6
176
     1
 78
     2
176
     1
 67
     7
176
     1
 79
     5
176
     1
170
     0
176
     1
171
     0
176
     1
290
     0
176
     1
 93
       13
176
     1
 44
0.0
176
     1
173
     0
176
     1
  0
VISUALSTYLE
  5
37
102
{ACAD_REACTORS
330
2A
102
}
330
2A
100
AcDbVisualStyle
  2
Thicken
 70
    13
177
     2
291
     1
 71
     2
176
     1
 72
     2
176
     1
 73
     0
176
     1
 90
        0
176
     1
 40
-0.6
176
     1
 41
-30.0
176
     1
 62
     5
 63
     7
421
 16777215
176
     1
 74
     1
176
     1
 91
        4
176
     1
 64
     7
176
     1
 65
   257
176
     1
 75
     1
176
     1
175
     1
176
     1
 42
1.0
176
     1
 92
       12
176
     1
 66
     7
176
     1
 43
1.0
176
     1
 76
     1
176
     1
 77
     6
176
     1
 78
     2
176
     1
 67
     7
176
     1
 79
     5
176
     1
170
     0
176
     1
171
     0
176
     1
290
     0
176
     1
 93
        1
176
     1
 44
0.0
176
     1
173
     0
176
     1
  0
ENDSEC
  0
EOF
