  0
SECTION
  2
HEADER
  9
$ACADVER
  1
AC1009
  9
$DWGCODEPAGE
  3
ansi_1252
  9
$INSBASE
 10
0.0
 20
0.0
 30
0.0
  9
$EXTMIN
 10
-537.8227012018497
 20
-3504.46862123648
 30
0.0
  9
$EXTMAX
 10
3747.37012781569
 20
1891.225494617188
 30
0.0
  9
$LIMMIN
 10
0.0
 20
0.0
  9
$LIMMAX
 10
12.0
 20
9.0
  9
$ORTHOMODE
 70
     0
  9
$REGENMODE
 70
     1
  9
$FILLMODE
 70
     1
  9
$QTEXTMODE
 70
     0
  9
$MIRRTEXT
 70
     1
  9
$DRAGMODE
 70
     2
  9
$LTSCALE
 40
1.0
  9
$OSMODE
 70
    37
  9
$ATTMODE
 70
     1
  9
$TEXTSIZE
 40
0.2
  9
$TRACEWID
 40
0.05
  9
$TEXTSTYLE
  7
STANDARD
  9
$CLAYER
  8
0
  9
$CELTYPE
  6
BYLAYER
  9
$CECOLOR
 62
   256
  9
$DIMSCALE
 40
1.0
  9
$DIMASZ
 40
0.18
  9
$DIMEXO
 40
0.0625
  9
$DIMDLI
 40
0.38
  9
$DIMRND
 40
0.0
  9
$DIMDLE
 40
0.0
  9
$DIMEXE
 40
0.18
  9
$DIMTP
 40
0.0
  9
$DIMTM
 40
0.0
  9
$DIMTXT
 40
0.18
  9
$DIMCEN
 40
0.09
  9
$DIMTSZ
 40
0.0
  9
$DIMTOL
 70
     0
  9
$DIMLIM
 70
     0
  9
$DIMTIH
 70
     1
  9
$DIMTOH
 70
     1
  9
$DIMSE1
 70
     0
  9
$DIMSE2
 70
     0
  9
$DIMTAD
 70
     0
  9
$DIMZIN
 70
     0
  9
$DIMBLK
  1

  9
$DIMASO
 70
     1
  9
$DIMSHO
 70
     1
  9
$DIMPOST
  1

  9
$DIMAPOST
  1

  9
$DIMALT
 70
     0
  9
$DIMALTD
 70
     2
  9
$DIMALTF
 40
25.4
  9
$DIMLFAC
 40
1.0
  9
$DIMTOFL
 70
     0
  9
$DIMTVP
 40
0.0
  9
$DIMTIX
 70
     0
  9
$DIMSOXD
 70
     0
  9
$DIMSAH
 70
     0
  9
$DIMBLK1
  1

  9
$DIMBLK2
  1

  9
$DIMSTYLE
  2
STANDARD
  9
$DIMCLRD
 70
     0
  9
$DIMCLRE
 70
     0
  9
$DIMCLRT
 70
     0
  9
$DIMTFAC
 40
1.0
  9
$DIMGAP
 40
0.09
  9
$LUNITS
 70
     2
  9
$LUPREC
 70
     4
  9
$SKETCHINC
 40
0.1
  9
$FILLETRAD
 40
0.5
  9
$AUNITS
 70
     0
  9
$AUPREC
 70
     0
  9
$MENU
  1
.
  9
$ELEVATION
 40
0.0
  9
$PELEVATION
 40
0.0
  9
$THICKNESS
 40
0.0
  9
$LIMCHECK
 70
     0
  9
$CHAMFERA
 40
0.5
  9
$CHAMFERB
 40
0.5
  9
$SKPOLY
 70
     0
  9
$TDCREATE
 40
2456657.602179618
  9
$TDUPDATE
 40
2456657.60217963
  9
$TDINDWG
 40
0.0000000116
  9
$TDUSRTIMER
 40
0.0000000116
  9
$USRTIMER
 70
     1
  9
$ANGBASE
 50
0.0
  9
$ANGDIR
 70
     0
  9
$PDMODE
 70
     0
  9
$PDSIZE
 40
0.0
  9
$PLINEWID
 40
0.0
  9
$COORDS
 70
     1
  9
$SPLFRAME
 70
     0
  9
$SPLINETYPE
 70
     6
  9
$SPLINESEGS
 70
     8
  9
$ATTDIA
 70
     0
  9
$ATTREQ
 70
     1
  9
$HANDLING
 70
     1
  9
$HANDSEED
  5
127
  9
$SURFTAB1
 70
     6
  9
$SURFTAB2
 70
     6
  9
$SURFTYPE
 70
     6
  9
$SURFU
 70
     6
  9
$SURFV
 70
     6
  9
$UCSNAME
  2

  9
$UCSORG
 10
0.0
 20
0.0
 30
0.0
  9
$UCSXDIR
 10
1.0
 20
0.0
 30
0.0
  9
$UCSYDIR
 10
0.0
 20
1.0
 30
0.0
  9
$PUCSNAME
  2

  9
$PUCSORG
 10
0.0
 20
0.0
 30
0.0
  9
$PUCSXDIR
 10
1.0
 20
0.0
 30
0.0
  9
$PUCSYDIR
 10
0.0
 20
1.0
 30
0.0
  9
$USERI1
 70
     0
  9
$USERI2
 70
     0
  9
$USERI3
 70
     0
  9
$USERI4
 70
     0
  9
$USERI5
 70
     0
  9
$USERR1
 40
17.0
  9
$USERR2
 40
0.0
  9
$USERR3
 40
0.0
  9
$USERR4
 40
0.0
  9
$USERR5
 40
0.0
  9
$WORLDVIEW
 70
     1
  9
$SHADEDGE
 70
     3
  9
$SHADEDIF
 70
    70
  9
$TILEMODE
 70
     1
  9
$MAXACTVP
 70
    64
  9
$PLIMCHECK
 70
     0
  9
$PEXTMIN
 10
1.00000000000000E+20
 20
1.00000000000000E+20
 30
1.00000000000000E+20
  9
$PEXTMAX
 10
-1.00000000000000E+20
 20
-1.00000000000000E+20
 30
-1.00000000000000E+20
  9
$PLIMMIN
 10
0.0
 20
0.0
  9
$PLIMMAX
 10
12.0
 20
9.0
  9
$UNITMODE
 70
     0
  9
$VISRETAIN
 70
     1
  9
$PLINEGEN
 70
     0
  9
$PSLTSCALE
 70
     1
  0
ENDSEC
  0
SECTION
  2
TABLES
  0
TABLE
  2
VPORT
 70
     1
  0
VPORT
  2
*ACTIVE
 70
     0
 10
0.0
 20
0.0
 11
1.0
 21
1.0
 12
1604.77371330692
 22
-806.621563309646
 13
0.0
 23
0.0
 14
0.5
 24
0.5
 15
0.5
 25
0.5
 16
0.0
 26
0.0
 36
1.0
 17
0.0
 27
0.0
 37
0.0
 40
5935.263527439036
 41
1.60267857142857
 42
50.0
 43
0.0
 44
0.0
 50
0.0
 51
0.0
 71
     0
 72
   100
 73
     1
 74
     3
 75
     0
 76
     0
 77
     0
 78
     0
  0
ENDTAB
  0
TABLE
  2
LTYPE
 70
     8
  0
LTYPE
  2
CONTINUOUS
 70
     0
  3
Solid line
 72
    65
 73
     0
 40
0.0
  0
LTYPE
  2
DASHED
 70
     0
  3
Dashed
 72
    65
 73
     2
 40
15.0
 49
7.0
 49
-8.0
  0
LTYPE
  2
DOTTED
 70
     0
  3
Dotted
 72
    65
 73
     2
 40
1.0
 49
0.0
 49
-1.0
  0
LTYPE
  2
DOT_CENTER
 70
     0
  3
Dot_Center
 72
    65
 73
     4
 40
14.0
 49
12.0
 49
-1.0
 49
0.0
 49
-1.0
  0
LTYPE
  2
LONG_DASHED
 70
     0
  3
Long_Dashed
 72
    65
 73
     2
 40
15.0
 49
10.0
 49
-5.0
  0
LTYPE
  2
DASH_CENTER
 70
     0
  3
Dash_Center
 72
    65
 73
     4
 40
14.0
 49
11.0
 49
-1.0
 49
1.0
 49
-1.0
  0
LTYPE
  2
PHANTOM
 70
     0
  3
Phantom
 72
    65
 73
     6
 40
13.0
 49
10.0
 49
-1.0
 49
0.0
 49
-1.0
 49
0.0
 49
-1.0
  0
LTYPE
  2
CENTER_DASH_DASH
 70
     0
  3
Center_Dash_Dash
 72
    65
 73
     6
 40
14.0
 49
9.0
 49
-1.0
 49
1.0
 49
-1.0
 49
1.0
 49
-1.0
  0
ENDTAB
  0
TABLE
  2
LAYER
 70
     2
  0
LAYER
  2
0
 70
     0
 62
     7
  6
CONTINUOUS
  0
LAYER
  2
1
 70
     0
 62
     7
  6
CONTINUOUS
  0
ENDTAB
  0
TABLE
  2
STYLE
 70
     1
  0
STYLE
  2
STANDARD
 70
     0
 40
0.0
 41
1.0
 50
0.0
 71
     0
 42
0.2
  3
txt
  4

  0
ENDTAB
  0
TABLE
  2
VIEW
 70
     0
  0
ENDTAB
  0
TABLE
  2
UCS
 70
     0
  0
ENDTAB
  0
TABLE
  2
APPID
 70
     1
  0
APPID
  2
ACAD
 70
     0
  0
ENDTAB
  0
TABLE
  2
DIMSTYLE
 70
     1
  0
DIMSTYLE
  2
STANDARD
 70
     0
  3

  4

  5

  6

  7

 40
1.0
 41
0.18
 42
0.0625
 43
0.38
 44
0.18
 45
0.0
 46
0.0
 47
0.0
 48
0.0
140
0.18
141
0.09
142
0.0
143
25.4
144
1.0
145
0.0
146
1.0
147
0.09
 71
     0
 72
     0
 73
     1
 74
     1
 75
     0
 76
     0
 77
     0
 78
     0
170
     0
171
     2
172
     0
173
     0
174
     0
175
     0
176
     0
177
     0
178
     0
  0
ENDTAB
  0
ENDSEC
  0
SECTION
  2
BLOCKS
  0
BLOCK
  8
0
  2
$MODEL_SPACE
 70
     0
 10
0.0
 20
0.0
 30
0.0
  3
$MODEL_SPACE
  1

  0
ENDBLK
  5
21
  8
0
  0
BLOCK
 67
     1
  8
0
  2
$PAPER_SPACE
 70
     0
 10
0.0
 20
0.0
 30
0.0
  3
$PAPER_SPACE
  1

  0
ENDBLK
  5
1D
 67
     1
  8
0
  0
ENDSEC
  0
SECTION
  2
ENTITIES
  0
LINE
  5
47
  8
0
  6
CONTINUOUS
 62
     7
 10
2029.177298798148
 20
-2504.46862123648
 30
0.0
 11
1049.177298798147
 21
-2504.46862123648
 31
0.0
  0
LINE
  5
48
  8
0
  6
CONTINUOUS
 62
     7
 10
2039.177298798148
 20
-1828.968621236563
 30
0.0
 11
2029.177298798148
 21
-1828.968621236563
 31
0.0
  0
LINE
  5
49
  8
0
  6
CONTINUOUS
 62
     7
 10
2039.177298798148
 20
-1828.968621236563
 30
0.0
 11
2039.177298798148
 21
-1825.968621236563
 31
0.0
  0
LINE
  5
4A
  8
0
  6
CONTINUOUS
 62
     7
 10
1039.177298798147
 20
-1828.968621236563
 30
0.0
 11
1039.177298798147
 21
-1825.968621236563
 31
0.0
  0
LINE
  5
4B
  8
0
  6
CONTINUOUS
 62
     7
 10
2039.177298798148
 20
-1825.968621236563
 30
0.0
 11
1039.177298798147
 21
-1825.968621236563
 31
0.0
  0
LINE
  5
4C
  8
0
  6
CONTINUOUS
 62
     7
 10
2029.177298798148
 20
-1828.968621236563
 30
0.0
 11
1049.177298798147
 21
-1828.968621236563
 31
0.0
  0
LINE
  5
4D
  8
0
  6
CONTINUOUS
 62
     7
 10
2039.177298798148
 20
-1828.968621236563
 30
0.0
 11
2039.177298798148
 21
-1838.968621236563
 31
0.0
  0
LINE
  5
4E
  8
0
  6
CONTINUOUS
 62
     7
 10
2029.177298798148
 20
-1838.968621236563
 30
0.0
 11
2029.177298798148
 21
-2065.968621236563
 31
0.0
  0
LINE
  5
4F
  8
0
  6
CONTINUOUS
 62
     7
 10
2039.177298798148
 20
-2065.968621236563
 30
0.0
 11
2039.177298798148
 21
-2075.968621236563
 31
0.0
  0
LINE
  5
50
  8
0
  6
CONTINUOUS
 62
     7
 10
2039.177298798148
 20
-1838.968621236563
 30
0.0
 11
2039.177298798148
 21
-2065.968621236563
 31
0.0
  0
LINE
  5
51
  8
0
  6
CONTINUOUS
 62
     7
 10
1039.177298798147
 20
-1828.968621236563
 30
0.0
 11
1039.177298798147
 21
-1838.968621236563
 31
0.0
  0
LINE
  5
52
  8
0
  6
CONTINUOUS
 62
     7
 10
1049.177298798147
 20
-1828.968621236563
 30
0.0
 11
1039.177298798147
 21
-1828.968621236563
 31
0.0
  0
LINE
  5
53
  8
0
  6
CONTINUOUS
 62
     7
 10
1049.177298798147
 20
-1838.968621236563
 30
0.0
 11
1049.177298798147
 21
-2065.968621236563
 31
0.0
  0
LINE
  5
54
  8
0
  6
CONTINUOUS
 62
     7
 10
1039.177298798147
 20
-2065.968621236563
 30
0.0
 11
1039.177298798147
 21
-2075.968621236563
 31
0.0
  0
LINE
  5
55
  8
0
  6
CONTINUOUS
 62
     7
 10
1039.177298798147
 20
-1838.968621236563
 30
0.0
 11
1039.177298798147
 21
-2065.968621236563
 31
0.0
  0
LINE
  5
56
  8
0
  6
CONTINUOUS
 62
     7
 10
1049.177298798147
 20
-1838.968621236563
 30
0.0
 11
2029.177298798148
 21
-1838.968621236563
 31
0.0
  0
LINE
  5
57
  8
0
  6
CONTINUOUS
 62
     7
 10
2029.177298798148
 20
-2065.968621236563
 30
0.0
 11
1049.177298798147
 21
-2065.968621236563
 31
0.0
  0
LINE
  5
58
  8
0
  6
CONTINUOUS
 62
     7
 10
2029.177298798148
 20
-2075.968621236563
 30
0.0
 11
2039.177298798148
 21
-2075.968621236563
 31
0.0
  0
LINE
  5
59
  8
0
  6
CONTINUOUS
 62
     7
 10
2029.177298798148
 20
-2075.968621236563
 30
0.0
 11
1049.177298798147
 21
-2075.968621236563
 31
0.0
  0
LINE
  5
5A
  8
0
  6
CONTINUOUS
 62
     7
 10
1039.177298798147
 20
-2075.968621236563
 30
0.0
 11
1049.177298798147
 21
-2075.968621236563
 31
0.0
  0
LINE
  5
5B
  8
0
  6
CONTINUOUS
 62
     7
 10
452.1772987981508
 20
-1828.96862123656
 30
0.0
 11
62.17729879815033
 21
-1828.96862123656
 31
0.0
  0
LINE
  5
5C
  8
0
  6
CONTINUOUS
 62
     7
 10
452.1772987981508
 20
-1838.96862123656
 30
0.0
 11
-527.8227012018497
 21
-1838.96862123656
 31
0.0
  0
LINE
  5
5D
  8
0
  6
CONTINUOUS
 62
     7
 10
-527.8227012018497
 20
-1828.96862123656
 30
0.0
 11
62.17729879815033
 21
-1828.96862123656
 31
0.0
  0
LINE
  5
5E
  8
0
  6
CONTINUOUS
 62
     7
 10
-537.8227012018497
 20
-1828.96862123656
 30
0.0
 11
-537.8227012018497
 21
-1825.96862123656
 31
0.0
  0
LINE
  5
5F
  8
0
  6
CONTINUOUS
 62
     7
 10
-537.8227012018497
 20
-1825.96862123656
 30
0.0
 11
62.17729879815033
 21
-1825.96862123656
 31
0.0
  0
LINE
  5
60
  8
0
  6
CONTINUOUS
 62
     7
 10
62.17729879815033
 20
-1825.96862123656
 30
0.0
 11
62.17729879815033
 21
-1828.96862123656
 31
0.0
  0
LINE
  5
61
  8
0
  6
CONTINUOUS
 62
     7
 10
-537.8227012018497
 20
-1828.96862123656
 30
0.0
 11
-527.8227012018497
 21
-1828.96862123656
 31
0.0
  0
LINE
  5
62
  8
0
  6
CONTINUOUS
 62
     7
 10
-537.8227012018497
 20
-1828.96862123656
 30
0.0
 11
-537.8227012018497
 21
-1838.96862123656
 31
0.0
  0
LINE
  5
63
  8
0
  6
CONTINUOUS
 62
     7
 10
-537.8227012018497
 20
-2065.968621236561
 30
0.0
 11
-537.8227012018497
 21
-2075.968621236561
 31
0.0
  0
LINE
  5
64
  8
0
  6
CONTINUOUS
 62
     7
 10
-537.8227012018497
 20
-1838.96862123656
 30
0.0
 11
-537.8227012018497
 21
-2065.968621236561
 31
0.0
  0
LINE
  5
65
  8
0
  6
CONTINUOUS
 62
     7
 10
-527.8227012018497
 20
-2065.968621236561
 30
0.0
 11
-527.8227012018497
 21
-1838.96862123656
 31
0.0
  0
LINE
  5
66
  8
0
  6
CONTINUOUS
 62
     7
 10
462.1772987981508
 20
-1828.96862123656
 30
0.0
 11
452.1772987981508
 21
-1828.96862123656
 31
0.0
  0
LINE
  5
67
  8
0
  6
CONTINUOUS
 62
     7
 10
462.1772987981508
 20
-2075.968621236561
 30
0.0
 11
462.1772987981508
 21
-2065.968621236561
 31
0.0
  0
LINE
  5
68
  8
0
  6
CONTINUOUS
 62
     7
 10
462.1772987981508
 20
-2065.968621236561
 30
0.0
 11
462.1772987981508
 21
-1838.96862123656
 31
0.0
  0
LINE
  5
69
  8
0
  6
CONTINUOUS
 62
     7
 10
452.1772987981508
 20
-1838.96862123656
 30
0.0
 11
452.1772987981508
 21
-2065.968621236561
 31
0.0
  0
LINE
  5
6A
  8
0
  6
CONTINUOUS
 62
     7
 10
462.1772987981508
 20
-1838.96862123656
 30
0.0
 11
462.1772987981508
 21
-1828.96862123656
 31
0.0
  0
LINE
  5
6B
  8
0
  6
CONTINUOUS
 62
     7
 10
452.1772987981508
 20
-2075.968621236561
 30
0.0
 11
462.1772987981508
 21
-2075.968621236561
 31
0.0
  0
LINE
  5
6C
  8
0
  6
CONTINUOUS
 62
     7
 10
-537.8227012018497
 20
-2075.968621236561
 30
0.0
 11
-527.8227012018497
 21
-2075.968621236561
 31
0.0
  0
LINE
  5
6D
  8
0
  6
CONTINUOUS
 62
     7
 10
-527.8227012018497
 20
-2065.968621236561
 30
0.0
 11
452.1772987981508
 21
-2065.968621236561
 31
0.0
  0
LINE
  5
6E
  8
0
  6
CONTINUOUS
 62
     7
 10
-527.8227012018497
 20
-2075.968621236561
 30
0.0
 11
452.1772987981508
 21
-2075.968621236561
 31
0.0
  0
LINE
  5
6F
  8
0
  6
CONTINUOUS
 62
     7
 10
1039.177298798147
 20
-2904.46862123648
 30
0.0
 11
1039.177298798147
 21
-2514.46862123648
 31
0.0
  0
LINE
  5
70
  8
0
  6
CONTINUOUS
 62
     7
 10
1039.177298798147
 20
-3504.46862123648
 30
0.0
 11
1039.177298798147
 21
-3494.46862123648
 31
0.0
  0
LINE
  5
71
  8
0
  6
CONTINUOUS
 62
     7
 10
1039.177298798147
 20
-3494.46862123648
 30
0.0
 11
1039.177298798147
 21
-2904.46862123648
 31
0.0
  0
LINE
  5
72
  8
0
  6
CONTINUOUS
 62
     7
 10
2039.177298798148
 20
-3504.46862123648
 30
0.0
 11
2029.177298798148
 21
-3504.46862123648
 31
0.0
  0
LINE
  5
73
  8
0
  6
CONTINUOUS
 62
     7
 10
2029.177298798148
 20
-3504.46862123648
 30
0.0
 11
1049.177298798147
 21
-3504.46862123648
 31
0.0
  0
LINE
  5
74
  8
0
  6
CONTINUOUS
 62
     7
 10
1049.177298798147
 20
-3504.46862123648
 30
0.0
 11
1039.177298798147
 21
-3504.46862123648
 31
0.0
  0
LINE
  5
75
  8
0
  6
CONTINUOUS
 62
     7
 10
2029.177298798148
 20
-2504.46862123648
 30
0.0
 11
2039.177298798148
 21
-2504.46862123648
 31
0.0
  0
LINE
  5
76
  8
0
  6
CONTINUOUS
 62
     7
 10
2039.177298798148
 20
-2504.46862123648
 30
0.0
 11
2039.177298798148
 21
-2514.46862123648
 31
0.0
  0
LINE
  5
77
  8
0
  6
CONTINUOUS
 62
     7
 10
2039.177298798148
 20
-2514.46862123648
 30
0.0
 11
2039.177298798148
 21
-2904.46862123648
 31
0.0
  0
LINE
  5
78
  8
0
  6
CONTINUOUS
 62
     7
 10
2039.177298798148
 20
-3494.46862123648
 30
0.0
 11
2039.177298798148
 21
-2904.46862123648
 31
0.0
  0
LINE
  5
79
  8
0
  6
CONTINUOUS
 62
     7
 10
1039.177298798147
 20
-2504.46862123648
 30
0.0
 11
1039.177298798147
 21
-2514.46862123648
 31
0.0
  0
LINE
  5
7A
  8
0
  6
CONTINUOUS
 62
     7
 10
1039.177298798147
 20
-2504.46862123648
 30
0.0
 11
1049.177298798147
 21
-2504.46862123648
 31
0.0
  0
LINE
  5
7B
  8
0
  6
CONTINUOUS
 62
     7
 10
2039.177298798148
 20
-3504.46862123648
 30
0.0
 11
2039.177298798148
 21
-3494.46862123648
 31
0.0
  0
LINE
  5
7C
  8
0
  6
CONTINUOUS
 62
     7
 10
2866.627474403138
 20
-1850.689494834557
 30
0.0
 11
2872.087182940674
 21
-2063.693881604716
 31
0.0
  0
LINE
  5
7D
  8
0
  6
CONTINUOUS
 62
     7
 10
3249.10437021556
 20
-1362.747592592019
 30
0.0
 11
3741.357232346755
 21
-1651.876145380874
 31
0.0
  0
LINE
  5
7E
  8
0
  6
CONTINUOUS
 62
     7
 10
2871.237331911808
 20
-1841.382268637672
 30
0.0
 11
3741.357232346755
 21
-1651.876145380874
 31
0.0
  0
LINE
  5
7F
  8
0
  6
CONTINUOUS
 62
     7
 10
2880.010678174037
 20
-1842.30224526707
 30
0.0
 11
3732.728144522954
 21
-1656.586252332802
 31
0.0
  0
LINE
  5
80
  8
0
  6
CONTINUOUS
 62
     7
 10
3741.357232346755
 20
-1651.876145380874
 30
0.0
 11
3741.429387092382
 21
-1654.69118161206
 31
0.0
  0
LINE
  5
81
  8
0
  6
CONTINUOUS
 62
     7
 10
2871.309486657435
 20
-1844.197304868858
 30
0.0
 11
2866.386953103242
 21
-1841.306016443604
 31
0.0
  0
LINE
  5
82
  8
0
  6
CONTINUOUS
 62
     7
 10
2866.386953103242
 20
-1841.306016443604
 30
0.0
 11
2383.979148453064
 21
-1557.960034850548
 31
0.0
  0
LINE
  5
83
  8
0
  6
CONTINUOUS
 62
     7
 10
2383.979148453064
 20
-1557.960034850548
 30
0.0
 11
2379.056624526241
 21
-1555.068752080004
 31
0.0
  0
LINE
  5
84
  8
0
  6
CONTINUOUS
 62
     7
 10
2871.309486657435
 20
-1844.197304868858
 30
0.0
 11
2871.237331911808
 21
-1841.382268637672
 31
0.0
  0
LINE
  5
85
  8
0
  6
CONTINUOUS
 62
     7
 10
2871.237331911808
 20
-1841.382268637672
 30
0.0
 11
2378.984469780613
 21
-1552.253715848817
 31
0.0
  0
LINE
  5
86
  8
0
  6
CONTINUOUS
 62
     7
 10
2378.984469780613
 20
-1552.253715848817
 30
0.0
 11
3249.10437021556
 21
-1362.747592592019
 31
0.0
  0
LINE
  5
87
  8
0
  6
CONTINUOUS
 62
     7
 10
2379.056624526241
 20
-1555.068752080004
 30
0.0
 11
2378.984469780613
 21
-1552.253715848817
 31
0.0
  0
LINE
  5
88
  8
0
  6
CONTINUOUS
 62
     7
 10
2384.997365249549
 20
-1786.840068447706
 30
0.0
 11
2389.919893870861
 21
-1789.731353975594
 31
0.0
  0
LINE
  5
89
  8
0
  6
CONTINUOUS
 62
     7
 10
2384.21966896631
 20
-1567.343491711848
 30
0.0
 11
2389.679378234169
 21
-1780.347906974716
 31
0.0
  0
LINE
  5
8A
  8
0
  6
CONTINUOUS
 62
     7
 10
2379.056624526241
 20
-1555.068752080004
 30
0.0
 11
2384.997365249549
 21
-1786.840068447706
 31
0.0
  0
LINE
  5
8B
  8
0
  6
CONTINUOUS
 62
     7
 10
2398.380577127863
 20
-1778.452841425071
 30
0.0
 11
2393.103183895279
 21
-1572.5612811846
 31
0.0
  0
LINE
  5
8C
  8
0
  6
CONTINUOUS
 62
     7
 10
3741.429387092382
 20
-1654.69118161206
 30
0.0
 11
3732.728144522954
 21
-1656.586252332802
 31
0.0
  0
LINE
  5
8D
  8
0
  6
CONTINUOUS
 62
     7
 10
3738.668928811341
 20
-1888.35755921233
 30
0.0
 11
3747.37012781569
 21
-1886.462497979762
 31
0.0
  0
LINE
  5
8E
  8
0
  6
CONTINUOUS
 62
     7
 10
3732.968704012427
 20
-1665.969701069907
 30
0.0
 11
3738.428413174649
 21
-1878.974112211452
 31
0.0
  0
LINE
  5
8F
  8
0
  6
CONTINUOUS
 62
     7
 10
3728.147200366529
 20
-1667.019791311179
 30
0.0
 11
3733.505884371271
 21
-1876.082819580486
 31
0.0
  0
LINE
  5
90
  8
0
  6
CONTINUOUS
 62
     7
 10
3747.37012781569
 20
-1886.462497979762
 30
0.0
 11
3741.429387092382
 21
-1654.69118161206
 31
0.0
  0
LINE
  5
91
  8
0
  6
CONTINUOUS
 62
     7
 10
2880.010678174037
 20
-1842.30224526707
 30
0.0
 11
2871.309486657435
 21
-1844.197304868858
 31
0.0
  0
LINE
  5
92
  8
0
  6
CONTINUOUS
 62
     7
 10
2872.327698759432
 20
-2073.077335708672
 30
0.0
 11
2877.250227380743
 21
-2075.968621236561
 31
0.0
  0
LINE
  5
93
  8
0
  6
CONTINUOUS
 62
     7
 10
2877.250227380743
 20
-2075.968621236561
 30
0.0
 11
2885.951426385093
 21
-2074.073560003993
 31
0.0
  0
LINE
  5
94
  8
0
  6
CONTINUOUS
 62
     7
 10
2871.309486657435
 20
-1844.197304868858
 30
0.0
 11
2877.250227380743
 21
-2075.968621236561
 31
0.0
  0
LINE
  5
95
  8
0
  6
CONTINUOUS
 62
     7
 10
2885.710910566336
 20
-2064.690105900037
 30
0.0
 11
2880.251202006667
 21
-1851.685718266462
 31
0.0
  0
LINE
  5
96
  8
0
  6
CONTINUOUS
 62
     7
 10
2398.279563533058
 20
-1774.511460320552
 30
0.0
 11
2645.326142670921
 21
-1720.706416380208
 31
0.0
  0
LINE
  5
97
  8
0
  6
CONTINUOUS
 62
     7
 10
2398.380577127863
 20
-1778.452841425071
 30
0.0
 11
2650.248645879271
 21
-1723.597707442865
 31
0.0
  0
LINE
  5
98
  8
0
  6
CONTINUOUS
 62
     7
 10
2410.099918908503
 20
-1785.336283468418
 30
0.0
 11
2661.967967877444
 21
-1730.48115659625
 31
0.0
  0
LINE
  5
99
  8
0
  6
CONTINUOUS
 62
     7
 10
3722.027036515948
 20
-1878.582814146953
 30
0.0
 11
3460.920594503966
 21
-1725.219911642079
 31
0.0
  0
LINE
  5
9A
  8
0
  6
CONTINUOUS
 62
     7
 10
3733.505884371271
 20
-1876.082819580486
 30
0.0
 11
3472.399415402651
 21
-1722.719901242421
 31
0.0
  0
LINE
  5
9B
  8
0
  6
CONTINUOUS
 62
     7
 10
3733.323584842364
 20
-1868.969966289783
 30
0.0
 11
3481.100614406999
 21
-1720.824840009853
 31
0.0
  0
LINE
  5
9C
  8
0
  6
CONTINUOUS
 62
     7
 10
3738.668928811341
 20
-1888.35755921233
 30
0.0
 11
2885.951426385093
 21
-2074.073560003993
 31
0.0
  0
LINE
  5
9D
  8
0
  6
CONTINUOUS
 62
     7
 10
3738.428413174649
 20
-1878.974112211452
 30
0.0
 11
2885.710910566336
 21
-2064.690105900037
 31
0.0
  0
LINE
  5
9E
  8
0
  6
CONTINUOUS
 62
     7
 10
3733.505884371271
 20
-1876.082819580486
 30
0.0
 11
2885.609881556918
 21
-2060.748730954268
 31
0.0
  0
LINE
  5
9F
  8
0
  6
CONTINUOUS
 62
     7
 10
2398.380577127863
 20
-1778.452841425071
 30
0.0
 11
2871.904883411767
 21
-2056.581028314013
 31
0.0
  0
LINE
  5
A0
  8
0
  6
CONTINUOUS
 62
     7
 10
2389.679378234169
 20
-1780.347906974716
 30
0.0
 11
2872.087182940674
 21
-2063.693881604716
 31
0.0
  0
LINE
  5
A1
  8
0
  6
CONTINUOUS
 62
     7
 10
2389.919893870861
 20
-1789.731353975594
 30
0.0
 11
2872.327698759432
 21
-2073.077335708672
 31
0.0
  0
LINE
  5
A2
  8
0
  6
CONTINUOUS
 62
     7
 10
2383.979148453064
 20
-1557.960034850548
 30
0.0
 11
2625.183041214964
 21
-1699.633020030063
 31
0.0
  0
LINE
  5
A3
  8
0
  6
CONTINUOUS
 62
     7
 10
2384.21966896631
 20
-1567.343491711848
 30
0.0
 11
2866.627474403138
 21
-1850.689494834557
 31
0.0
  0
LINE
  5
A4
  8
0
  6
CONTINUOUS
 62
     7
 10
3409.739759837135
 20
-1726.930898637511
 30
0.0
 11
2880.010678174037
 21
-1842.30224526707
 31
0.0
  0
LINE
  5
A5
  8
0
  6
CONTINUOUS
 62
     7
 10
3732.968704012427
 20
-1665.969701069907
 30
0.0
 11
2880.251202006667
 21
-1851.685718266462
 31
0.0
  0
LINE
  5
A6
  8
0
  6
CONTINUOUS
 62
     7
 10
2885.710910566336
 20
1192.098017540355
 30
0.0
 11
2880.251201652573
 21
1405.102418988577
 31
0.0
  0
LINE
  5
A7
  8
0
  6
CONTINUOUS
 62
     7
 10
2029.177298798148
 20
752.3195022039121
 30
0.0
 11
1049.177298798147
 21
752.3195022039121
 31
0.0
  0
LINE
  5
A8
  8
0
  6
CONTINUOUS
 62
     7
 10
2901.056410041582
 20
1818.238081545655
 30
0.0
 11
3393.309272172776
 21
1529.109528756799
 31
0.0
  0
LINE
  5
A9
  8
0
  6
CONTINUOUS
 62
     7
 10
2871.237331911808
 20
1415.405854802721
 30
0.0
 11
3393.309272172776
 21
1529.109528756799
 31
0.0
  0
LINE
  5
AA
  8
0
  6
CONTINUOUS
 62
     7
 10
2871.309486657435
 20
1412.590818571534
 30
0.0
 11
2880.01067833611
 21
1414.48587820862
 31
0.0
  0
LINE
  5
AB
  8
0
  6
CONTINUOUS
 62
     7
 10
3393.309272172776
 20
1529.109528756799
 30
0.0
 11
3393.381426918403
 21
1526.294492525613
 31
0.0
  0
LINE
  5
AC
  8
0
  6
CONTINUOUS
 62
     7
 10
2871.309486657435
 20
1412.590818571534
 30
0.0
 11
2866.386953103242
 21
1415.482106996788
 31
0.0
  0
LINE
  5
AD
  8
0
  6
CONTINUOUS
 62
     7
 10
2871.309486657435
 20
1412.590818571534
 30
0.0
 11
2871.237331911808
 21
1415.405854802721
 31
0.0
  0
LINE
  5
AE
  8
0
  6
CONTINUOUS
 62
     7
 10
2871.237331911808
 20
1415.405854802721
 30
0.0
 11
2378.984469780613
 21
1704.534407591576
 31
0.0
  0
LINE
  5
AF
  8
0
  6
CONTINUOUS
 62
     7
 10
2378.984469780613
 20
1704.534407591576
 30
0.0
 11
2901.056410041582
 21
1818.238081545655
 31
0.0
  0
LINE
  5
B0
  8
0
  6
CONTINUOUS
 62
     7
 10
2379.056624526241
 20
1701.719371360388
 30
0.0
 11
2378.984469780613
 21
1704.534407591576
 31
0.0
  0
LINE
  5
B1
  8
0
  6
CONTINUOUS
 62
     7
 10
2379.056624526241
 20
1701.719371360388
 30
0.0
 11
2383.979148453064
 21
1698.828088589844
 31
0.0
  0
LINE
  5
B2
  8
0
  6
CONTINUOUS
 62
     7
 10
2384.997365249549
 20
1469.948054992687
 30
0.0
 11
2389.919893870861
 21
1467.056769464798
 31
0.0
  0
LINE
  5
B3
  8
0
  6
CONTINUOUS
 62
     7
 10
2384.21966896631
 20
1689.444631728544
 30
0.0
 11
2389.679378234169
 21
1476.440216465676
 31
0.0
  0
LINE
  5
B4
  8
0
  6
CONTINUOUS
 62
     7
 10
2379.056624526241
 20
1701.719371360388
 30
0.0
 11
2384.997365249549
 21
1469.948054992687
 31
0.0
  0
LINE
  5
B5
  8
0
  6
CONTINUOUS
 62
     7
 10
2398.380577127863
 20
1478.335282015321
 30
0.0
 11
2393.103183895279
 21
1684.226842255792
 31
0.0
  0
LINE
  5
B6
  8
0
  6
CONTINUOUS
 62
     7
 10
3249.176524961187
 20
1891.225494617188
 30
0.0
 11
3254.099053582499
 21
1888.334209089298
 31
0.0
  0
LINE
  5
B7
  8
0
  6
CONTINUOUS
 62
     7
 10
3249.176524961187
 20
1891.225494617188
 30
0.0
 11
3240.475325956838
 21
1889.33043338462
 31
0.0
  0
LINE
  5
B8
  8
0
  6
CONTINUOUS
 62
     7
 10
3245.638370396907
 20
1877.055693752775
 30
0.0
 11
3251.098079664766
 21
1664.051278489907
 31
0.0
  0
LINE
  5
B9
  8
0
  6
CONTINUOUS
 62
     7
 10
3240.816866303372
 20
1876.005620975564
 30
0.0
 11
3246.17555139755
 21
1666.942550203148
 31
0.0
  0
LINE
  5
BA
  8
0
  6
CONTINUOUS
 62
     7
 10
3259.79927855846
 20
1665.946344039551
 30
0.0
 11
3254.521884263589
 21
1871.837945723964
 31
0.0
  0
LINE
  5
BB
  8
0
  6
CONTINUOUS
 62
     7
 10
3736.506858471071
 20
1604.988227356221
 30
0.0
 11
3741.429387092382
 21
1602.096941828332
 31
0.0
  0
LINE
  5
BC
  8
0
  6
CONTINUOUS
 62
     7
 10
3741.429387092382
 20
1602.096941828332
 30
0.0
 11
3732.728188088033
 21
1600.201880595764
 31
0.0
  0
LINE
  5
BD
  8
0
  6
CONTINUOUS
 62
     7
 10
3738.668928811341
 20
1368.430564228062
 30
0.0
 11
3747.37012781569
 21
1370.32562546063
 31
0.0
  0
LINE
  5
BE
  8
0
  6
CONTINUOUS
 62
     7
 10
3732.968704012427
 20
1590.818422370485
 30
0.0
 11
3738.428412992583
 21
1377.814018332018
 31
0.0
  0
LINE
  5
BF
  8
0
  6
CONTINUOUS
 62
     7
 10
3728.147200366529
 20
1589.768332129213
 30
0.0
 11
3733.505884371271
 21
1380.705303859907
 31
0.0
  0
LINE
  5
C0
  8
0
  6
CONTINUOUS
 62
     7
 10
3747.37012781569
 20
1370.32562546063
 30
0.0
 11
3741.429387092382
 21
1602.096941828332
 31
0.0
  0
LINE
  5
C1
  8
0
  6
CONTINUOUS
 62
     7
 10
2872.327698759432
 20
1183.71078773172
 30
0.0
 11
2877.250227380743
 21
1180.819502203832
 31
0.0
  0
LINE
  5
C2
  8
0
  6
CONTINUOUS
 62
     7
 10
2877.250227380743
 20
1180.819502203832
 30
0.0
 11
2885.951426385093
 21
1182.7145634364
 31
0.0
  0
LINE
  5
C3
  8
0
  6
CONTINUOUS
 62
     7
 10
2871.309486657435
 20
1412.590818571534
 30
0.0
 11
2877.250227380743
 21
1180.819502203832
 31
0.0
  0
LINE
  5
C4
  8
0
  6
CONTINUOUS
 62
     7
 10
2866.627474403138
 20
1406.098628605835
 30
0.0
 11
2872.087182940674
 21
1193.094241835676
 31
0.0
  0
LINE
  5
C5
  8
0
  6
CONTINUOUS
 62
     7
 10
2398.279563533058
 20
1482.27666311984
 30
0.0
 11
2645.326142670921
 21
1536.081707060184
 31
0.0
  0
LINE
  5
C6
  8
0
  6
CONTINUOUS
 62
     7
 10
3182.320553940522
 20
1653.035392453887
 30
0.0
 11
3246.17555139755
 21
1666.942550203148
 31
0.0
  0
LINE
  5
C7
  8
0
  6
CONTINUOUS
 62
     7
 10
2398.380577127863
 20
1478.335282015321
 30
0.0
 11
2650.248645879271
 21
1533.190415997528
 31
0.0
  0
LINE
  5
C8
  8
0
  6
CONTINUOUS
 62
     7
 10
3187.243082561834
 20
1650.144106925998
 30
0.0
 11
3251.098079664766
 21
1664.051278489907
 31
0.0
  0
LINE
  5
C9
  8
0
  6
CONTINUOUS
 62
     7
 10
2410.099918908503
 20
1471.451839971974
 30
0.0
 11
2661.967967877444
 21
1526.306966844142
 31
0.0
  0
LINE
  5
CA
  8
0
  6
CONTINUOUS
 62
     7
 10
3198.962379147046
 20
1643.260652237845
 30
0.0
 11
3251.338595301458
 21
1654.667831489028
 31
0.0
  0
LINE
  5
CB
  8
0
  6
CONTINUOUS
 62
     7
 10
3722.027036515949
 20
1378.205309293439
 30
0.0
 11
3460.920594503966
 21
1531.568211798313
 31
0.0
  0
LINE
  5
CC
  8
0
  6
CONTINUOUS
 62
     7
 10
3444.27870275871
 20
1541.342956540563
 30
0.0
 11
3251.338595301458
 21
1654.667831489028
 31
0.0
  0
LINE
  5
CD
  8
0
  6
CONTINUOUS
 62
     7
 10
3733.505884371271
 20
1380.705303859907
 30
0.0
 11
3472.399415402651
 21
1534.068222197971
 31
0.0
  0
LINE
  5
CE
  8
0
  6
CONTINUOUS
 62
     7
 10
3455.757552411141
 20
1543.842950051485
 30
0.0
 11
3251.098079664766
 21
1664.051278489907
 31
0.0
  0
LINE
  5
CF
  8
0
  6
CONTINUOUS
 62
     7
 10
3733.323584842364
 20
1387.818157150609
 30
0.0
 11
3481.100614407
 21
1535.963283430539
 31
0.0
  0
LINE
  5
D0
  8
0
  6
CONTINUOUS
 62
     7
 10
3464.45875141549
 20
1545.738011284053
 30
0.0
 11
3259.79927855846
 21
1665.946344039551
 31
0.0
  0
LINE
  5
D1
  8
0
  6
CONTINUOUS
 62
     7
 10
3738.428412992583
 20
1377.814018332018
 30
0.0
 11
3733.505884371271
 21
1380.705303859907
 31
0.0
  0
LINE
  5
D2
  8
0
  6
CONTINUOUS
 62
     7
 10
3738.668928811341
 20
1368.430564228062
 30
0.0
 11
2885.951426385093
 21
1182.7145634364
 31
0.0
  0
LINE
  5
D3
  8
0
  6
CONTINUOUS
 62
     7
 10
3738.428412992583
 20
1377.814018332018
 30
0.0
 11
2885.710910566336
 21
1192.098017540355
 31
0.0
  0
LINE
  5
D4
  8
0
  6
CONTINUOUS
 62
     7
 10
3733.505884371271
 20
1380.705303859907
 30
0.0
 11
2885.609830730994
 21
1196.039381416589
 31
0.0
  0
LINE
  5
D5
  8
0
  6
CONTINUOUS
 62
     7
 10
2398.380577127863
 20
1478.335282015321
 30
0.0
 11
2871.904883411767
 21
1200.207095126379
 31
0.0
  0
LINE
  5
D6
  8
0
  6
CONTINUOUS
 62
     7
 10
2389.679378234169
 20
1476.440216465676
 30
0.0
 11
2872.087182940674
 21
1193.094241835676
 31
0.0
  0
LINE
  5
D7
  8
0
  6
CONTINUOUS
 62
     7
 10
2389.919893870861
 20
1467.056769464798
 30
0.0
 11
2872.327698759432
 21
1183.71078773172
 31
0.0
  0
LINE
  5
D8
  8
0
  6
CONTINUOUS
 62
     7
 10
2383.979148453064
 20
1698.828088589844
 30
0.0
 11
2625.183041214965
 21
1557.15510341033
 31
0.0
  0
LINE
  5
D9
  8
0
  6
CONTINUOUS
 62
     7
 10
2625.183041214965
 20
1557.15510341033
 30
0.0
 11
2866.386953103242
 21
1415.482106996788
 31
0.0
  0
LINE
  5
DA
  8
0
  6
CONTINUOUS
 62
     7
 10
2384.21966896631
 20
1689.444631728544
 30
0.0
 11
2866.627474403138
 21
1406.098628605835
 31
0.0
  0
LINE
  5
DB
  8
0
  6
CONTINUOUS
 62
     7
 10
3732.968704012427
 20
1590.818422370485
 30
0.0
 11
2880.251201652573
 21
1405.102418988577
 31
0.0
  0
LINE
  5
DC
  8
0
  6
CONTINUOUS
 62
     7
 10
3732.728188088033
 20
1600.201880595764
 30
0.0
 11
3393.381426918403
 21
1526.294492525613
 31
0.0
  0
LINE
  5
DD
  8
0
  6
CONTINUOUS
 62
     7
 10
3393.381426918403
 20
1526.294492525613
 30
0.0
 11
2880.01067833611
 21
1414.48587820862
 31
0.0
  0
LINE
  5
DE
  8
0
  6
CONTINUOUS
 62
     7
 10
3727.805659466721
 20
1603.093166123653
 30
0.0
 11
3391.902541862402
 21
1529.935779911422
 31
0.0
  0
LINE
  5
DF
  8
0
  6
CONTINUOUS
 62
     7
 10
3716.326831379599
 20
1600.593159946179
 30
0.0
 11
3245.638370396907
 21
1877.055693752775
 31
0.0
  0
LINE
  5
E0
  8
0
  6
CONTINUOUS
 62
     7
 10
3727.805659466721
 20
1603.093166123653
 30
0.0
 11
3245.39785457815
 21
1886.43914785673
 31
0.0
  0
LINE
  5
E1
  8
0
  6
CONTINUOUS
 62
     7
 10
3736.506858471071
 20
1604.988227356221
 30
0.0
 11
3254.099053582499
 21
1888.334209089298
 31
0.0
  0
LINE
  5
E2
  8
0
  6
CONTINUOUS
 62
     7
 10
2904.57223376548
 20
1816.173052707156
 30
0.0
 11
3240.475325956838
 21
1889.33043338462
 31
0.0
  0
LINE
  5
E3
  8
0
  6
CONTINUOUS
 62
     7
 10
2909.494762386793
 20
1813.281767179268
 30
0.0
 11
3245.39785457815
 21
1886.43914785673
 31
0.0
  0
LINE
  5
E4
  8
0
  6
CONTINUOUS
 62
     7
 10
2921.214058972005
 20
1806.398312491115
 30
0.0
 11
3245.638370396907
 21
1877.055693752775
 31
0.0
  0
LINE
  5
E5
  8
0
  6
CONTINUOUS
 62
     7
 10
2039.177298798148
 20
1427.819502203829
 30
0.0
 11
2029.177298798148
 21
1427.819502203829
 31
0.0
  0
LINE
  5
E6
  8
0
  6
CONTINUOUS
 62
     7
 10
2039.177298798148
 20
1427.819502203829
 30
0.0
 11
2039.177298798148
 21
1430.819502203829
 31
0.0
  0
LINE
  5
E7
  8
0
  6
CONTINUOUS
 62
     7
 10
1039.177298798147
 20
1427.819502203829
 30
0.0
 11
1039.177298798147
 21
1430.819502203829
 31
0.0
  0
LINE
  5
E8
  8
0
  6
CONTINUOUS
 62
     7
 10
2039.177298798148
 20
1430.819502203829
 30
0.0
 11
1039.177298798147
 21
1430.819502203829
 31
0.0
  0
LINE
  5
E9
  8
0
  6
CONTINUOUS
 62
     7
 10
2029.177298798148
 20
1427.819502203829
 30
0.0
 11
1049.177298798147
 21
1427.819502203829
 31
0.0
  0
LINE
  5
EA
  8
0
  6
CONTINUOUS
 62
     7
 10
2039.177298798148
 20
1427.819502203829
 30
0.0
 11
2039.177298798148
 21
1417.819502203829
 31
0.0
  0
LINE
  5
EB
  8
0
  6
CONTINUOUS
 62
     7
 10
2029.177298798148
 20
1417.819502203829
 30
0.0
 11
2029.177298798148
 21
1190.819502203829
 31
0.0
  0
LINE
  5
EC
  8
0
  6
CONTINUOUS
 62
     7
 10
2039.177298798148
 20
1190.819502203829
 30
0.0
 11
2039.177298798148
 21
1180.819502203829
 31
0.0
  0
LINE
  5
ED
  8
0
  6
CONTINUOUS
 62
     7
 10
2039.177298798148
 20
1417.819502203829
 30
0.0
 11
2039.177298798148
 21
1190.819502203829
 31
0.0
  0
LINE
  5
EE
  8
0
  6
CONTINUOUS
 62
     7
 10
1039.177298798147
 20
1427.819502203829
 30
0.0
 11
1039.177298798147
 21
1417.819502203829
 31
0.0
  0
LINE
  5
EF
  8
0
  6
CONTINUOUS
 62
     7
 10
1049.177298798147
 20
1427.819502203829
 30
0.0
 11
1039.177298798147
 21
1427.819502203829
 31
0.0
  0
LINE
  5
F0
  8
0
  6
CONTINUOUS
 62
     7
 10
1049.177298798147
 20
1417.819502203829
 30
0.0
 11
1049.177298798147
 21
1190.819502203829
 31
0.0
  0
LINE
  5
F1
  8
0
  6
CONTINUOUS
 62
     7
 10
1039.177298798147
 20
1190.819502203829
 30
0.0
 11
1039.177298798147
 21
1180.819502203829
 31
0.0
  0
LINE
  5
F2
  8
0
  6
CONTINUOUS
 62
     7
 10
1039.177298798147
 20
1417.819502203829
 30
0.0
 11
1039.177298798147
 21
1190.819502203829
 31
0.0
  0
LINE
  5
F3
  8
0
  6
CONTINUOUS
 62
     7
 10
1049.177298798147
 20
1417.819502203829
 30
0.0
 11
2029.177298798148
 21
1417.819502203829
 31
0.0
  0
LINE
  5
F4
  8
0
  6
CONTINUOUS
 62
     7
 10
2029.177298798148
 20
1190.819502203829
 30
0.0
 11
1049.177298798147
 21
1190.819502203829
 31
0.0
  0
LINE
  5
F5
  8
0
  6
CONTINUOUS
 62
     7
 10
2029.177298798148
 20
1180.819502203829
 30
0.0
 11
2039.177298798148
 21
1180.819502203829
 31
0.0
  0
LINE
  5
F6
  8
0
  6
CONTINUOUS
 62
     7
 10
2029.177298798148
 20
1180.819502203829
 30
0.0
 11
1049.177298798147
 21
1180.819502203829
 31
0.0
  0
LINE
  5
F7
  8
0
  6
CONTINUOUS
 62
     7
 10
1039.177298798147
 20
1180.819502203829
 30
0.0
 11
1049.177298798147
 21
1180.819502203829
 31
0.0
  0
LINE
  5
F8
  8
0
  6
CONTINUOUS
 62
     7
 10
452.1772987981506
 20
1427.819502203832
 30
0.0
 11
62.17729879815056
 21
1427.819502203832
 31
0.0
  0
LINE
  5
F9
  8
0
  6
CONTINUOUS
 62
     7
 10
452.1772987981506
 20
1417.819502203832
 30
0.0
 11
-527.8227012018494
 21
1417.819502203832
 31
0.0
  0
LINE
  5
FA
  8
0
  6
CONTINUOUS
 62
     7
 10
-527.8227012018494
 20
1427.819502203832
 30
0.0
 11
62.17729879815056
 21
1427.819502203832
 31
0.0
  0
LINE
  5
FB
  8
0
  6
CONTINUOUS
 62
     7
 10
-537.8227012018494
 20
1427.819502203832
 30
0.0
 11
-537.8227012018494
 21
1430.819502203832
 31
0.0
  0
LINE
  5
FC
  8
0
  6
CONTINUOUS
 62
     7
 10
-537.8227012018494
 20
1430.819502203832
 30
0.0
 11
62.17729879815056
 21
1430.819502203832
 31
0.0
  0
LINE
  5
FD
  8
0
  6
CONTINUOUS
 62
     7
 10
62.17729879815056
 20
1430.819502203832
 30
0.0
 11
62.17729879815056
 21
1427.819502203832
 31
0.0
  0
LINE
  5
FE
  8
0
  6
CONTINUOUS
 62
     7
 10
-537.8227012018494
 20
1427.819502203832
 30
0.0
 11
-527.8227012018494
 21
1427.819502203832
 31
0.0
  0
LINE
  5
FF
  8
0
  6
CONTINUOUS
 62
     7
 10
-537.8227012018494
 20
1427.819502203832
 30
0.0
 11
-537.8227012018494
 21
1417.819502203832
 31
0.0
  0
LINE
  5
100
  8
0
  6
CONTINUOUS
 62
     7
 10
-537.8227012018494
 20
1190.819502203832
 30
0.0
 11
-537.8227012018494
 21
1180.819502203832
 31
0.0
  0
LINE
  5
101
  8
0
  6
CONTINUOUS
 62
     7
 10
-537.8227012018494
 20
1417.819502203832
 30
0.0
 11
-537.8227012018494
 21
1190.819502203832
 31
0.0
  0
LINE
  5
102
  8
0
  6
CONTINUOUS
 62
     7
 10
-527.8227012018494
 20
1190.819502203832
 30
0.0
 11
-527.8227012018494
 21
1417.819502203832
 31
0.0
  0
LINE
  5
103
  8
0
  6
CONTINUOUS
 62
     7
 10
462.1772987981506
 20
1427.819502203832
 30
0.0
 11
452.1772987981506
 21
1427.819502203832
 31
0.0
  0
LINE
  5
104
  8
0
  6
CONTINUOUS
 62
     7
 10
462.1772987981506
 20
1180.819502203832
 30
0.0
 11
462.1772987981506
 21
1190.819502203832
 31
0.0
  0
LINE
  5
105
  8
0
  6
CONTINUOUS
 62
     7
 10
462.1772987981506
 20
1190.819502203832
 30
0.0
 11
462.1772987981506
 21
1417.819502203832
 31
0.0
  0
LINE
  5
106
  8
0
  6
CONTINUOUS
 62
     7
 10
452.1772987981506
 20
1417.819502203832
 30
0.0
 11
452.1772987981506
 21
1190.819502203832
 31
0.0
  0
LINE
  5
107
  8
0
  6
CONTINUOUS
 62
     7
 10
462.1772987981506
 20
1417.819502203832
 30
0.0
 11
462.1772987981506
 21
1427.819502203832
 31
0.0
  0
LINE
  5
108
  8
0
  6
CONTINUOUS
 62
     7
 10
452.1772987981506
 20
1180.819502203832
 30
0.0
 11
462.1772987981506
 21
1180.819502203832
 31
0.0
  0
LINE
  5
109
  8
0
  6
CONTINUOUS
 62
     7
 10
-537.8227012018494
 20
1180.819502203832
 30
0.0
 11
-527.8227012018494
 21
1180.819502203832
 31
0.0
  0
LINE
  5
10A
  8
0
  6
CONTINUOUS
 62
     7
 10
-527.8227012018494
 20
1190.819502203832
 30
0.0
 11
452.1772987981506
 21
1190.819502203832
 31
0.0
  0
LINE
  5
10B
  8
0
  6
CONTINUOUS
 62
     7
 10
-527.8227012018494
 20
1180.819502203832
 30
0.0
 11
452.1772987981506
 21
1180.819502203832
 31
0.0
  0
LINE
  5
10C
  8
0
  6
CONTINUOUS
 62
     7
 10
1039.177298798147
 20
352.3195022039122
 30
0.0
 11
1039.177298798147
 21
742.3195022039121
 31
0.0
  0
LINE
  5
10D
  8
0
  6
CONTINUOUS
 62
     7
 10
1049.177298798147
 20
352.3195022039122
 30
0.0
 11
1049.177298798147
 21
742.3195022039121
 31
0.0
  0
LINE
  5
10E
  8
0
  6
CONTINUOUS
 62
     7
 10
1039.177298798147
 20
-247.6804977960878
 30
0.0
 11
1039.177298798147
 21
-237.6804977960878
 31
0.0
  0
LINE
  5
10F
  8
0
  6
CONTINUOUS
 62
     7
 10
1039.177298798147
 20
-237.6804977960878
 30
0.0
 11
1039.177298798147
 21
352.3195022039122
 31
0.0
  0
LINE
  5
110
  8
0
  6
CONTINUOUS
 62
     7
 10
1039.177298798147
 20
352.3195022039122
 30
0.0
 11
2039.177298798148
 21
352.3195022039122
 31
0.0
  0
LINE
  5
111
  8
0
  6
CONTINUOUS
 62
     7
 10
2039.177298798148
 20
-247.6804977960878
 30
0.0
 11
2029.177298798148
 21
-247.6804977960878
 31
0.0
  0
LINE
  5
112
  8
0
  6
CONTINUOUS
 62
     7
 10
2029.177298798148
 20
-247.6804977960878
 30
0.0
 11
1049.177298798147
 21
-247.6804977960878
 31
0.0
  0
LINE
  5
113
  8
0
  6
CONTINUOUS
 62
     7
 10
1049.177298798147
 20
-247.6804977960878
 30
0.0
 11
1039.177298798147
 21
-247.6804977960878
 31
0.0
  0
LINE
  5
114
  8
0
  6
CONTINUOUS
 62
     7
 10
2029.177298798148
 20
752.3195022039121
 30
0.0
 11
2039.177298798148
 21
752.3195022039121
 31
0.0
  0
LINE
  5
115
  8
0
  6
CONTINUOUS
 62
     7
 10
2039.177298798148
 20
752.3195022039121
 30
0.0
 11
2039.177298798148
 21
742.3195022039121
 31
0.0
  0
LINE
  5
116
  8
0
  6
CONTINUOUS
 62
     7
 10
2029.177298798148
 20
742.3195022039121
 30
0.0
 11
1049.177298798147
 21
742.3195022039121
 31
0.0
  0
LINE
  5
117
  8
0
  6
CONTINUOUS
 62
     7
 10
2029.177298798148
 20
742.3195022039121
 30
0.0
 11
2029.177298798148
 21
352.3195022039122
 31
0.0
  0
LINE
  5
118
  8
0
  6
CONTINUOUS
 62
     7
 10
2039.177298798148
 20
742.3195022039121
 30
0.0
 11
2039.177298798148
 21
352.3195022039122
 31
0.0
  0
LINE
  5
119
  8
0
  6
CONTINUOUS
 62
     7
 10
2039.177298798148
 20
-237.6804977960878
 30
0.0
 11
2039.177298798148
 21
352.3195022039122
 31
0.0
  0
LINE
  5
11A
  8
0
  6
CONTINUOUS
 62
     7
 10
1039.177298798147
 20
752.3195022039121
 30
0.0
 11
1039.177298798147
 21
742.3195022039121
 31
0.0
  0
LINE
  5
11B
  8
0
  6
CONTINUOUS
 62
     7
 10
1039.177298798147
 20
752.3195022039121
 30
0.0
 11
1049.177298798147
 21
752.3195022039121
 31
0.0
  0
LINE
  5
11C
  8
0
  6
CONTINUOUS
 62
     7
 10
2039.177298798148
 20
-247.6804977960878
 30
0.0
 11
2039.177298798148
 21
-237.6804977960878
 31
0.0
  0
LINE
  5
11D
  8
1
  6
DOTTED
 62
     1
 10
-181.8900882841811
 20
-2075.968621236561
 30
0.0
 11
-181.8900882841811
 21
-2075.968621236561
 31
0.0
  0
LINE
  5
11E
  8
1
  6
DOTTED
 62
     1
 10
2877.250227380743
 20
1180.819502203832
 30
0.0
 11
2877.250227380743
 21
1180.819502203832
 31
0.0
  0
LINE
  5
11F
  8
1
  6
DOTTED
 62
     1
 10
1039.177298798147
 20
1380.25849731737
 30
0.0
 11
1039.177298798147
 21
1380.25849731737
 31
0.0
  0
LINE
  5
120
  8
1
  6
DOTTED
 62
     1
 10
-537.8227012018494
 20
1371.45609833572
 30
0.0
 11
-537.8227012018494
 21
1371.45609833572
 31
0.0
  0
LINE
  5
121
  8
1
  6
DOTTED
 62
     1
 10
52.7440473889127
 20
1180.819502203832
 30
0.0
 11
52.7440473889127
 21
1180.819502203832
 31
0.0
  0
ENDSEC
  0
EOF
