  0
SECTION
  2
HEADER
  9
$ACADVER
  1
AC1015
  9
$ACADMAINTVER
 70
     6
  9
$DWGCODEPAGE
  3
ANSI_1252
  9
$INSBASE
 10
0.0
 20
0.0
 30
0.0
  9
$EXTMIN
 10
2065.304739738193
 20
69.39019750912439
 30
0.0
  9
$EXTMAX
 10
4571.29296805009
 20
2131.424835787958
 30
0.0
  9
$LIMMIN
 10
0.0
 20
0.0
  9
$LIMMAX
 10
12.0
 20
9.0
  9
$ORTHOMODE
 70
     0
  9
$REGENMODE
 70
     1
  9
$FILLMODE
 70
     1
  9
$QTEXTMODE
 70
     0
  9
$MIRRTEXT
 70
     1
  9
$LTSCALE
 40
1.0
  9
$ATTMODE
 70
     1
  9
$TEXTSIZE
 40
0.2
  9
$TRACEWID
 40
0.05
  9
$TEXTSTYLE
  7
Standard
  9
$CLAYER
  8
0
  9
$CELTYPE
  6
ByLayer
  9
$CECOLOR
 62
   256
  9
$CELTSCALE
 40
1.0
  9
$DISPSILH
 70
     0
  9
$DIMSCALE
 40
1.0
  9
$DIMASZ
 40
0.18
  9
$DIMEXO
 40
0.0625
  9
$DIMDLI
 40
0.38
  9
$DIMRND
 40
0.0
  9
$DIMDLE
 40
0.0
  9
$DIMEXE
 40
0.18
  9
$DIMTP
 40
0.0
  9
$DIMTM
 40
0.0
  9
$DIMTXT
 40
0.18
  9
$DIMCEN
 40
0.09
  9
$DIMTSZ
 40
0.0
  9
$DIMTOL
 70
     0
  9
$DIMLIM
 70
     0
  9
$DIMTIH
 70
     1
  9
$DIMTOH
 70
     1
  9
$DIMSE1
 70
     0
  9
$DIMSE2
 70
     0
  9
$DIMTAD
 70
     0
  9
$DIMZIN
 70
     0
  9
$DIMBLK
  1

  9
$DIMASO
 70
     1
  9
$DIMSHO
 70
     1
  9
$DIMPOST
  1

  9
$DIMAPOST
  1

  9
$DIMALT
 70
     0
  9
$DIMALTD
 70
     2
  9
$DIMALTF
 40
25.4
  9
$DIMLFAC
 40
1.0
  9
$DIMTOFL
 70
     0
  9
$DIMTVP
 40
0.0
  9
$DIMTIX
 70
     0
  9
$DIMSOXD
 70
     0
  9
$DIMSAH
 70
     0
  9
$DIMBLK1
  1

  9
$DIMBLK2
  1

  9
$DIMSTYLE
  2
Standard
  9
$DIMCLRD
 70
     0
  9
$DIMCLRE
 70
     0
  9
$DIMCLRT
 70
     0
  9
$DIMTFAC
 40
1.0
  9
$DIMGAP
 40
0.09
  9
$DIMJUST
 70
     0
  9
$DIMSD1
 70
     0
  9
$DIMSD2
 70
     0
  9
$DIMTOLJ
 70
     1
  9
$DIMTZIN
 70
     0
  9
$DIMALTZ
 70
     0
  9
$DIMALTTZ
 70
     0
  9
$DIMUPT
 70
     0
  9
$DIMDEC
 70
     4
  9
$DIMTDEC
 70
     4
  9
$DIMALTU
 70
     2
  9
$DIMALTTD
 70
     2
  9
$DIMTXSTY
  7
Standard
  9
$DIMAUNIT
 70
     0
  9
$DIMADEC
 70
     0
  9
$DIMALTRND
 40
0.0
  9
$DIMAZIN
 70
     0
  9
$DIMDSEP
 70
    46
  9
$DIMATFIT
 70
     3
  9
$DIMFRAC
 70
     0
  9
$DIMLDRBLK
  1

  9
$DIMLUNIT
 70
     2
  9
$DIMLWD
 70
    -2
  9
$DIMLWE
 70
    -2
  9
$DIMTMOVE
 70
     0
  9
$LUNITS
 70
     2
  9
$LUPREC
 70
     4
  9
$SKETCHINC
 40
0.1
  9
$FILLETRAD
 40
0.5
  9
$AUNITS
 70
     0
  9
$AUPREC
 70
     0
  9
$MENU
  1
.
  9
$ELEVATION
 40
0.0
  9
$PELEVATION
 40
0.0
  9
$THICKNESS
 40
0.0
  9
$LIMCHECK
 70
     0
  9
$CHAMFERA
 40
0.5
  9
$CHAMFERB
 40
0.5
  9
$CHAMFERC
 40
1.0
  9
$CHAMFERD
 40
0.0
  9
$SKPOLY
 70
     0
  9
$TDCREATE
 40
2455804.62437029
  9
$TDUCREATE
 40
2455804.582703623
  9
$TDUPDATE
 40
2455804.666036968
  9
$TDUUPDATE
 40
2455804.582703634
  9
$TDINDWG
 40
0.0000000116
  9
$TDUSRTIMER
 40
0.0000000116
  9
$USRTIMER
 70
     1
  9
$ANGBASE
 50
0.0
  9
$ANGDIR
 70
     0
  9
$PDMODE
 70
     0
  9
$PDSIZE
 40
0.0
  9
$PLINEWID
 40
0.0
  9
$SPLFRAME
 70
     0
  9
$SPLINETYPE
 70
     6
  9
$SPLINESEGS
 70
     8
  9
$HANDSEED
  5
8D
  9
$SURFTAB1
 70
     6
  9
$SURFTAB2
 70
     6
  9
$SURFTYPE
 70
     6
  9
$SURFU
 70
     6
  9
$SURFV
 70
     6
  9
$UCSBASE
  2

  9
$UCSNAME
  2

  9
$UCSORG
 10
0.0
 20
0.0
 30
0.0
  9
$UCSXDIR
 10
1.0
 20
0.0
 30
0.0
  9
$UCSYDIR
 10
0.0
 20
1.0
 30
0.0
  9
$UCSORTHOREF
  2

  9
$UCSORTHOVIEW
 70
     0
  9
$UCSORGTOP
 10
0.0
 20
0.0
 30
0.0
  9
$UCSORGBOTTOM
 10
0.0
 20
0.0
 30
0.0
  9
$UCSORGLEFT
 10
0.0
 20
0.0
 30
0.0
  9
$UCSORGRIGHT
 10
0.0
 20
0.0
 30
0.0
  9
$UCSORGFRONT
 10
0.0
 20
0.0
 30
0.0
  9
$UCSORGBACK
 10
0.0
 20
0.0
 30
0.0
  9
$PUCSBASE
  2

  9
$PUCSNAME
  2

  9
$PUCSORG
 10
0.0
 20
0.0
 30
0.0
  9
$PUCSXDIR
 10
1.0
 20
0.0
 30
0.0
  9
$PUCSYDIR
 10
0.0
 20
1.0
 30
0.0
  9
$PUCSORTHOREF
  2

  9
$PUCSORTHOVIEW
 70
     0
  9
$PUCSORGTOP
 10
0.0
 20
0.0
 30
0.0
  9
$PUCSORGBOTTOM
 10
0.0
 20
0.0
 30
0.0
  9
$PUCSORGLEFT
 10
0.0
 20
0.0
 30
0.0
  9
$PUCSORGRIGHT
 10
0.0
 20
0.0
 30
0.0
  9
$PUCSORGFRONT
 10
0.0
 20
0.0
 30
0.0
  9
$PUCSORGBACK
 10
0.0
 20
0.0
 30
0.0
  9
$USERI1
 70
     0
  9
$USERI2
 70
     0
  9
$USERI3
 70
     0
  9
$USERI4
 70
     0
  9
$USERI5
 70
     0
  9
$USERR1
 40
13.01
  9
$USERR2
 40
0.0
  9
$USERR3
 40
0.0
  9
$USERR4
 40
0.0
  9
$USERR5
 40
0.0
  9
$WORLDVIEW
 70
     1
  9
$SHADEDGE
 70
     3
  9
$SHADEDIF
 70
    70
  9
$TILEMODE
 70
     1
  9
$MAXACTVP
 70
    64
  9
$PINSBASE
 10
0.0
 20
0.0
 30
0.0
  9
$PLIMCHECK
 70
     0
  9
$PEXTMIN
 10
1.00000000000000E+20
 20
1.00000000000000E+20
 30
1.00000000000000E+20
  9
$PEXTMAX
 10
-1.00000000000000E+20
 20
-1.00000000000000E+20
 30
-1.00000000000000E+20
  9
$PLIMMIN
 10
0.0
 20
0.0
  9
$PLIMMAX
 10
12.0
 20
9.0
  9
$UNITMODE
 70
     0
  9
$VISRETAIN
 70
     1
  9
$PLINEGEN
 70
     0
  9
$PSLTSCALE
 70
     1
  9
$TREEDEPTH
 70
  3020
  9
$CMLSTYLE
  2
Standard
  9
$CMLJUST
 70
     0
  9
$CMLSCALE
 40
1.0
  9
$PROXYGRAPHICS
 70
     1
  9
$MEASUREMENT
 70
     1
  9
$CELWEIGHT
370
    -1
  9
$ENDCAPS
280
     0
  9
$JOINSTYLE
280
     0
  9
$LWDISPLAY
290
     0
  9
$INSUNITS
 70
     1
  9
$HYPERLINKBASE
  1

  9
$STYLESHEET
  1

  9
$XEDIT
290
     1
  9
$CEPSNTYPE
380
     0
  9
$PSTYLEMODE
290
     0
  9
$FINGERPRINTGUID
  2
{FAEB1C30-E019-11D5-929B-00C0DF256EC4}
  9
$VERSIONGUID
  2
{FAEB1C32-E019-11D5-929B-00C0DF256EC4}
  9
$EXTNAMES
290
     1
  9
$PSVPSCALE
 40
0.0
  9
$OLESTARTUP
290
     0
  0
ENDSEC
  0
SECTION
  2
CLASSES
  0
CLASS
  1
ACDBDICTIONARYWDFLT
  2
AcDbDictionaryWithDefault
  3
ObjectDBX Classes
 90
        0
280
     0
281
     0
  0
CLASS
  1
TABLESTYLE
  2
AcDbTableStyle
  3
ObjectDBX Classes
 90
     2047
280
     0
281
     0
  0
CLASS
  1
DICTIONARYVAR
  2
AcDbDictionaryVar
  3
ObjectDBX Classes
 90
        0
280
     0
281
     0
  0
CLASS
  1

  2
exOdDbSpline
  3

 90
        0
280
     0
281
     1
  0
CLASS
  1

  2
exOdDbPolyline
  3

 90
        0
280
     0
281
     1
  0
CLASS
  1
ACDBPLACEHOLDER
  2
AcDbPlaceHolder
  3
ObjectDBX Classes
 90
        0
280
     0
281
     0
  0
CLASS
  1
LAYOUT
  2
AcDbLayout
  3
ObjectDBX Classes
 90
        0
280
     0
281
     0
  0
ENDSEC
  0
SECTION
  2
TABLES
  0
TABLE
  2
VPORT
  5
8
330
0
100
AcDbSymbolTable
 70
     2
  0
VPORT
  5
29
330
8
100
AcDbSymbolTableRecord
100
AcDbViewportTableRecord
  2
*Active
 70
     0
 10
0.0
 20
0.0
 11
1.0
 21
1.0
 12
3318.298853894142
 22
1100.407516648541
 13
0.0
 23
0.0
 14
0.5
 24
0.5
 15
0.5
 25
0.5
 16
0.0
 26
0.0
 36
1.0
 17
0.0
 27
0.0
 37
0.0
 40
2268.238102106717
 41
1.60267857142857
 42
50.0
 43
0.0
 44
0.0
 50
0.0
 51
0.0
 71
     0
 72
   100
 73
     1
 74
     3
 75
     0
 76
     0
 77
     0
 78
     0
281
     0
 65
     1
110
0.0
120
0.0
130
0.0
111
1.0
121
0.0
131
0.0
112
0.0
122
1.0
132
0.0
 79
     0
146
0.0
  0
ENDTAB
  0
TABLE
  2
LTYPE
  5
5
330
0
100
AcDbSymbolTable
 70
     8
  0
LTYPE
  5
14
330
5
100
AcDbSymbolTableRecord
100
AcDbLinetypeTableRecord
  2
ByBlock
 70
     0
  3

 72
    65
 73
     0
 40
0.0
  0
LTYPE
  5
15
330
5
100
AcDbSymbolTableRecord
100
AcDbLinetypeTableRecord
  2
ByLayer
 70
     0
  3

 72
    65
 73
     0
 40
0.0
  0
LTYPE
  5
16
330
5
100
AcDbSymbolTableRecord
100
AcDbLinetypeTableRecord
  2
Continuous
 70
     0
  3
Solid line
 72
    65
 73
     0
 40
0.0
  0
LTYPE
  5
2E
330
5
100
AcDbSymbolTableRecord
100
AcDbLinetypeTableRecord
  2
DASHED
 70
     0
  3
Dashed
 72
    65
 73
     2
 40
15.0
 49
7.0
 74
     0
 49
-8.0
 74
     0
  0
LTYPE
  5
2F
330
5
100
AcDbSymbolTableRecord
100
AcDbLinetypeTableRecord
  2
DOTTED
 70
     0
  3
Dotted
 72
    65
 73
     2
 40
1.0
 49
0.0
 74
     0
 49
-1.0
 74
     0
  0
LTYPE
  5
30
330
5
100
AcDbSymbolTableRecord
100
AcDbLinetypeTableRecord
  2
DOT_CENTER
 70
     0
  3
Dot_Center
 72
    65
 73
     4
 40
14.0
 49
12.0
 74
     0
 49
-1.0
 74
     0
 49
0.0
 74
     0
 49
-1.0
 74
     0
  0
LTYPE
  5
31
330
5
100
AcDbSymbolTableRecord
100
AcDbLinetypeTableRecord
  2
LONG_DASHED
 70
     0
  3
Long_Dashed
 72
    65
 73
     2
 40
15.0
 49
10.0
 74
     0
 49
-5.0
 74
     0
  0
LTYPE
  5
32
330
5
100
AcDbSymbolTableRecord
100
AcDbLinetypeTableRecord
  2
DASH_CENTER
 70
     0
  3
Dash_Center
 72
    65
 73
     4
 40
14.0
 49
11.0
 74
     0
 49
-1.0
 74
     0
 49
1.0
 74
     0
 49
-1.0
 74
     0
  0
LTYPE
  5
33
330
5
100
AcDbSymbolTableRecord
100
AcDbLinetypeTableRecord
  2
PHANTOM
 70
     0
  3
Phantom
 72
    65
 73
     6
 40
13.0
 49
10.0
 74
     0
 49
-1.0
 74
     0
 49
0.0
 74
     0
 49
-1.0
 74
     0
 49
0.0
 74
     0
 49
-1.0
 74
     0
  0
LTYPE
  5
34
330
5
100
AcDbSymbolTableRecord
100
AcDbLinetypeTableRecord
  2
CENTER_DASH_DASH
 70
     0
  3
Center_Dash_Dash
 72
    65
 73
     6
 40
14.0
 49
9.0
 74
     0
 49
-1.0
 74
     0
 49
1.0
 74
     0
 49
-1.0
 74
     0
 49
1.0
 74
     0
 49
-1.0
 74
     0
  0
ENDTAB
  0
TABLE
  2
LAYER
  5
2
330
0
100
AcDbSymbolTable
 70
     6
  0
LAYER
  5
10
330
2
100
AcDbSymbolTableRecord
100
AcDbLayerTableRecord
  2
0
 70
     0
 62
     7
  6
Continuous
370
    -3
390
F
  0
LAYER
  5
35
330
2
100
AcDbSymbolTableRecord
100
AcDbLayerTableRecord
  2
1
 70
     0
 62
     7
  6
Continuous
370
    -3
390
F
  0
LAYER
  5
36
330
2
100
AcDbSymbolTableRecord
100
AcDbLayerTableRecord
  2
120
 70
     0
 62
     7
  6
Continuous
370
    -3
390
F
  0
LAYER
  5
37
330
2
100
AcDbSymbolTableRecord
100
AcDbLayerTableRecord
  2
141
 70
     0
 62
     7
  6
Continuous
370
    -3
390
F
  0
LAYER
  5
38
330
2
100
AcDbSymbolTableRecord
100
AcDbLayerTableRecord
  2
143
 70
     0
 62
     7
  6
Continuous
370
    -3
390
F
  0
LAYER
  5
39
330
2
100
AcDbSymbolTableRecord
100
AcDbLayerTableRecord
  2
LAYER_2
 70
     0
 62
     7
  6
Continuous
370
    -3
390
F
  0
ENDTAB
  0
TABLE
  2
STYLE
  5
3
330
0
100
AcDbSymbolTable
 70
     1
  0
STYLE
  5
11
330
3
100
AcDbSymbolTableRecord
100
AcDbTextStyleTableRecord
  2
Standard
 70
     0
 40
0.0
 41
1.0
 50
0.0
 71
     0
 42
0.2
  3
txt
  4

  0
ENDTAB
  0
TABLE
  2
VIEW
  5
6
330
0
100
AcDbSymbolTable
 70
     0
  0
ENDTAB
  0
TABLE
  2
UCS
  5
7
330
0
100
AcDbSymbolTable
 70
     0
  0
ENDTAB
  0
TABLE
  2
APPID
  5
9
330
0
100
AcDbSymbolTable
 70
     1
  0
APPID
  5
12
330
9
100
AcDbSymbolTableRecord
100
AcDbRegAppTableRecord
  2
ACAD
 70
     0
  0
ENDTAB
  0
TABLE
  2
DIMSTYLE
  5
A
330
0
100
AcDbSymbolTable
 70
     1
100
AcDbDimStyleTable
  0
DIMSTYLE
105
27
330
A
100
AcDbSymbolTableRecord
100
AcDbDimStyleTableRecord
  2
Standard
 70
     0
340
11
  0
ENDTAB
  0
TABLE
  2
BLOCK_RECORD
  5
1
330
0
100
AcDbSymbolTable
 70
     1
  0
BLOCK_RECORD
  5
1F
330
1
100
AcDbSymbolTableRecord
100
AcDbBlockTableRecord
  2
*Model_Space
340
22
  0
BLOCK_RECORD
  5
1B
330
1
100
AcDbSymbolTableRecord
100
AcDbBlockTableRecord
  2
*Paper_Space
340
1E
  0
BLOCK_RECORD
  5
23
330
1
100
AcDbSymbolTableRecord
100
AcDbBlockTableRecord
  2
*Paper_Space0
340
26
  0
ENDTAB
  0
ENDSEC
  0
SECTION
  2
BLOCKS
  0
BLOCK
  5
20
330
1F
100
AcDbEntity
  8
0
100
AcDbBlockBegin
  2
*Model_Space
 70
     0
 71
     0
 10
0.0
 20
0.0
 30
0.0
  3
*Model_Space
  1

  0
ENDBLK
  5
21
330
1F
100
AcDbEntity
  8
0
100
AcDbBlockEnd
  0
BLOCK
  5
1C
330
1B
100
AcDbEntity
 67
     1
  8
0
100
AcDbBlockBegin
  2
*Paper_Space
 70
     0
 71
     0
 10
0.0
 20
0.0
 30
0.0
  3
*Paper_Space
  1

  0
ENDBLK
  5
1D
330
1B
100
AcDbEntity
 67
     1
  8
0
100
AcDbBlockEnd
  0
BLOCK
  5
24
330
23
100
AcDbEntity
  8
0
100
AcDbBlockBegin
  2
*Paper_Space0
 70
     0
 71
     0
 10
0.0
 20
0.0
 30
0.0
  3
*Paper_Space0
  1

  0
ENDBLK
  5
25
330
23
100
AcDbEntity
  8
0
100
AcDbBlockEnd
  0
ENDSEC
  0
SECTION
  2
ENTITIES
  0
LINE
  5
3A
330
1F
100
AcDbEntity
  8
1
  6
Continuous
 62
     7
100
AcDbLine
 10
2333.099167405801
 20
137.074793678365
 30
0.0
 11
2333.099167405801
 21
535.7966938312599
 31
0.0
  0
LINE
  5
3B
330
1F
100
AcDbEntity
  8
1
  6
Continuous
 62
     7
100
AcDbLine
 10
2065.8495539822
 20
137.074793678365
 30
0.0
 11
2333.099167405801
 21
137.074793678365
 31
0.0
  0
LINE
  5
3C
330
1F
100
AcDbEntity
  8
1
  6
Continuous
 62
     7
100
AcDbLine
 10
2065.8495539822
 20
535.7966938312599
 30
0.0
 11
2065.8495539822
 21
137.074793678365
 31
0.0
  0
LINE
  5
3D
330
1F
100
AcDbEntity
  8
1
  6
Continuous
 62
     7
100
AcDbLine
 10
2333.099167405801
 20
535.7966938312599
 30
0.0
 11
2065.8495539822
 21
535.7966938312599
 31
0.0
  0
LINE
  5
3E
330
1F
100
AcDbEntity
  8
1
  6
Continuous
 62
     7
100
AcDbLine
 10
2668.730633366701
 20
535.7966938312599
 30
0.0
 11
2668.730633366701
 21
137.074793678365
 31
0.0
  0
LINE
  5
3F
330
1F
100
AcDbEntity
  8
1
  6
Continuous
 62
     7
100
AcDbLine
 10
2333.099167405801
 20
535.7966938312599
 30
0.0
 11
2668.730633366701
 21
535.7966938312599
 31
0.0
  0
LINE
  5
40
330
1F
100
AcDbEntity
  8
1
  6
Continuous
 62
     7
100
AcDbLine
 10
2333.099167405801
 20
137.074793678365
 30
0.0
 11
2333.099167405801
 21
535.7966938312599
 31
0.0
  0
LINE
  5
41
330
1F
100
AcDbEntity
  8
1
  6
Continuous
 62
     7
100
AcDbLine
 10
2668.730633366701
 20
137.074793678365
 30
0.0
 11
2333.099167405801
 21
137.074793678365
 31
0.0
  0
LINE
  5
42
330
1F
100
AcDbEntity
  8
1
  6
Continuous
 62
     7
100
AcDbLine
 10
2655.57286487657
 20
137.074793678365
 30
0.0
 11
2655.57286487657
 21
69.39019750912439
 31
0.0
  0
LINE
  5
43
330
1F
100
AcDbEntity
  8
1
  6
Continuous
 62
     7
100
AcDbLine
 10
2110.57286487657
 20
137.074793678365
 30
0.0
 11
2655.57286487657
 21
137.074793678365
 31
0.0
  0
LINE
  5
44
330
1F
100
AcDbEntity
  8
1
  6
Continuous
 62
     7
100
AcDbLine
 10
2110.57286487657
 20
69.39019750912439
 30
0.0
 11
2110.57286487657
 21
137.074793678365
 31
0.0
  0
LINE
  5
45
330
1F
100
AcDbEntity
  8
1
  6
Continuous
 62
     7
100
AcDbLine
 10
2655.57286487657
 20
69.39019750912439
 30
0.0
 11
2110.57286487657
 21
69.39019750912439
 31
0.0
  0
LINE
  5
46
330
1F
100
AcDbEntity
  8
1
  6
Continuous
 62
     7
100
AcDbLine
 10
2655.57286487657
 20
603.1218085702928
 30
0.0
 11
2655.57286487657
 21
535.79669383126
 31
0.0
  0
LINE
  5
47
330
1F
100
AcDbEntity
  8
1
  6
Continuous
 62
     7
100
AcDbLine
 10
2110.57286487657
 20
603.1218085702928
 30
0.0
 11
2655.57286487657
 21
603.1218085702928
 31
0.0
  0
LINE
  5
48
330
1F
100
AcDbEntity
  8
1
  6
Continuous
 62
     7
100
AcDbLine
 10
2110.57286487657
 20
535.79669383126
 30
0.0
 11
2110.57286487657
 21
603.1218085702928
 31
0.0
  0
LINE
  5
49
330
1F
100
AcDbEntity
  8
1
  6
Continuous
 62
     7
100
AcDbLine
 10
2655.57286487657
 20
535.79669383126
 30
0.0
 11
2110.57286487657
 21
535.79669383126
 31
0.0
  0
LINE
  5
56
330
1F
100
AcDbEntity
  8
LAYER_2
  6
Continuous
 62
    21
100
AcDbLine
 10
4143.822560152272
 20
2128.930488606491
 30
0.0
 11
4143.822560152272
 21
1828.33118747012
 31
0.0
  0
LINE
  5
57
330
1F
100
AcDbEntity
  8
LAYER_2
  6
Continuous
 62
    21
100
AcDbLine
 10
4459.041102045693
 20
2128.930488606491
 30
0.0
 11
4459.041102045693
 21
1828.33118747012
 31
0.0
  0
LINE
  5
58
330
1F
100
AcDbEntity
  8
1
  6
Continuous
 62
     7
100
AcDbLine
 10
2383.07286487657
 20
2019.44066557356
 30
0.0
 11
2383.07286487657
 21
1399.44066557356
 31
0.0
  0
LINE
  5
59
330
1F
100
AcDbEntity
  8
141
  6
Continuous
 62
     7
100
AcDbLine
 10
2655.57286487657
 20
1409.44066557356
 30
0.0
 11
2655.57286487657
 21
2009.44066557356
 31
0.0
  0
LINE
  5
5A
330
1F
100
AcDbEntity
  8
141
  6
Continuous
 62
     7
100
AcDbLine
 10
2120.57286487657
 20
1399.44066557356
 30
0.0
 11
2645.57286487657
 21
1399.44066557356
 31
0.0
  0
LINE
  5
5B
330
1F
100
AcDbEntity
  8
141
  6
Continuous
 62
     7
100
AcDbLine
 10
2645.57286487657
 20
2019.44066557356
 30
0.0
 11
2120.57286487657
 21
2019.44066557356
 31
0.0
  0
LINE
  5
5C
330
1F
100
AcDbEntity
  8
141
  6
Continuous
 62
     7
100
AcDbLine
 10
2136.850149184298
 20
2130.91327049516
 30
0.0
 11
2075.304739738193
 21
2130.91327049516
 31
0.0
  0
LINE
  5
5D
330
1F
100
AcDbEntity
  8
141
  6
Continuous
 62
     7
100
AcDbLine
 10
2110.57286487657
 20
1409.44066557356
 30
0.0
 11
2110.57286487657
 21
2009.44066557356
 31
0.0
  0
LINE
  5
5E
330
1F
100
AcDbEntity
  8
120
  6
Continuous
 62
     7
100
AcDbLine
 10
2093.01387722903
 20
2130.91327049516
 30
0.0
 11
2103.5900840409
 21
2130.91327049516
 31
0.0
  0
LINE
  5
5F
330
1F
100
AcDbEntity
  8
143
  6
Continuous
 62
     7
100
AcDbLine
 10
2645.57286487657
 20
1399.44066557356
 30
0.0
 11
2120.57286487657
 21
1399.44066557356
 31
0.0
  0
LINE
  5
60
330
1F
100
AcDbEntity
  8
120
  6
Continuous
 62
     7
100
AcDbLine
 10
2065.8495539822
 20
2117.657588950588
 30
0.0
 11
2110.57286487657
 21
1987.771662965479
 31
0.0
  0
LINE
  5
61
330
1F
100
AcDbEntity
  8
1
  6
Continuous
 62
     7
100
AcDbLine
 10
2167.161038316754
 20
2113.413270495159
 30
0.0
 11
2221.416147064688
 21
2019.44066557356
 31
0.0
  0
LINE
  5
62
330
1F
100
AcDbEntity
  8
1
  6
Continuous
 62
     7
100
AcDbLine
 10
2599.42381922841
 20
1399.44066557356
 30
0.0
 11
2629.42381922841
 21
1399.44066557356
 31
0.0
  0
LINE
  5
63
330
1F
100
AcDbEntity
  8
1
  6
Continuous
 62
     7
100
AcDbLine
 10
2629.42381922841
 20
1399.44066557356
 30
0.0
 11
2629.42381922841
 21
1389.44066557356
 31
0.0
  0
LINE
  5
64
330
1F
100
AcDbEntity
  8
1
  6
Continuous
 62
     7
100
AcDbLine
 10
2629.42381922841
 20
1389.44066557356
 30
0.0
 11
2599.42381922841
 21
1389.44066557356
 31
0.0
  0
LINE
  5
65
330
1F
100
AcDbEntity
  8
1
  6
Continuous
 62
     7
100
AcDbLine
 10
2599.42381922841
 20
1389.44066557356
 30
0.0
 11
2599.42381922841
 21
1399.44066557356
 31
0.0
  0
LINE
  5
66
330
1F
100
AcDbEntity
  8
1
  6
Continuous
 62
     7
100
AcDbLine
 10
2166.72191052473
 20
1399.44066557356
 30
0.0
 11
2166.72191052473
 21
1389.44066557356
 31
0.0
  0
LINE
  5
67
330
1F
100
AcDbEntity
  8
1
  6
Continuous
 62
     7
100
AcDbLine
 10
2166.72191052473
 20
1389.44066557356
 30
0.0
 11
2136.72191052473
 21
1389.44066557356
 31
0.0
  0
LINE
  5
68
330
1F
100
AcDbEntity
  8
1
  6
Continuous
 62
     7
100
AcDbLine
 10
2136.72191052473
 20
1389.44066557356
 30
0.0
 11
2136.72191052473
 21
1399.44066557356
 31
0.0
  0
LINE
  5
69
330
1F
100
AcDbEntity
  8
1
  6
Continuous
 62
     7
100
AcDbLine
 10
2136.72191052473
 20
1399.44066557356
 30
0.0
 11
2166.72191052473
 21
1399.44066557356
 31
0.0
  0
ARC
  5
6A
330
1F
100
AcDbEntity
  8
1
  6
Continuous
 62
     7
100
AcDbCircle
 10
2651.422063018736
 20
1757.352580794803
 30
0.0
 40
15.66492617381768
100
AcDbArc
 50
-74.63457804814637
 51
-10.75084291004874
  0
ARC
  5
6B
330
1F
100
AcDbEntity
  8
1
  6
Continuous
 62
     7
100
AcDbCircle
 10
2542.041180979227
 20
1778.120857279376
 30
0.0
 40
126.9999999999961
100
AcDbArc
 50
-10.75084291005023
 51
9.84154593640998
  0
ARC
  5
6C
330
1F
100
AcDbEntity
  8
1
  6
Continuous
 62
     7
100
AcDbCircle
 10
2644.17737748034
 20
1795.839121289038
 30
0.0
 40
23.33834115146175
100
AcDbArc
 50
9.84154593641089
 51
60.77285044700719
  0
SPLINE
  5
6D
330
1F
100
AcDbEntity
  8
LAYER_2
  6
Continuous
 62
    21
100
AcDbSpline
210
0.0
220
0.0
230
1.0
 70
     8
 71
     3
 72
    17
 73
    13
 74
    11
 42
0.0000000001
 43
0.0000000001
 44
0.00000001
 40
0.0
 40
0.0
 40
0.0
 40
0.0
 40
2.325911472043117
 40
7.87231575153055
 40
14.49221763349942
 40
20.03862191298686
 40
22.36453338502997
 40
32.32535918590063
 40
42.0359725243941
 40
52.01478405979034
 40
52.90905434465046
 40
53.80332462951034
 40
53.80332462951034
 40
53.80332462951034
 40
53.80332462951034
 10
4102.359481430307
 20
1807.428614832488
 30
0.0
 10
4103.134781607667
 20
1807.428558515452
 30
0.0
 10
4105.758874515655
 20
1807.428367903946
 30
0.0
 10
4110.589821715565
 20
1807.431579974408
 30
0.0
 10
4116.493075667927
 20
1807.416401173442
 30
0.0
 10
4121.326432314683
 20
1807.456823493965
 30
0.0
 10
4127.263043496359
 20
1807.336837893241
 30
0.0
 10
4134.716628497086
 20
1809.207580999807
 30
0.0
 10
4142.017510511717
 20
1816.543232819052
 30
0.0
 10
4143.858154971045
 20
1823.516662017228
 30
0.0
 10
4143.820814983563
 20
1827.4368366398
 30
0.0
 10
4143.821950057653
 20
1828.033086018762
 30
0.0
 10
4143.8225175947
 20
1828.331210708243
 30
0.0
 11
4102.359481430307
 21
1807.428614832488
 31
0.0
 11
4104.68539290235
 21
1807.428614832488
 31
0.0
 11
4110.231797181838
 21
1807.428614832488
 31
0.0
 11
4116.851699063806
 21
1807.428614832488
 31
0.0
 11
4122.398103343294
 21
1807.428614832488
 31
0.0
 11
4124.724014815337
 21
1807.428614832488
 31
0.0
 11
4134.334324272779
 21
1810.047775531547
 31
0.0
 11
4141.200476798113
 21
1816.914504076391
 31
0.0
 11
4143.8225175947
 21
1826.542670138523
 31
0.0
 11
4143.8225175947
 21
1827.436940423383
 31
0.0
 11
4143.8225175947
 21
1828.331210708243
 31
0.0
  0
SPLINE
  5
6E
330
1F
100
AcDbEntity
  8
LAYER_2
  6
Continuous
 62
    21
100
AcDbSpline
210
0.0
220
0.0
230
1.0
 70
     8
 71
     3
 72
    17
 73
    13
 74
    11
 42
0.0000000001
 43
0.0000000001
 44
0.00000001
 40
0.0
 40
0.0
 40
0.0
 40
0.0
 40
2.32591147203766
 40
7.872315751511451
 40
14.49221763346395
 40
20.03862191293774
 40
22.3645333849754
 40
32.32535918584869
 40
42.03597252433895
 40
52.01478405973399
 40
52.9090543445941
 40
53.80332462945399
 40
53.80332462945399
 40
53.80332462945399
 40
53.80332462945399
 10
4500.504164779162
 20
1807.428614832488
 30
0.0
 10
4499.728864601804
 20
1807.428558515452
 30
0.0
 10
4497.10477169382
 20
1807.428367903946
 30
0.0
 10
4492.273824493925
 20
1807.431579974408
 30
0.0
 10
4486.370570541578
 20
1807.416401173442
 30
0.0
 10
4481.537213894831
 20
1807.456823493965
 30
0.0
 10
4475.600602713163
 20
1807.336837893241
 30
0.0
 10
4468.147017712437
 20
1809.207580999805
 30
0.0
 10
4460.846135697808
 20
1816.543232819053
 30
0.0
 10
4459.005491238484
 20
1823.51666201723
 30
0.0
 10
4459.042831225966
 20
1827.4368366398
 30
0.0
 10
4459.041696151875
 20
1828.033086018762
 30
0.0
 10
4459.04112861483
 20
1828.331210708243
 30
0.0
 11
4500.504164779162
 21
1807.428614832488
 31
0.0
 11
4498.178253307125
 21
1807.428614832488
 31
0.0
 11
4492.631849027651
 21
1807.428614832488
 31
0.0
 11
4486.011947145698
 21
1807.428614832488
 31
0.0
 11
4480.465542866225
 21
1807.428614832488
 31
0.0
 11
4478.139631394187
 21
1807.428614832488
 31
0.0
 11
4468.529321936742
 21
1810.047775531547
 31
0.0
 11
4461.663169411413
 21
1816.914504076391
 31
0.0
 11
4459.04112861483
 21
1826.542670138523
 31
0.0
 11
4459.04112861483
 21
1827.436940423383
 31
0.0
 11
4459.04112861483
 21
1828.331210708243
 31
0.0
  0
SPLINE
  5
6F
330
1F
100
AcDbEntity
  8
LAYER_2
  6
Continuous
 62
     7
100
AcDbSpline
210
0.0
220
0.0
230
1.0
 70
    11
 71
     3
 72
    45
 73
    41
 74
    39
 42
0.0000000001
 43
0.0000000001
 44
0.00000001
 40
0.0
 40
0.0
 40
0.0
 40
0.0
 40
12.56149206725058
 40
46.22629080748266
 40
94.96488002841488
 40
152.7477435377687
 40
213.5453651432617
 40
271.3282286526146
 40
320.0668178735477
 40
353.7316166137798
 40
366.2931086810304
 40
378.4105683530044
 40
390.1848841018789
 40
402.4436772514299
 40
434.7623137366102
 40
480.4541791122095
 40
532.8326589330184
 40
585.2111387538275
 40
630.9030041294268
 40
663.2216406146069
 40
675.4804337641579
 40
689.1342294894273
 40
725.7264020331484
 40
778.7031294471942
 40
841.5105897834335
 40
907.5949610937366
 40
970.4024214299768
 40
1023.379148844022
 40
1059.971321387744
 40
1073.625117113013
 40
1085.883910262564
 40
1118.202546747744
 40
1163.894412123344
 40
1216.272891944153
 40
1268.651371764962
 40
1314.343237140561
 40
1346.661873625741
 40
1358.920666775292
 40
1370.694982524157
 40
1382.812442196103
 40
1382.812442196103
 40
1382.812442196103
 40
1382.812442196103
 10
4484.578377445277
 20
2128.930446636684
 30
0.0
 10
4480.391214482173
 20
2128.930452010922
 30
0.0
 10
4464.982454777945
 20
2128.93047178812
 30
0.0
 10
4433.327414364137
 20
2128.930063870516
 30
0.0
 10
4386.599184116256
 20
2128.93270323049
 30
0.0
 10
4330.823694790016
 20
2128.920199770977
 30
0.0
 10
4272.045686908668
 20
2128.969791522319
 30
0.0
 10
4216.23941139144
 20
2128.801099606405
 30
0.0
 10
4169.604867700205
 20
2129.279041632858
 30
0.0
 10
4137.753999655244
 20
2128.285135836924
 30
0.0
 10
4118.5920215798
 20
2129.735797016965
 30
0.0
 10
4105.702130117916
 20
2125.987610346766
 30
0.0
 10
4101.461541863493
 20
2113.338383110283
 30
0.0
 10
4103.067997144372
 20
2094.781784043475
 30
0.0
 10
4101.982118626935
 20
2064.533676005541
 30
0.0
 10
4102.521913711493
 20
2021.177486973136
 30
0.0
 10
4102.192442637522
 20
1970.844285056147
 30
0.0
 10
4102.822556117847
 20
1921.284894425826
 30
0.0
 10
4101.079764964739
 20
1876.088022375349
 30
0.0
 10
4104.792605967767
 20
1849.709613271042
 30
0.0
 10
4099.090352558656
 20
1824.597135581337
 30
0.0
 10
4126.731207100458
 20
1831.402726390347
 30
0.0
 10
4156.405831022577
 20
1826.673744239597
 30
0.0
 10
4209.48552240143
 20
1828.936152515676
 30
0.0
 10
4269.245883967623
 20
1828.192706133619
 30
0.0
 10
4333.617762250779
 20
1828.192706056378
 30
0.0
 10
4393.378123769022
 20
1828.936152720652
 30
0.0
 10
4446.457815293792
 20
1826.673743696056
 30
0.0
 10
4476.13243891091
 20
1831.402727395473
 30
0.0
 10
4503.773293891648
 20
1824.59713435949
 30
0.0
 10
4498.07103886287
 20
1849.709620266318
 30
0.0
 10
4501.783899335681
 20
1876.087930594016
 30
0.0
 10
4500.040988218141
 20
1921.28541126344
 30
0.0
 10
4500.67163976275
 20
1970.84207211697
 30
0.0
 10
4500.340200976109
 20
2021.185256886487
 30
0.0
 10
4500.885836646517
 20
2064.511814708946
 30
0.0
 10
4499.787446633549
 20
2094.823397672242
 30
0.0
 10
4501.412505079097
 20
2113.28561677575
 30
0.0
 10
4497.122796066137
 20
2126.184049750662
 30
0.0
 10
4488.799696958306
 20
2128.006257232944
 30
0.0
 10
4484.578377445277
 20
2128.930446636684
 30
0.0
 11
4484.578377445277
 21
2128.930446636684
 31
0.0
 11
4472.016885378026
 21
2128.930446636684
 31
0.0
 11
4438.352086637794
 21
2128.930446636684
 31
0.0
 11
4389.613497416862
 21
2128.930446636684
 31
0.0
 11
4331.830633907508
 21
2128.930446636684
 31
0.0
 11
4271.033012302015
 21
2128.930446636684
 31
0.0
 11
4213.250148792662
 21
2128.930446636684
 31
0.0
 11
4164.511559571729
 21
2128.930446636683
 31
0.0
 11
4130.846760831497
 21
2128.930446636684
 31
0.0
 11
4118.285268764246
 21
2128.930446636684
 31
0.0
 11
4107.033015701646
 21
2124.433822356502
 31
0.0
 11
4102.359481430307
 21
2113.626760370522
 31
0.0
 11
4102.359481430307
 21
2101.367967220971
 31
0.0
 11
4102.359481430307
 21
2069.049330735791
 31
0.0
 11
4102.359481430307
 21
2023.357465360191
 31
0.0
 11
4102.359481430307
 21
1970.978985539382
 31
0.0
 11
4102.359481430307
 21
1918.600505718573
 31
0.0
 11
4102.359481430307
 21
1872.908640342974
 31
0.0
 11
4102.359481430307
 21
1840.590003857794
 31
0.0
 11
4102.359481430307
 21
1828.331210708243
 31
0.0
 11
4116.013277155576
 21
1828.331210708243
 31
0.0
 11
4152.605449699297
 21
1828.331210708243
 31
0.0
 11
4205.582177113343
 21
1828.331210708243
 31
0.0
 11
4268.389637449583
 21
1828.331210708243
 31
0.0
 11
4334.474008759886
 21
1828.331210708243
 31
0.0
 11
4397.281469096126
 21
1828.331210708243
 31
0.0
 11
4450.258196510171
 21
1828.331210708243
 31
0.0
 11
4486.850369053893
 21
1828.331210708243
 31
0.0
 11
4500.504164779162
 21
1828.331210708243
 31
0.0
 11
4500.504164779162
 21
1840.590003857794
 31
0.0
 11
4500.504164779162
 21
1872.908640342974
 31
0.0
 11
4500.504164779162
 21
1918.600505718574
 31
0.0
 11
4500.504164779162
 21
1970.978985539382
 31
0.0
 11
4500.504164779162
 21
2023.357465360191
 31
0.0
 11
4500.504164779162
 21
2069.049330735791
 31
0.0
 11
4500.504164779162
 21
2101.367967220971
 31
0.0
 11
4500.504164779162
 21
2113.626760370522
 31
0.0
 11
4495.830630507847
 21
2124.433822356502
 31
0.0
 11
4484.578377445277
 21
2128.930446636684
 31
0.0
  0
SPLINE
  5
70
330
1F
100
AcDbEntity
  8
LAYER_2
  6
Continuous
 62
     7
100
AcDbSpline
210
0.0
220
0.0
230
1.0
 70
    11
 71
     3
 72
    38
 73
    34
 74
    32
 42
0.0000000001
 43
0.0000000001
 44
0.00000001
 40
0.0
 40
0.0
 40
0.0
 40
0.0
 40
9.290042611460194
 40
26.54297888988822
 40
35.83302150134841
 40
47.94615751800907
 40
59.6883629683651
 40
75.31392432703349
 40
117.7261623005616
 40
180.2284077352347
 40
256.1239914773378
 40
338.7162443731561
 40
421.3084972689745
 40
497.2040810110776
 40
559.7063264457502
 40
602.1185644192785
 40
617.7441257779469
 40
628.3198439293906
 40
651.5864238625668
 40
674.853003795743
 40
685.4287219471867
 40
701.0542833058548
 40
743.4665212793832
 40
805.9687667140561
 40
881.8643504561596
 40
964.4566033519777
 40
1047.048856247796
 40
1122.944439989899
 40
1185.446685424572
 40
1227.8589233981
 40
1243.484484756769
 40
1255.226690207112
 40
1267.339826223702
 40
1267.339826223702
 40
1267.339826223702
 40
1267.339826223702
 10
4552.480708988242
 20
2019.440658715755
 30
0.0
 10
4549.386337888794
 20
2019.451723264678
 30
0.0
 10
4540.545277604652
 20
2019.483336261602
 30
0.0
 10
4528.53348236227
 20
2019.160206271625
 30
0.0
 10
4515.828819004209
 20
2020.025857257892
 30
0.0
 10
4504.039621514065
 20
2016.477492063478
 30
0.0
 10
4499.546666771099
 20
2002.737559087108
 30
0.0
 10
4501.762419728872
 20
1979.763453765917
 30
0.0
 10
4500.147290539209
 20
1939.374462956139
 30
0.0
 10
4500.945481321093
 20
1879.21142638725
 30
0.0
 10
4500.633508969746
 20
1805.488091294902
 30
0.0
 10
4500.816784978578
 20
1725.234234643513
 30
0.0
 10
4500.446138761803
 20
1644.522189342293
 30
0.0
 10
4501.575112740577
 20
1571.990763913356
 30
0.0
 10
4498.494967303765
 20
1508.619678355831
 30
0.0
 10
4504.758573472087
 20
1474.74775248619
 30
0.0
 10
4496.306129143447
 20
1443.363907221282
 30
0.0
 10
4516.955844185979
 20
1447.671504247191
 30
0.0
 10
4534.564198240803
 20
1445.066616749236
 30
0.0
 10
4552.172552279484
 20
1447.671504289582
 30
0.0
 10
4572.82226734871
 20
1443.363907140163
 30
0.0
 10
4564.36982282558
 20
1474.747753334964
 30
0.0
 10
4570.633431558608
 20
1508.619666920151
 30
0.0
 10
4567.553269300403
 20
1571.99083305694
 30
0.0
 10
4568.682325969789
 20
1644.521862371373
 30
0.0
 10
4568.311333821652
 20
1725.235564795436
 30
0.0
 10
4568.495884919575
 20
1805.483313358442
 30
0.0
 10
4568.179778415082
 20
1879.226452379
 30
0.0
 10
4568.989302095932
 20
1939.335200703247
 30
0.0
 10
4567.351118820372
 20
1979.834628027008
 30
0.0
 10
4569.598511950957
 20
2002.657166706036
 30
0.0
 10
4565.041397944342
 20
2016.704443267817
 30
0.0
 10
4556.710783332007
 20
2018.519181016101
 30
0.0
 10
4552.480708988242
 20
2019.440658715755
 30
0.0
 11
4552.480708988242
 21
2019.440658715755
 31
0.0
 11
4543.190666376782
 21
2019.440658715755
 31
0.0
 11
4525.937730098354
 21
2019.440658715755
 31
0.0
 11
4516.647687486894
 21
2019.440658715755
 31
0.0
 11
4505.395434424225
 21
2014.955698830564
 31
0.0
 11
4500.721900152895
 21
2004.183630029583
 31
0.0
 11
4500.721900152895
 21
1988.558068670915
 31
0.0
 11
4500.721900152896
 21
1946.145830697386
 31
0.0
 11
4500.721900152895
 21
1883.643585262713
 31
0.0
 11
4500.721900152895
 21
1807.74800152061
 31
0.0
 11
4500.721900152895
 21
1725.155748624792
 31
0.0
 11
4500.721900152895
 21
1642.563495728974
 31
0.0
 11
4500.721900152895
 21
1566.66791198687
 31
0.0
 11
4500.721900152895
 21
1504.165666552198
 31
0.0
 11
4500.721900152895
 21
1461.753428578669
 31
0.0
 11
4500.721900152895
 21
1446.127867220001
 31
0.0
 11
4511.297618304338
 21
1446.127867220001
 31
0.0
 11
4534.564198237515
 21
1446.127867220001
 31
0.0
 11
4557.830778170691
 21
1446.127867220001
 31
0.0
 11
4568.406496322134
 21
1446.127867220001
 31
0.0
 11
4568.406496322134
 21
1461.753428578669
 31
0.0
 11
4568.406496322134
 21
1504.165666552198
 31
0.0
 11
4568.406496322134
 21
1566.66791198687
 31
0.0
 11
4568.406496322134
 21
1642.563495728974
 31
0.0
 11
4568.406496322134
 21
1725.155748624792
 31
0.0
 11
4568.406496322134
 21
1807.74800152061
 31
0.0
 11
4568.406496322134
 21
1883.643585262713
 31
0.0
 11
4568.406496322134
 21
1946.145830697386
 31
0.0
 11
4568.406496322134
 21
1988.558068670915
 31
0.0
 11
4568.406496322134
 21
2004.183630029583
 31
0.0
 11
4563.732962050836
 21
2014.955698830564
 31
0.0
 11
4552.480708988242
 21
2019.440658715755
 31
0.0
  0
SPLINE
  5
71
330
1F
100
AcDbEntity
  8
LAYER_2
  6
Continuous
 62
     7
100
AcDbSpline
210
0.0
220
0.0
230
1.0
 70
    11
 71
     3
 72
    38
 73
    34
 74
    32
 42
0.0000000001
 43
0.0000000001
 44
0.00000001
 40
0.0
 40
0.0
 40
0.0
 40
0.0
 40
9.290042611474291
 40
26.54297888992687
 40
35.83302150140116
 40
47.94543785079014
 40
59.71796926311353
 40
75.34265968028817
 40
117.7525336697621
 40
180.2512953384606
 40
256.1426487933085
 40
338.7302981412314
 40
421.3179474891543
 40
497.2093009440029
 40
559.7080626127007
 40
602.1179366021748
 40
617.7426270193495
 40
628.3183451708095
 40
651.5849251040194
 40
674.8515050372301
 40
685.4272231886893
 40
701.0519136058639
 40
743.4617875953378
 40
805.9605492640361
 40
881.8519027188846
 40
964.4395520668071
 40
1047.02720141473
 40
1122.918554869578
 40
1185.417316538277
 40
1227.827190527751
 40
1243.451880944925
 40
1255.224412357245
 40
1267.336828706699
 40
1267.336828706699
 40
1267.336828706699
 40
1267.336828706699
 10
4086.433694096307
 20
2019.440658715755
 30
0.0
 10
4083.339334346747
 20
2019.451715127299
 30
0.0
 10
4074.498306490862
 20
2019.483304874568
 30
0.0
 10
4062.48617978524
 20
2019.160412529268
 30
0.0
 10
4049.782640910794
 20
2020.025410771819
 30
0.0
 10
4037.979300177701
 20
2016.476632341643
 30
0.0
 10
4033.506571580879
 20
2002.713508427739
 30
0.0
 10
4035.708413441213
 20
1979.736563638017
 30
0.0
 10
4034.104132398352
 20
1939.345396015813
 30
0.0
 10
4034.896990131237
 20
1879.18788945767
 30
0.0
 10
4034.586964860253
 20
1805.467870023005
 30
0.0
 10
4034.769633530255
 20
1725.218729389919
 30
0.0
 10
4034.399177168739
 20
1644.511124134436
 30
0.0
 10
4035.528024445966
 20
1571.983732264787
 30
0.0
 10
4032.448127586138
 20
1508.6162444713
 30
0.0
 10
4038.71124297872
 20
1474.746067096273
 30
0.0
 10
4030.259386794928
 20
1443.363890326185
 30
0.0
 10
4050.90887686028
 20
1447.671556040257
 30
0.0
 10
4068.517183348943
 20
1445.06658114151
 30
0.0
 10
4086.125489821378
 20
1447.671556082628
 30
0.0
 10
4106.774979913564
 20
1443.363890245105
 30
0.0
 10
4098.323123534283
 20
1474.746067944597
 30
0.0
 10
4104.586241504706
 20
1508.616233041674
 30
0.0
 10
4101.506327737337
 20
1571.983801371773
 30
0.0
 10
4102.635258128654
 20
1644.51079733658
 30
0.0
 10
4102.264454064194
 20
1725.220058837801
 30
0.0
 10
4102.448404353257
 20
1805.463094615473
 30
0.0
 10
4102.134223757376
 20
1879.202907496268
 30
0.0
 10
4102.938472427044
 20
1939.306154544162
 30
0.0
 10
4101.311019234163
 20
1979.80770022706
 30
0.0
 10
4103.544677422445
 20
2002.633091338147
 30
0.0
 10
4099.007317009877
 20
2016.704082000505
 30
0.0
 10
4090.664474863466
 20
2018.519853613334
 30
0.0
 10
4086.433694096307
 20
2019.440658715755
 30
0.0
 11
4086.433694096307
 21
2019.440658715755
 31
0.0
 11
4077.143651484833
 21
2019.440658715755
 31
0.0
 11
4059.89071520638
 21
2019.440658715755
 31
0.0
 11
4050.600672594906
 21
2019.440658715755
 31
0.0
 11
4039.348419532326
 21
2014.957642896397
 31
0.0
 11
4034.674885260967
 21
2004.152524976237
 31
0.0
 11
4034.674885260967
 21
1988.527834559062
 31
0.0
 11
4034.674885260967
 21
1946.117960569588
 31
0.0
 11
4034.674885260967
 21
1883.61919890089
 31
0.0
 11
4034.674885260967
 21
1807.727845446042
 31
0.0
 11
4034.674885260967
 21
1725.140196098119
 31
0.0
 11
4034.674885260968
 21
1642.552546750196
 31
0.0
 11
4034.674885260967
 21
1566.661193295348
 31
0.0
 11
4034.674885260967
 21
1504.16243162665
 31
0.0
 11
4034.674885260967
 21
1461.752557637176
 31
0.0
 11
4034.674885260967
 21
1446.127867220001
 31
0.0
 11
4045.250603412427
 21
1446.127867220001
 31
0.0
 11
4068.517183345637
 21
1446.127867220001
 31
0.0
 11
4091.783763278848
 21
1446.127867220001
 31
0.0
 11
4102.359481430307
 21
1446.127867220001
 31
0.0
 11
4102.359481430307
 21
1461.752557637176
 31
0.0
 11
4102.359481430307
 21
1504.16243162665
 31
0.0
 11
4102.359481430307
 21
1566.661193295348
 31
0.0
 11
4102.359481430307
 21
1642.552546750196
 31
0.0
 11
4102.359481430307
 21
1725.140196098119
 31
0.0
 11
4102.359481430308
 21
1807.727845446042
 31
0.0
 11
4102.359481430307
 21
1883.61919890089
 31
0.0
 11
4102.359481430307
 21
1946.117960569588
 31
0.0
 11
4102.359481430307
 21
1988.527834559063
 31
0.0
 11
4102.359481430307
 21
2004.152524976237
 31
0.0
 11
4097.685947158957
 21
2014.957642896398
 31
0.0
 11
4086.433694096307
 21
2019.440658715755
 31
0.0
  0
XLINE
  5
72
330
1F
100
AcDbEntity
  8
1
  6
DOTTED
 62
     1
100
AcDbXline
 10
2333.099167405801
 20
1826.0
 30
0.0
 11
0.0
 21
1.0
 31
0.0
  0
XLINE
  5
73
330
1F
100
AcDbEntity
  8
1
  6
DOTTED
 62
     1
100
AcDbXline
 10
4568.406496322135
 20
69.39019750912439
 30
0.0
 11
1.0
 21
0.0
 31
0.0
  0
XLINE
  5
74
330
1F
100
AcDbEntity
  8
1
  6
DOTTED
 62
     1
100
AcDbXline
 10
4500.721900152895
 20
137.074793678365
 30
0.0
 11
1.0
 21
0.0
 31
0.0
  0
XLINE
  5
75
330
1F
100
AcDbEntity
  8
1
  6
DOTTED
 62
     1
100
AcDbXline
 10
4102.0
 20
535.7966938312599
 30
0.0
 11
1.0
 21
0.0
 31
0.0
  0
XLINE
  5
76
330
1F
100
AcDbEntity
  8
1
  6
DOTTED
 62
     1
100
AcDbXline
 10
4034.674885260967
 20
603.1218085702927
 30
0.0
 11
1.0
 21
0.0
 31
0.0
  0
XLINE
  5
77
330
1F
100
AcDbEntity
  8
1
  6
DOTTED
 62
     1
100
AcDbXline
 10
4568.406496322135
 20
1661.310538078001
 30
0.0
 11
0.0
 21
1.0
 31
0.0
  0
XLINE
  5
78
330
1F
100
AcDbEntity
  8
1
  6
DOTTED
 62
     1
100
AcDbXline
 10
4500.721900152895
 20
1661.310538077998
 30
0.0
 11
0.0
 21
1.0
 31
0.0
  0
XLINE
  5
79
330
1F
100
AcDbEntity
  8
1
  6
DOTTED
 62
     1
100
AcDbXline
 10
4102.0
 20
1709.0
 30
0.0
 11
0.0
 21
1.0
 31
0.0
  0
XLINE
  5
7A
330
1F
100
AcDbEntity
  8
1
  6
DOTTED
 62
     1
100
AcDbXline
 10
4034.674885260967
 20
1724.424423959738
 30
0.0
 11
0.0
 21
1.0
 31
0.0
  0
XLINE
  5
7B
330
1F
100
AcDbEntity
  8
1
  6
DOTTED
 62
     1
100
AcDbXline
 10
2668.730633366701
 20
1769.244897964392
 30
0.0
 11
0.0
 21
1.0
 31
0.0
  0
XLINE
  5
7C
330
1F
100
AcDbEntity
  8
1
  6
DOTTED
 62
     1
100
AcDbXline
 10
2655.57286487657
 20
1709.44066557356
 30
0.0
 11
0.0
 21
1.0
 31
0.0
  0
XLINE
  5
7D
330
1F
100
AcDbEntity
  8
1
  6
DOTTED
 62
     1
100
AcDbXline
 10
2221.416147064688
 20
2019.44066557356
 30
0.0
 11
0.0
 21
1.0
 31
0.0
  0
XLINE
  5
7E
330
1F
100
AcDbEntity
  8
1
  6
DOTTED
 62
     1
100
AcDbXline
 10
2065.8495539822
 20
2117.657588950588
 30
0.0
 11
0.0
 21
1.0
 31
0.0
  0
XLINE
  5
7F
330
1F
100
AcDbEntity
  8
1
  6
DOTTED
 62
     1
100
AcDbXline
 10
2110.57286487657
 20
1709.44066557356
 30
0.0
 11
0.0
 21
1.0
 31
0.0
  0
XLINE
  5
80
330
1F
100
AcDbEntity
  8
1
  6
DOTTED
 62
     1
100
AcDbXline
 10
3238.3560282577
 20
1399.44066557356
 30
0.0
 11
-0.7071067811865475
 21
0.7071067811865476
 31
0.0
  0
XLINE
  5
81
330
1F
100
AcDbEntity
  8
1
  6
DOTTED
 62
     1
100
AcDbXline
 10
3238.3560282577
 20
1399.44066557356
 30
0.0
 11
0.0
 21
1.0
 31
0.0
  0
XLINE
  5
82
330
1F
100
AcDbEntity
  8
1
  6
DOTTED
 62
     1
100
AcDbXline
 10
2383.07286487657
 20
2019.44066557356
 30
0.0
 11
1.0
 21
0.0
 31
0.0
  0
XLINE
  5
83
330
1F
100
AcDbEntity
  8
1
  6
DOTTED
 62
     1
100
AcDbXline
 10
2383.07286487657
 20
1399.44066557356
 30
0.0
 11
1.0
 21
0.0
 31
0.0
  0
ARC
  5
84
330
1F
100
AcDbEntity
  8
1
  6
Continuous
 62
     7
100
AcDbCircle
 10
2075.304739738193
 20
2120.91327049516
 30
0.0
 40
10.0
100
AcDbArc
 50
90.0
 51
-160.9999999999975
  0
ARC
  5
85
330
1F
100
AcDbEntity
  8
1
  6
Continuous
 62
     7
100
AcDbCircle
 10
2136.850149184298
 20
2095.91327049516
 30
0.0
 40
35.00000000000006
100
AcDbArc
 50
29.99999999999823
 51
90.0
  0
ARC
  5
86
330
1F
100
AcDbEntity
  8
1
  6
Continuous
 62
     7
100
AcDbCircle
 10
2645.57286487657
 20
2009.44066557356
 30
0.0
 40
10.0
100
AcDbArc
 50
0.0
 51
90.0
  0
ARC
  5
87
330
1F
100
AcDbEntity
  8
1
  6
Continuous
 62
     7
100
AcDbCircle
 10
2120.57286487657
 20
2009.44066557356
 30
0.0
 40
10.0
100
AcDbArc
 50
90.0
 51
180.0
  0
ARC
  5
88
330
1F
100
AcDbEntity
  8
1
  6
Continuous
 62
     7
100
AcDbCircle
 10
2120.57286487657
 20
1409.44066557356
 30
0.0
 40
10.0
100
AcDbArc
 50
180.0
 51
-90.0
  0
ARC
  5
89
330
1F
100
AcDbEntity
  8
1
  6
Continuous
 62
     7
100
AcDbCircle
 10
2645.57286487657
 20
1409.44066557356
 30
0.0
 40
10.0
100
AcDbArc
 50
-90.0
 51
0.0
  0
LWPOLYLINE
  5
8A
330
1F
100
AcDbEntity
  8
LAYER_2
  6
Continuous
 62
     7
100
AcDbPolyline
 90
        5
 70
     1
 43
0.0
 10
4102.359454312552
 20
1742.745635153756
 10
4500.504207885413
 20
1742.745635153756
 10
4500.504207885413
 20
1828.33118747012
 10
4102.359454312552
 20
1828.33118747012
 10
4102.359454312552
 20
1742.745635153756
  0
LWPOLYLINE
  5
8B
330
1F
100
AcDbEntity
  8
LAYER_2
  6
Continuous
 62
     7
100
AcDbPolyline
 90
        5
 70
     1
 43
0.0
 10
4553.258360873144
 20
1438.724872978519
 10
4523.646358200033
 20
1438.724872978519
 10
4523.646358200033
 20
1394.369032207448
 10
4553.258360873144
 20
1394.369032207448
 10
4553.258360873144
 20
1438.724872978519
  0
LWPOLYLINE
  5
8C
330
1F
100
AcDbEntity
  8
LAYER_2
  6
Continuous
 62
     7
100
AcDbPolyline
 90
        5
 70
     1
 43
0.0
 10
4079.466137527973
 20
1438.724872978519
 10
4049.823075807608
 20
1438.724872978519
 10
4049.823075807608
 20
1394.369032207448
 10
4079.466137527973
 20
1394.369032207448
 10
4079.466137527973
 20
1438.724872978519
  0
ENDSEC
  0
SECTION
  2
OBJECTS
  0
DICTIONARY
  5
C
330
0
100
AcDbDictionary
281
     1
  3
ACAD_GROUP
350
D
  3
ACAD_LAYOUT
350
1A
  3
ACAD_MLINESTYLE
350
17
  3
ACAD_PLOTSETTINGS
350
19
  3
ACAD_PLOTSTYLENAME
350
E
  3
ACAD_TABLESTYLE
350
2A
  3
AcDbVariableDictionary
350
2C
  0
DICTIONARY
  5
D
102
{ACAD_REACTORS
330
C
102
}
330
C
100
AcDbDictionary
281
     1
  0
DICTIONARY
  5
1A
102
{ACAD_REACTORS
330
C
102
}
330
C
100
AcDbDictionary
281
     1
  3
Layout1
350
1E
  3
Layout2
350
26
  3
Model
350
22
  0
DICTIONARY
  5
17
102
{ACAD_REACTORS
330
C
102
}
330
C
100
AcDbDictionary
281
     1
  3
Standard
350
18
  0
DICTIONARY
  5
19
102
{ACAD_REACTORS
330
C
102
}
330
C
100
AcDbDictionary
281
     1
  0
ACDBDICTIONARYWDFLT
  5
E
102
{ACAD_REACTORS
330
C
102
}
330
C
100
AcDbDictionary
281
     1
  3
Normal
350
F
100
AcDbDictionaryWithDefault
340
F
  0
DICTIONARY
  5
2A
102
{ACAD_REACTORS
330
C
102
}
330
C
100
AcDbDictionary
281
     1
  3
Standard
350
2B
  0
DICTIONARY
  5
2C
102
{ACAD_REACTORS
330
C
102
}
330
C
100
AcDbDictionary
281
     1
  3
CTABLESTYLE
350
2D
  0
LAYOUT
  5
1E
102
{ACAD_REACTORS
330
1A
102
}
330
1A
100
AcDbPlotSettings
  1

  2

  4

  6

 40
0.0
 41
0.0
 42
0.0
 43
0.0
 44
0.0
 45
0.0
 46
0.0
 47
0.0
 48
0.0
 49
0.0
140
0.0
141
0.0
142
1.0
143
1.0
 70
   688
 72
     0
 73
     0
 74
     5
  7

 75
    16
147
1.0
148
0.0
149
0.0
100
AcDbLayout
  1
Layout1
 70
     1
 71
     1
 10
0.0
 20
0.0
 11
12.0
 21
9.0
 12
0.0
 22
0.0
 32
0.0
 14
1.00000000000000E+20
 24
1.00000000000000E+20
 34
1.00000000000000E+20
 15
-1.00000000000000E+20
 25
-1.00000000000000E+20
 35
-1.00000000000000E+20
146
0.0
 13
0.0
 23
0.0
 33
0.0
 16
1.0
 26
0.0
 36
0.0
 17
0.0
 27
1.0
 37
0.0
 76
     0
330
1B
  0
LAYOUT
  5
26
102
{ACAD_REACTORS
330
1A
102
}
330
1A
100
AcDbPlotSettings
  1

  2

  4

  6

 40
0.0
 41
0.0
 42
0.0
 43
0.0
 44
0.0
 45
0.0
 46
0.0
 47
0.0
 48
0.0
 49
0.0
140
0.0
141
0.0
142
1.0
143
1.0
 70
   688
 72
     0
 73
     0
 74
     5
  7

 75
    16
147
1.0
148
0.0
149
0.0
100
AcDbLayout
  1
Layout2
 70
     1
 71
     2
 10
0.0
 20
0.0
 11
0.0
 21
0.0
 12
0.0
 22
0.0
 32
0.0
 14
0.0
 24
0.0
 34
0.0
 15
0.0
 25
0.0
 35
0.0
146
0.0
 13
0.0
 23
0.0
 33
0.0
 16
1.0
 26
0.0
 36
0.0
 17
0.0
 27
1.0
 37
0.0
 76
     0
330
23
  0
LAYOUT
  5
22
102
{ACAD_REACTORS
330
1A
102
}
330
1A
100
AcDbPlotSettings
  1

  2

  4

  6

 40
0.0
 41
0.0
 42
0.0
 43
0.0
 44
0.0
 45
0.0
 46
0.0
 47
0.0
 48
0.0
 49
0.0
140
0.0
141
0.0
142
1.0
143
1.0
 70
  1712
 72
     0
 73
     0
 74
     0
  7

 75
     0
147
1.0
148
0.0
149
0.0
100
AcDbLayout
  1
Model
 70
     1
 71
     0
 10
0.0
 20
0.0
 11
0.0
 21
0.0
 12
0.0
 22
0.0
 32
0.0
 14
2065.304739738193
 24
69.39019750912439
 34
0.0
 15
4571.29296805009
 25
2131.424835787958
 35
0.0
146
0.0
 13
0.0
 23
0.0
 33
0.0
 16
1.0
 26
0.0
 36
0.0
 17
0.0
 27
1.0
 37
0.0
 76
     0
330
1F
  0
MLINESTYLE
  5
18
102
{ACAD_REACTORS
330
17
102
}
330
17
100
AcDbMlineStyle
  2
Standard
 70
     0
  3

 62
   256
 51
90.0
 52
90.0
 71
     2
 49
0.5
 62
   256
  6
BYLAYER
 49
-0.5
 62
   256
  6
BYLAYER
  0
ACDBPLACEHOLDER
  5
F
102
{ACAD_REACTORS
330
E
102
}
330
E
  0
TABLESTYLE
  5
2B
102
{ACAD_REACTORS
330
2A
102
}
330
2A
100
AcDbTableStyle
  3
Standard
 70
     0
 71
     0
 40
0.06
 41
0.06
280
     0
281
     0
  7
Standard
140
0.18
170
     2
 62
     0
 63
     7
283
     0
274
    -2
284
     1
 64
     0
275
    -2
285
     1
 65
     0
276
    -2
286
     1
 66
     0
277
    -2
287
     1
 67
     0
278
    -2
288
     1
 68
     0
279
    -2
289
     1
 69
     0
  7
Standard
140
0.25
170
     5
 62
     0
 63
     7
283
     0
274
    -2
284
     1
 64
     0
275
    -2
285
     1
 65
     0
276
    -2
286
     1
 66
     0
277
    -2
287
     1
 67
     0
278
    -2
288
     1
 68
     0
279
    -2
289
     1
 69
     0
  7
Standard
140
0.18
170
     5
 62
     0
 63
     7
283
     0
274
    -2
284
     1
 64
     0
275
    -2
285
     1
 65
     0
276
    -2
286
     1
 66
     0
277
    -2
287
     1
 67
     0
278
    -2
288
     1
 68
     0
279
    -2
289
     1
 69
     0
  0
DICTIONARYVAR
  5
2D
102
{ACAD_REACTORS
330
2C
102
}
330
2C
100
DictionaryVariables
280
     0
  1
Standard
  0
ENDSEC
  0
EOF
