  0
SECTION
  2
HEADER
  9
$ACADVER
  1
AC1015
  9
$ACADMAINTVER
 70
     6
  9
$DWGCODEPAGE
  3
ANSI_1252
  9
$INSBASE
 10
0.0
 20
0.0
 30
0.0
  9
$EXTMIN
 10
-2213.546978554
 20
-3438.51573042545
 30
0.0
  9
$EXTMAX
 10
-7.72656745855511
 20
-1234.38584015604
 30
0.0
  9
$LIMMIN
 10
0.0
 20
0.0
  9
$LIMMAX
 10
12.0
 20
9.0
  9
$ORTHOMODE
 70
     0
  9
$REGENMODE
 70
     1
  9
$FILLMODE
 70
     1
  9
$QTEXTMODE
 70
     0
  9
$MIRRTEXT
 70
     1
  9
$LTSCALE
 40
1.0
  9
$ATTMODE
 70
     1
  9
$TEXTSIZE
 40
0.2
  9
$TRACEWID
 40
0.05
  9
$TEXTSTYLE
  7
Standard
  9
$CLAYER
  8
0
  9
$CELTYPE
  6
ByLayer
  9
$CECOLOR
 62
   256
  9
$CELTSCALE
 40
1.0
  9
$DISPSILH
 70
     0
  9
$DIMSCALE
 40
1.0
  9
$DIMASZ
 40
0.18
  9
$DIMEXO
 40
0.0625
  9
$DIMDLI
 40
0.38
  9
$DIMRND
 40
0.0
  9
$DIMDLE
 40
0.0
  9
$DIMEXE
 40
0.18
  9
$DIMTP
 40
0.0
  9
$DIMTM
 40
0.0
  9
$DIMTXT
 40
0.18
  9
$DIMCEN
 40
0.09
  9
$DIMTSZ
 40
0.0
  9
$DIMTOL
 70
     0
  9
$DIMLIM
 70
     0
  9
$DIMTIH
 70
     1
  9
$DIMTOH
 70
     1
  9
$DIMSE1
 70
     0
  9
$DIMSE2
 70
     0
  9
$DIMTAD
 70
     0
  9
$DIMZIN
 70
     0
  9
$DIMBLK
  1

  9
$DIMASO
 70
     1
  9
$DIMSHO
 70
     1
  9
$DIMPOST
  1

  9
$DIMAPOST
  1

  9
$DIMALT
 70
     0
  9
$DIMALTD
 70
     2
  9
$DIMALTF
 40
25.4
  9
$DIMLFAC
 40
1.0
  9
$DIMTOFL
 70
     0
  9
$DIMTVP
 40
0.0
  9
$DIMTIX
 70
     0
  9
$DIMSOXD
 70
     0
  9
$DIMSAH
 70
     0
  9
$DIMBLK1
  1

  9
$DIMBLK2
  1

  9
$DIMSTYLE
  2
Standard
  9
$DIMCLRD
 70
     0
  9
$DIMCLRE
 70
     0
  9
$DIMCLRT
 70
     0
  9
$DIMTFAC
 40
1.0
  9
$DIMGAP
 40
0.09
  9
$DIMJUST
 70
     0
  9
$DIMSD1
 70
     0
  9
$DIMSD2
 70
     0
  9
$DIMTOLJ
 70
     1
  9
$DIMTZIN
 70
     0
  9
$DIMALTZ
 70
     0
  9
$DIMALTTZ
 70
     0
  9
$DIMUPT
 70
     0
  9
$DIMDEC
 70
     4
  9
$DIMTDEC
 70
     4
  9
$DIMALTU
 70
     2
  9
$DIMALTTD
 70
     2
  9
$DIMTXSTY
  7
Standard
  9
$DIMAUNIT
 70
     0
  9
$DIMADEC
 70
     0
  9
$DIMALTRND
 40
0.0
  9
$DIMAZIN
 70
     0
  9
$DIMDSEP
 70
    46
  9
$DIMATFIT
 70
     3
  9
$DIMFRAC
 70
     0
  9
$DIMLDRBLK
  1

  9
$DIMLUNIT
 70
     2
  9
$DIMLWD
 70
    -2
  9
$DIMLWE
 70
    -2
  9
$DIMTMOVE
 70
     0
  9
$LUNITS
 70
     2
  9
$LUPREC
 70
     4
  9
$SKETCHINC
 40
0.1
  9
$FILLETRAD
 40
0.5
  9
$AUNITS
 70
     0
  9
$AUPREC
 70
     0
  9
$MENU
  1
.
  9
$ELEVATION
 40
0.0
  9
$PELEVATION
 40
0.0
  9
$THICKNESS
 40
0.0
  9
$LIMCHECK
 70
     0
  9
$CHAMFERA
 40
0.5
  9
$CHAMFERB
 40
0.5
  9
$CHAMFERC
 40
1.0
  9
$CHAMFERD
 40
0.0
  9
$SKPOLY
 70
     0
  9
$TDCREATE
 40
2457268.632933588
  9
$TDUCREATE
 40
2457268.549600255
  9
$TDUPDATE
 40
2457268.632933599
  9
$TDUUPDATE
 40
2457268.549600266
  9
$TDINDWG
 40
0.0000000116
  9
$TDUSRTIMER
 40
0.0000000116
  9
$USRTIMER
 70
     1
  9
$ANGBASE
 50
0.0
  9
$ANGDIR
 70
     0
  9
$PDMODE
 70
     0
  9
$PDSIZE
 40
0.0
  9
$PLINEWID
 40
0.0
  9
$SPLFRAME
 70
     0
  9
$SPLINETYPE
 70
     6
  9
$SPLINESEGS
 70
     8
  9
$HANDSEED
  5
115
  9
$SURFTAB1
 70
     6
  9
$SURFTAB2
 70
     6
  9
$SURFTYPE
 70
     6
  9
$SURFU
 70
     6
  9
$SURFV
 70
     6
  9
$UCSBASE
  2

  9
$UCSNAME
  2

  9
$UCSORG
 10
0.0
 20
0.0
 30
0.0
  9
$UCSXDIR
 10
1.0
 20
0.0
 30
0.0
  9
$UCSYDIR
 10
0.0
 20
1.0
 30
0.0
  9
$UCSORTHOREF
  2

  9
$UCSORTHOVIEW
 70
     0
  9
$UCSORGTOP
 10
0.0
 20
0.0
 30
0.0
  9
$UCSORGBOTTOM
 10
0.0
 20
0.0
 30
0.0
  9
$UCSORGLEFT
 10
0.0
 20
0.0
 30
0.0
  9
$UCSORGRIGHT
 10
0.0
 20
0.0
 30
0.0
  9
$UCSORGFRONT
 10
0.0
 20
0.0
 30
0.0
  9
$UCSORGBACK
 10
0.0
 20
0.0
 30
0.0
  9
$PUCSBASE
  2

  9
$PUCSNAME
  2

  9
$PUCSORG
 10
0.0
 20
0.0
 30
0.0
  9
$PUCSXDIR
 10
1.0
 20
0.0
 30
0.0
  9
$PUCSYDIR
 10
0.0
 20
1.0
 30
0.0
  9
$PUCSORTHOREF
  2

  9
$PUCSORTHOVIEW
 70
     0
  9
$PUCSORGTOP
 10
0.0
 20
0.0
 30
0.0
  9
$PUCSORGBOTTOM
 10
0.0
 20
0.0
 30
0.0
  9
$PUCSORGLEFT
 10
0.0
 20
0.0
 30
0.0
  9
$PUCSORGRIGHT
 10
0.0
 20
0.0
 30
0.0
  9
$PUCSORGFRONT
 10
0.0
 20
0.0
 30
0.0
  9
$PUCSORGBACK
 10
0.0
 20
0.0
 30
0.0
  9
$USERI1
 70
     0
  9
$USERI2
 70
     0
  9
$USERI3
 70
     0
  9
$USERI4
 70
     0
  9
$USERI5
 70
     0
  9
$USERR1
 40
17.0
  9
$USERR2
 40
0.0
  9
$USERR3
 40
0.0
  9
$USERR4
 40
0.0
  9
$USERR5
 40
0.0
  9
$WORLDVIEW
 70
     1
  9
$SHADEDGE
 70
     3
  9
$SHADEDIF
 70
    70
  9
$TILEMODE
 70
     1
  9
$MAXACTVP
 70
    64
  9
$PINSBASE
 10
0.0
 20
0.0
 30
0.0
  9
$PLIMCHECK
 70
     0
  9
$PEXTMIN
 10
1.00000000000000E+20
 20
1.00000000000000E+20
 30
1.00000000000000E+20
  9
$PEXTMAX
 10
-1.00000000000000E+20
 20
-1.00000000000000E+20
 30
-1.00000000000000E+20
  9
$PLIMMIN
 10
0.0
 20
0.0
  9
$PLIMMAX
 10
12.0
 20
9.0
  9
$UNITMODE
 70
     0
  9
$VISRETAIN
 70
     1
  9
$PLINEGEN
 70
     0
  9
$PSLTSCALE
 70
     1
  9
$TREEDEPTH
 70
  3020
  9
$CMLSTYLE
  2
Standard
  9
$CMLJUST
 70
     0
  9
$CMLSCALE
 40
1.0
  9
$PROXYGRAPHICS
 70
     1
  9
$MEASUREMENT
 70
     1
  9
$CELWEIGHT
370
    -1
  9
$ENDCAPS
280
     0
  9
$JOINSTYLE
280
     0
  9
$LWDISPLAY
290
     0
  9
$INSUNITS
 70
     1
  9
$HYPERLINKBASE
  1

  9
$STYLESHEET
  1

  9
$XEDIT
290
     1
  9
$CEPSNTYPE
380
     0
  9
$PSTYLEMODE
290
     1
  9
$FINGERPRINTGUID
  2
{7750B16E-49FA-4A98-9C4C-C763C2AD7A46}
  9
$VERSIONGUID
  2
{FAEB1C32-E019-11D5-929B-00C0DF256EC4}
  9
$EXTNAMES
290
     1
  9
$PSVPSCALE
 40
0.0
  9
$OLESTARTUP
290
     0
  0
ENDSEC
  0
SECTION
  2
CLASSES
  0
CLASS
  1
ACDBDICTIONARYWDFLT
  2
AcDbDictionaryWithDefault
  3
ObjectDBX Classes
 90
        0
280
     0
281
     0
  0
CLASS
  1
VISUALSTYLE
  2
AcDbVisualStyle
  3
ObjectDBX Classes
 90
     4095
280
     0
281
     0
  0
CLASS
  1
MATERIAL
  2
AcDbMaterial
  3
ObjectDBX Classes
 90
     1153
280
     0
281
     0
  0
CLASS
  1

  2
exOdDbSpline
  3

 90
        0
280
     0
281
     1
  0
CLASS
  1

  2
exOdDbPolyline
  3

 90
        0
280
     0
281
     1
  0
CLASS
  1
SCALE
  2
AcDbScale
  3
ObjectDBX Classes
 90
     1153
280
     0
281
     0
  0
CLASS
  1
DICTIONARYVAR
  2
AcDbDictionaryVar
  3
ObjectDBX Classes
 90
        0
280
     0
281
     0
  0
CLASS
  1
ACDBPLACEHOLDER
  2
AcDbPlaceHolder
  3
ObjectDBX Classes
 90
        0
280
     0
281
     0
  0
CLASS
  1
LAYOUT
  2
AcDbLayout
  3
ObjectDBX Classes
 90
        0
280
     0
281
     0
  0
ENDSEC
  0
SECTION
  2
TABLES
  0
TABLE
  2
VPORT
  5
8
330
0
100
AcDbSymbolTable
 70
     1
  0
VPORT
  5
29
330
8
100
AcDbSymbolTableRecord
100
AcDbViewportTableRecord
  2
*Active
 70
     0
 10
0.0
 20
0.0
 11
1.0
 21
1.0
 12
-1110.636773006278
 22
-2336.450785290745
 13
0.0
 23
0.0
 14
0.5
 24
0.5
 15
0.5
 25
0.5
 16
0.0
 26
0.0
 36
1.0
 17
0.0
 27
0.0
 37
0.0
 40
2424.542879296351
 41
1.60267857142857
 42
50.0
 43
0.0
 44
0.0
 50
0.0
 51
0.0
 71
     0
 72
   100
 73
     1
 74
     3
 75
     0
 76
     0
 77
     0
 78
     0
281
     0
 65
     1
110
0.0
120
0.0
130
0.0
111
1.0
121
0.0
131
0.0
112
0.0
122
1.0
132
0.0
 79
     0
146
0.0
  0
ENDTAB
  0
TABLE
  2
LTYPE
  5
5
330
0
100
AcDbSymbolTable
 70
     9
  0
LTYPE
  5
14
330
5
100
AcDbSymbolTableRecord
100
AcDbLinetypeTableRecord
  2
ByBlock
 70
     0
  3

 72
    65
 73
     0
 40
0.0
  0
LTYPE
  5
15
330
5
100
AcDbSymbolTableRecord
100
AcDbLinetypeTableRecord
  2
ByLayer
 70
     0
  3

 72
    65
 73
     0
 40
0.0
  0
LTYPE
  5
16
330
5
100
AcDbSymbolTableRecord
100
AcDbLinetypeTableRecord
  2
Continuous
 70
     0
  3
Solid line
 72
    65
 73
     0
 40
0.0
  0
LTYPE
  5
3F
330
5
100
AcDbSymbolTableRecord
100
AcDbLinetypeTableRecord
  2
DASHED
 70
     0
  3
Dashed
 72
    65
 73
     2
 40
15.0
 49
7.0
 74
     0
 49
-8.0
 74
     0
  0
LTYPE
  5
40
330
5
100
AcDbSymbolTableRecord
100
AcDbLinetypeTableRecord
  2
DOTTED
 70
     0
  3
Dotted
 72
    65
 73
     2
 40
1.0
 49
0.0
 74
     0
 49
-1.0
 74
     0
  0
LTYPE
  5
41
330
5
100
AcDbSymbolTableRecord
100
AcDbLinetypeTableRecord
  2
DOT_CENTER
 70
     0
  3
Dot_Center
 72
    65
 73
     4
 40
14.0
 49
12.0
 74
     0
 49
-1.0
 74
     0
 49
0.0
 74
     0
 49
-1.0
 74
     0
  0
LTYPE
  5
42
330
5
100
AcDbSymbolTableRecord
100
AcDbLinetypeTableRecord
  2
LONG_DASHED
 70
     0
  3
Long_Dashed
 72
    65
 73
     2
 40
15.0
 49
10.0
 74
     0
 49
-5.0
 74
     0
  0
LTYPE
  5
43
330
5
100
AcDbSymbolTableRecord
100
AcDbLinetypeTableRecord
  2
DASH_CENTER
 70
     0
  3
Dash_Center
 72
    65
 73
     4
 40
14.0
 49
11.0
 74
     0
 49
-1.0
 74
     0
 49
1.0
 74
     0
 49
-1.0
 74
     0
  0
LTYPE
  5
44
330
5
100
AcDbSymbolTableRecord
100
AcDbLinetypeTableRecord
  2
PHANTOM
 70
     0
  3
Phantom
 72
    65
 73
     6
 40
13.0
 49
10.0
 74
     0
 49
-1.0
 74
     0
 49
0.0
 74
     0
 49
-1.0
 74
     0
 49
0.0
 74
     0
 49
-1.0
 74
     0
  0
LTYPE
  5
45
330
5
100
AcDbSymbolTableRecord
100
AcDbLinetypeTableRecord
  2
CENTER_DASH_DASH
 70
     0
  3
Center_Dash_Dash
 72
    65
 73
     6
 40
14.0
 49
9.0
 74
     0
 49
-1.0
 74
     0
 49
1.0
 74
     0
 49
-1.0
 74
     0
 49
1.0
 74
     0
 49
-1.0
 74
     0
  0
LTYPE
  5
46
330
5
100
AcDbSymbolTableRecord
100
AcDbLinetypeTableRecord
  2
Tratteggiato
 70
     0
  3
Tratteggiato
 72
    65
 73
     2
 40
6.0
 49
3.0
 74
     0
 49
-3.0
 74
     0
  0
ENDTAB
  0
TABLE
  2
LAYER
  5
2
330
0
100
AcDbSymbolTable
 70
     4
  0
LAYER
  5
10
330
2
100
AcDbSymbolTableRecord
100
AcDbLayerTableRecord
  2
0
 70
     0
 62
     7
  6
Continuous
370
    -3
390
F
  0
LAYER
  5
47
330
2
100
AcDbSymbolTableRecord
100
AcDbLayerTableRecord
  2
1
 70
     0
 62
     7
  6
Continuous
370
    -3
390
F
  0
LAYER
  5
48
330
2
100
AcDbSymbolTableRecord
100
AcDbLayerTableRecord
  2
Predefinito
 70
     0
 62
     7
  6
Continuous
370
    -3
390
F
  0
LAYER
  5
49
330
2
100
AcDbSymbolTableRecord
100
AcDbLayerTableRecord
  2
tratteggio
 70
     0
 62
     7
  6
Continuous
370
    -3
390
F
  0
ENDTAB
  0
TABLE
  2
STYLE
  5
3
330
0
100
AcDbSymbolTable
 70
     2
  0
STYLE
  5
11
330
3
100
AcDbSymbolTableRecord
100
AcDbTextStyleTableRecord
  2
Standard
 70
     0
 40
0.0
 41
1.0
 50
0.0
 71
     0
 42
0.2
  3
txt
  4

  0
STYLE
  5
C3
330
3
100
AcDbSymbolTableRecord
100
AcDbTextStyleTableRecord
  2
CONVERTER_11
 70
     0
 40
0.0
 41
0.9
 50
0.0
 71
     0
 42
0.2
  3
txt.shx
  4

  0
ENDTAB
  0
TABLE
  2
VIEW
  5
6
330
0
100
AcDbSymbolTable
 70
     0
  0
ENDTAB
  0
TABLE
  2
UCS
  5
7
330
0
100
AcDbSymbolTable
 70
     0
  0
ENDTAB
  0
TABLE
  2
APPID
  5
9
330
0
100
AcDbSymbolTable
 70
     1
  0
APPID
  5
12
330
9
100
AcDbSymbolTableRecord
100
AcDbRegAppTableRecord
  2
ACAD
 70
     0
  0
ENDTAB
  0
TABLE
  2
DIMSTYLE
  5
A
330
0
100
AcDbSymbolTable
 70
     1
100
AcDbDimStyleTable
  0
DIMSTYLE
105
27
330
A
100
AcDbSymbolTableRecord
100
AcDbDimStyleTableRecord
  2
Standard
 70
     0
340
11
  0
ENDTAB
  0
TABLE
  2
BLOCK_RECORD
  5
1
330
0
100
AcDbSymbolTable
 70
     1
  0
BLOCK_RECORD
  5
1F
330
1
100
AcDbSymbolTableRecord
100
AcDbBlockTableRecord
  2
*Model_Space
340
22
  0
BLOCK_RECORD
  5
1B
330
1
100
AcDbSymbolTableRecord
100
AcDbBlockTableRecord
  2
*Paper_Space
340
1E
  0
BLOCK_RECORD
  5
23
330
1
100
AcDbSymbolTableRecord
100
AcDbBlockTableRecord
  2
*Paper_Space0
340
26
  0
ENDTAB
  0
ENDSEC
  0
SECTION
  2
BLOCKS
  0
BLOCK
  5
20
330
1F
100
AcDbEntity
  8
0
100
AcDbBlockBegin
  2
*Model_Space
 70
     0
 10
0.0
 20
0.0
 30
0.0
  3
*Model_Space
  1

  0
ENDBLK
  5
21
330
1F
100
AcDbEntity
  8
0
100
AcDbBlockEnd
  0
BLOCK
  5
1C
330
1B
100
AcDbEntity
 67
     1
  8
0
100
AcDbBlockBegin
  2
*Paper_Space
 70
     0
 10
0.0
 20
0.0
 30
0.0
  3
*Paper_Space
  1

  0
ENDBLK
  5
1D
330
1B
100
AcDbEntity
 67
     1
  8
0
100
AcDbBlockEnd
  0
BLOCK
  5
24
330
23
100
AcDbEntity
  8
0
100
AcDbBlockBegin
  2
*Paper_Space0
 70
     0
 10
0.0
 20
0.0
 30
0.0
  3
*Paper_Space0
  1

  0
ENDBLK
  5
25
330
23
100
AcDbEntity
  8
0
100
AcDbBlockEnd
  0
ENDSEC
  0
SECTION
  2
ENTITIES
  0
LINE
  5
4A
330
1F
100
AcDbEntity
  8
1
  6
Continuous
 62
     7
100
AcDbLine
 10
-2213.546978554
 20
-1325.093600275724
 30
0.0
 11
-1148.87373749347
 21
-1325.093600275724
 31
0.0
  0
LINE
  5
4B
330
1F
100
AcDbEntity
  8
1
  6
Continuous
 62
     7
100
AcDbLine
 10
-999.271369756418
 20
-1476.56561120606
 30
0.0
 11
-999.271369756418
 21
-2211.49012938512
 31
0.0
  0
LINE
  5
4C
330
1F
100
AcDbEntity
  8
1
  6
Continuous
 62
     7
100
AcDbLine
 10
-7.72656745855511
 20
-1410.70883476645
 30
0.0
 11
-7.72656745855511
 21
-2211.49012938512
 31
0.0
  0
LINE
  5
54
330
1F
100
AcDbEntity
  8
Predefinito
  6
Continuous
 62
     7
100
AcDbLine
 10
-2185.79258276352
 20
-1409.66922937719
 30
0.0
 11
-1672.21279295256
 21
-1409.66939342569
 31
0.0
  0
LINE
  5
55
330
1F
100
AcDbEntity
  8
Predefinito
  6
Continuous
 62
     7
100
AcDbLine
 10
-2168.60455557832
 20
-1536.53107660004
 30
0.0
 11
-2195.34889868408
 21
-1410.70883476645
 31
0.0
  0
LINE
  5
56
330
1F
100
AcDbEntity
  8
Predefinito
  6
Continuous
 62
     7
100
AcDbLine
 10
-1672.21279295256
 20
-1410.70895187978
 30
0.0
 11
-1148.87373749347
 21
-1410.70883472102
 31
0.0
  0
LINE
  5
57
330
1F
100
AcDbEntity
  8
Predefinito
  6
Continuous
 62
     7
100
AcDbLine
 10
-1158.38059742044
 20
-1409.66922929657
 30
0.0
 11
-1672.21279295256
 21
-1409.66939342569
 31
0.0
  0
LINE
  5
58
330
1F
100
AcDbEntity
  8
Predefinito
  6
Continuous
 62
     7
100
AcDbLine
 10
-1672.21279295256
 20
-1410.70895187978
 30
0.0
 11
-2195.34889868408
 21
-1410.70883476645
 31
0.0
  0
LINE
  5
59
330
1F
100
AcDbEntity
  8
tratteggio
  6
Tratteggiato
 62
   251
100
AcDbLine
 10
-1158.63454010047
 20
-1409.66922937768
 30
0.0
 11
-1158.62860754236
 21
-1409.64131888616
 31
0.0
  0
ARC
  5
5A
330
1F
100
AcDbEntity
  8
Predefinito
  6
Continuous
 62
     7
100
AcDbCircle
 10
-609.684838426265
 20
-1413.84639375928
 30
0.0
 40
61.9660978004199
100
AcDbArc
 50
270.0
 51
320.6088280574613
  0
ARC
  5
5B
330
1F
100
AcDbEntity
  8
Predefinito
  6
Continuous
 62
     7
100
AcDbCircle
 10
-512.374536232774
 20
-1432.41581512241
 30
0.0
 40
22.35995632903018
100
AcDbArc
 50
90.0
 51
139.5302608173919
  0
SPLINE
  5
5C
330
1F
100
AcDbEntity
  8
Predefinito
  6
Continuous
 62
     7
100
AcDbSpline
210
0.0
220
0.0
230
1.0
 70
    24
 71
     3
 72
     9
 73
     5
 74
     3
 42
0.0000000001
 43
0.0000000001
 44
0.00000001
 40
0.0
 40
0.0
 40
0.0
 40
0.0
 40
337.2269176695454
 40
674.9567061781202
 40
674.9567061781202
 40
674.9567061781202
 40
674.9567061781202
 10
-291.946483569703
 20
-2211.48975145658
 30
0.0
 10
-291.946483569703
 20
-2099.080778900065
 30
0.0
 10
-291.946483569703
 20
-1874.095210174025
 30
0.0
 10
-291.946483569703
 20
-1649.109641447985
 30
0.0
 10
-291.946483569703
 20
-1536.53304527846
 30
0.0
 11
-291.946483569703
 21
-2211.48975145658
 31
0.0
 11
-291.946483569703
 21
-1874.262833787035
 31
0.0
 11
-291.946483569703
 21
-1536.53304527846
 31
0.0
  0
SPLINE
  5
5D
330
1F
100
AcDbEntity
  8
Predefinito
  6
Continuous
 62
     7
100
AcDbSpline
210
0.0
220
0.0
230
1.0
 70
     8
 71
     3
 72
     9
 73
     5
 74
     3
 42
0.0000000001
 43
0.0000000001
 44
0.00000001
 40
0.0
 40
0.0
 40
0.0
 40
0.0
 40
14.49014119695231
 40
28.25394509328204
 40
28.25394509328204
 40
28.25394509328204
 40
28.25394509328204
 10
-291.946483569703
 20
-1536.53304527846
 30
0.0
 10
-295.3680947978494
 20
-1539.942141796912
 30
0.0
 10
-302.0398045111361
 20
-1546.589449407021
 30
0.0
 10
-308.7013409548593
 20
-1553.246951896184
 30
0.0
 10
-311.946483569703
 20
-1556.49012938512
 30
0.0
 11
-291.946483569703
 21
-1536.53304527846
 31
0.0
 11
-302.2086414914545
 21
-1546.76301628021
 31
0.0
 11
-311.946483569703
 21
-1556.49012938512
 31
0.0
  0
SPLINE
  5
5E
330
1F
100
AcDbEntity
  8
Predefinito
  6
Continuous
 62
     7
100
AcDbSpline
210
0.0
220
0.0
230
1.0
 70
    24
 71
     3
 72
     9
 73
     5
 74
     3
 42
0.0000000001
 43
0.0000000001
 44
0.00000001
 40
0.0
 40
0.0
 40
0.0
 40
0.0
 40
337.2560656264002
 40
675.07336759844
 40
675.07336759844
 40
675.07336759844
 40
675.07336759844
 10
-1205.59997890332
 20
-2211.48975145658
 30
0.0
 10
-1205.59997890332
 20
-2099.071062914447
 30
0.0
 10
-1205.59997890332
 20
-1874.0466070483
 30
0.0
 10
-1205.59997890332
 20
-1649.022151182153
 30
0.0
 10
-1205.59997890332
 20
-1536.41638385814
 30
0.0
 11
-1205.59997890332
 21
-2211.48975145658
 31
0.0
 11
-1205.59997890332
 21
-1874.23368583018
 31
0.0
 11
-1205.59997890332
 21
-1536.41638385814
 31
0.0
  0
SPLINE
  5
5F
330
1F
100
AcDbEntity
  8
Predefinito
  6
Continuous
 62
     7
100
AcDbSpline
210
0.0
220
0.0
230
1.0
 70
    24
 71
     3
 72
     9
 73
     5
 74
     3
 42
0.0000000001
 43
0.0000000001
 44
0.00000001
 40
0.0
 40
0.0
 40
0.0
 40
0.0
 40
13.39899451814532
 40
26.79798903629008
 40
26.79798903629008
 40
26.79798903629008
 40
26.79798903629008
 10
-843.425651094319
 20
-1556.49012938512
 30
0.0
 10
-846.5838243892736
 20
-1553.331956090167
 30
0.0
 10
-852.9001709791826
 20
-1547.01560950026
 30
0.0
 10
-859.2165175690914
 20
-1540.699262910353
 30
0.0
 10
-862.374690864046
 20
-1537.5410896154
 30
0.0
 11
-843.425651094319
 21
-1556.49012938512
 31
0.0
 11
-852.9001709791827
 21
-1547.01560950026
 31
0.0
 11
-862.374690864046
 21
-1537.5410896154
 31
0.0
  0
SPLINE
  5
60
330
1F
100
AcDbEntity
  8
Predefinito
  6
Continuous
 62
     7
100
AcDbSpline
210
0.0
220
0.0
230
1.0
 70
    24
 71
     3
 72
     9
 73
     5
 74
     3
 42
0.0000000001
 43
0.0000000001
 44
0.00000001
 40
0.0
 40
0.0
 40
0.0
 40
0.0
 40
265.739583762308
 40
531.4791675246161
 40
531.4791675246161
 40
531.4791675246161
 40
531.4791675246161
 10
-843.425651094319
 20
-1556.49012938512
 30
0.0
 10
-754.8457898402163
 20
-1556.49012938512
 30
0.0
 10
-577.686067332011
 20
-1556.49012938512
 30
0.0
 10
-400.5263448238056
 20
-1556.49012938512
 30
0.0
 10
-311.946483569703
 20
-1556.49012938512
 30
0.0
 11
-843.425651094319
 21
-1556.49012938512
 31
0.0
 11
-577.686067332011
 21
-1556.49012938512
 31
0.0
 11
-311.946483569703
 21
-1556.49012938512
 31
0.0
  0
SPLINE
  5
61
330
1F
100
AcDbEntity
  8
Predefinito
  6
Continuous
 62
     7
100
AcDbSpline
210
0.0
220
0.0
230
1.0
 70
     8
 71
     3
 72
    17
 73
    13
 74
    11
 42
0.0000000001
 43
0.0000000001
 44
0.00000001
 40
0.0
 40
0.0
 40
0.0
 40
0.0
 40
36.06771923357644
 40
65.6005446620747
 40
128.6639410022198
 40
191.7273373476698
 40
218.7261045160362
 40
245.7248716749437
 40
269.1300552507216
 40
292.5352388319426
 40
436.6863583634035
 40
580.837477892282
 40
580.837477892282
 40
580.837477892282
 40
580.837477892282
 10
-282.588460308459
 20
-1536.51775067643
 30
0.0
 10
-294.6110333835512
 20
-1536.517478161025
 30
0.0
 10
-316.4778815992109
 20
-1536.516982505648
 30
0.0
 10
-359.3658618958958
 20
-1536.515143613837
 30
0.0
 10
-411.2524011847515
 20
-1536.512219912233
 30
0.0
 10
-462.2942543978409
 20
-1536.509483267537
 30
0.0
 10
-501.3145645971239
 20
-1536.508053512079
 30
0.0
 10
-527.1154705672752
 20
-1536.507710535902
 30
0.0
 10
-551.7185153368229
 20
-1536.508222489747
 30
0.0
 10
-615.3723441894322
 20
-1536.510574411762
 30
0.0
 10
-719.2748183209306
 20
-1536.514718323929
 30
0.0
 10
-815.3755646090738
 20
-1536.51826168345
 30
0.0
 10
-863.425937752715
 20
-1536.52003336321
 30
0.0
 11
-282.588460308459
 21
-1536.51775067643
 31
0.0
 11
-318.6561795294944
 21
-1536.516799542243
 31
0.0
 11
-348.1890049328348
 21
-1536.515580543007
 31
0.0
 11
-411.2524011849602
 21
-1536.512248630026
 31
0.0
 11
-474.3157974512364
 21
-1536.509088577422
 31
0.0
 11
-501.3145646035854
 21
-1536.508158573871
 31
0.0
 11
-528.3133317608309
 21
-1536.507859003716
 31
0.0
 11
-551.7185153327239
 21
-1536.508285449993
 31
0.0
 11
-575.1236989001003
 21
-1536.509090476825
 31
0.0
 11
-719.2748183245085
 21
-1536.514645974278
 31
0.0
 11
-863.425937752715
 21
-1536.52003336321
 31
0.0
  0
SPLINE
  5
62
330
1F
100
AcDbEntity
  8
Predefinito
  6
Continuous
 62
     7
100
AcDbSpline
210
0.0
220
0.0
230
1.0
 70
    24
 71
     3
 72
     9
 73
     5
 74
     3
 42
0.0000000001
 43
0.0000000001
 44
0.00000001
 40
0.0
 40
0.0
 40
0.0
 40
0.0
 40
64.3097799835516
 40
128.6195599671032
 40
128.6195599671032
 40
128.6195599671032
 40
128.6195599671032
 10
-255.846950123463
 20
-1410.70883668717
 30
0.0
 10
-260.303868487629
 20
-1431.676989018714
 30
0.0
 10
-269.217705215961
 20
-1473.6132936818
 30
0.0
 10
-278.131541944293
 20
-1515.549598344887
 30
0.0
 10
-282.588460308459
 20
-1536.51775067643
 30
0.0
 11
-255.846950123463
 21
-1410.70883668717
 31
0.0
 11
-269.217705215961
 21
-1473.6132936818
 31
0.0
 11
-282.588460308459
 21
-1536.51775067643
 31
0.0
  0
SPLINE
  5
63
330
1F
100
AcDbEntity
  8
Predefinito
  6
Continuous
 62
     7
100
AcDbSpline
210
0.0
220
0.0
230
1.0
 70
    24
 71
     3
 72
     9
 73
     5
 74
     3
 42
0.0000000001
 43
0.0000000001
 44
0.00000001
 40
0.0
 40
0.0
 40
0.0
 40
0.0
 40
265.739583762308
 40
531.4791675246161
 40
531.4791675246161
 40
531.4791675246161
 40
531.4791675246161
 10
-843.425651094319
 20
-2191.49012938512
 30
0.0
 10
-754.8457898402163
 20
-2191.49012938512
 30
0.0
 10
-577.686067332011
 20
-2191.49012938512
 30
0.0
 10
-400.5263448238056
 20
-2191.49012938512
 30
0.0
 10
-311.946483569703
 20
-2191.49012938512
 30
0.0
 11
-843.425651094319
 21
-2191.49012938512
 31
0.0
 11
-577.686067332011
 21
-2191.49012938512
 31
0.0
 11
-311.946483569703
 21
-2191.49012938512
 31
0.0
  0
SPLINE
  5
64
330
1F
100
AcDbEntity
  8
Predefinito
  6
Continuous
 62
     7
100
AcDbSpline
210
0.0
220
0.0
230
1.0
 70
    24
 71
     3
 72
     9
 73
     5
 74
     3
 42
0.0000000001
 43
0.0000000001
 44
0.00000001
 40
0.0
 40
0.0
 40
0.0
 40
0.0
 40
336.9745014573625
 40
673.9490029147298
 40
673.9490029147298
 40
673.9490029147298
 40
673.9490029147298
 10
-863.425651094319
 20
-2211.49012938512
 30
0.0
 10
-863.4256510943192
 20
-2099.165295565999
 30
0.0
 10
-863.4256510943189
 20
-1874.515627927755
 30
0.0
 10
-863.4256510943192
 20
-1649.865960289513
 30
0.0
 10
-863.425651094319
 20
-1537.54112647039
 30
0.0
 11
-863.425651094319
 21
-2211.49012938512
 31
0.0
 11
-863.425651094319
 21
-1874.515627927757
 31
0.0
 11
-863.425651094319
 21
-1537.54112647039
 31
0.0
  0
SPLINE
  5
65
330
1F
100
AcDbEntity
  8
Predefinito
  6
Continuous
 62
     7
100
AcDbSpline
210
0.0
220
0.0
230
1.0
 70
    24
 71
     3
 72
     9
 73
     5
 74
     3
 42
0.0000000001
 43
0.0000000001
 44
0.00000001
 40
0.0
 40
0.0
 40
0.0
 40
0.0
 40
14.14213562373055
 40
28.2842712474619
 40
28.2842712474619
 40
28.2842712474619
 40
28.2842712474619
 10
-843.425651094319
 20
-2191.49012938512
 30
0.0
 10
-846.7589844276524
 20
-2194.823462718453
 30
0.0
 10
-853.4256510943194
 20
-2201.490129385119
 30
0.0
 10
-860.0923177609858
 20
-2208.156796051787
 30
0.0
 10
-863.425651094319
 20
-2211.49012938512
 30
0.0
 11
-843.425651094319
 21
-2191.49012938512
 31
0.0
 11
-853.4256510943189
 21
-2201.490129385119
 31
0.0
 11
-863.425651094319
 21
-2211.49012938512
 31
0.0
  0
SPLINE
  5
66
330
1F
100
AcDbEntity
  8
Predefinito
  6
Continuous
 62
     7
100
AcDbSpline
210
0.0
220
0.0
230
1.0
 70
    24
 71
     3
 72
     9
 73
     5
 74
     3
 42
0.0000000001
 43
0.0000000001
 44
0.00000001
 40
0.0
 40
0.0
 40
0.0
 40
0.0
 40
317.5
 40
634.9999999999998
 40
634.9999999999998
 40
634.9999999999998
 40
634.9999999999998
 10
-843.425651094319
 20
-2191.49012938512
 30
0.0
 10
-843.4256510943192
 20
-2085.656796051787
 30
0.0
 10
-843.4256510943192
 20
-1873.99012938512
 30
0.0
 10
-843.4256510943192
 20
-1662.323462718453
 30
0.0
 10
-843.425651094319
 20
-1556.49012938512
 30
0.0
 11
-843.425651094319
 21
-2191.49012938512
 31
0.0
 11
-843.425651094319
 21
-1873.99012938512
 31
0.0
 11
-843.425651094319
 21
-1556.49012938512
 31
0.0
  0
SPLINE
  5
67
330
1F
100
AcDbEntity
  8
Predefinito
  6
Continuous
 62
     7
100
AcDbSpline
210
0.0
220
0.0
230
1.0
 70
    24
 71
     3
 72
     9
 73
     5
 74
     3
 42
0.0000000001
 43
0.0000000001
 44
0.00000001
 40
0.0
 40
0.0
 40
0.0
 40
0.0
 40
285.739583762308
 40
571.4791675246161
 40
571.4791675246161
 40
571.4791675246161
 40
571.4791675246161
 10
-863.425651094319
 20
-2211.49012938512
 30
0.0
 10
-768.1791231735497
 20
-2211.49012938512
 30
0.0
 10
-577.6860673320109
 20
-2211.49012938512
 30
0.0
 10
-387.1930114904723
 20
-2211.49012938512
 30
0.0
 10
-291.946483569703
 20
-2211.49012938512
 30
0.0
 11
-863.425651094319
 21
-2211.49012938512
 31
0.0
 11
-577.686067332011
 21
-2211.49012938512
 31
0.0
 11
-291.946483569703
 21
-2211.49012938512
 31
0.0
  0
SPLINE
  5
68
330
1F
100
AcDbEntity
  8
Predefinito
  6
Continuous
 62
     7
100
AcDbSpline
210
0.0
220
0.0
230
1.0
 70
    24
 71
     3
 72
     9
 73
     5
 74
     3
 42
0.0000000001
 43
0.0000000001
 44
0.00000001
 40
0.0
 40
0.0
 40
0.0
 40
0.0
 40
64.29546861905115
 40
128.5909372381025
 40
128.5909372381025
 40
128.5909372381025
 40
128.5909372381025
 10
-1175.60929667849
 20
-1536.48975145658
 30
0.0
 10
-1171.153370147653
 20
-1515.526265333987
 30
0.0
 10
-1162.24151708598
 20
-1473.5992930888
 30
0.0
 10
-1153.329664024307
 20
-1431.672320843613
 30
0.0
 10
-1148.87373749347
 20
-1410.70883472102
 30
0.0
 11
-1175.60929667849
 21
-1536.48975145658
 31
0.0
 11
-1162.24151708598
 21
-1473.5992930888
 31
0.0
 11
-1148.87373749347
 21
-1410.70883472102
 31
0.0
  0
SPLINE
  5
69
330
1F
100
AcDbEntity
  8
tratteggio
  6
Tratteggiato
 62
   251
100
AcDbSpline
210
0.0
220
0.0
230
1.0
 70
    24
 71
     3
 72
     9
 73
     5
 74
     3
 42
0.0000000001
 43
0.0000000001
 44
0.00000001
 40
0.0
 40
0.0
 40
0.0
 40
0.0
 40
0.0058121652900809
 40
0.0116243305801618
 40
0.0116243305801618
 40
0.0116243305801618
 40
0.0116243305801618
 10
-850.425938415846
 20
-1536.48974969427
 30
0.0
 10
-850.4259384158458
 20
-1536.4916870827
 30
0.0
 10
-850.4259384158461
 20
-1536.49556185956
 30
0.0
 10
-850.4259384158458
 20
-1536.49943663642
 30
0.0
 10
-850.425938415846
 20
-1536.50137402485
 30
0.0
 11
-850.425938415846
 21
-1536.48974969427
 31
0.0
 11
-850.425938415846
 21
-1536.49556185956
 31
0.0
 11
-850.425938415846
 21
-1536.50137402485
 31
0.0
  0
SPLINE
  5
6A
330
1F
100
AcDbEntity
  8
tratteggio
  6
Tratteggiato
 62
   251
100
AcDbSpline
210
0.0
220
0.0
230
1.0
 70
    24
 71
     3
 72
     9
 73
     5
 74
     3
 42
0.0000000001
 43
0.0000000001
 44
0.00000001
 40
0.0
 40
0.0
 40
0.0
 40
0.0
 40
0.0114794875023563
 40
0.0229589750099422
 40
0.0229589750099422
 40
0.0229589750099422
 40
0.0229589750099422
 10
-1672.21406950018
 20
-1531.48975145658
 30
0.0
 10
-1672.21406950018
 20
-1531.493577952415
 30
0.0
 10
-1672.21406950018
 20
-1531.501230944084
 30
0.0
 10
-1672.21406950018
 20
-1531.508883935754
 30
0.0
 10
-1672.21406950018
 20
-1531.51271043159
 30
0.0
 11
-1672.21406950018
 21
-1531.48975145658
 31
0.0
 11
-1672.21406950018
 21
-1531.501230944082
 31
0.0
 11
-1672.21406950018
 21
-1531.51271043159
 31
0.0
  0
SPLINE
  5
6B
330
1F
100
AcDbEntity
  8
tratteggio
  6
Tratteggiato
 62
   251
100
AcDbSpline
210
0.0
220
0.0
230
1.0
 70
    24
 71
     3
 72
     9
 73
     5
 74
     3
 42
0.0000000001
 43
0.0000000001
 44
0.00000001
 40
0.0
 40
0.0
 40
0.0
 40
0.0
 40
0.005985885826369
 40
0.0119717716192022
 40
0.0119717716192022
 40
0.0119717716192022
 40
0.0119717716192022
 10
-1153.74129892436
 20
-1410.69701133125
 30
0.0
 10
-1153.74171376957
 20
-1410.698963024538
 30
0.0
 10
-1153.742543459986
 20
-1410.702866411101
 30
0.0
 10
-1153.74337315041
 20
-1410.706769797664
 30
0.0
 10
-1153.74378799562
 20
-1410.70872149094
 30
0.0
 11
-1153.74129892436
 21
-1410.69701133125
 31
0.0
 11
-1153.74254345999
 21
-1410.702866411112
 31
0.0
 11
-1153.74378799562
 21
-1410.70872149094
 31
0.0
  0
SPLINE
  5
6C
330
1F
100
AcDbEntity
  8
Predefinito
  6
Continuous
 62
     7
100
AcDbSpline
210
0.0
220
0.0
230
1.0
 70
    24
 71
     3
 72
     9
 73
     5
 74
     3
 42
0.0000000001
 43
0.0000000001
 44
0.00000001
 40
0.0
 40
0.0
 40
0.0
 40
0.0
 40
32.0
 40
64.0
 40
64.0
 40
64.0
 40
64.0
 10
-373.658260377582
 20
-2786.93713581406
 30
0.0
 10
-362.9915937109154
 20
-2786.93713581406
 30
0.0
 10
-341.658260377582
 20
-2786.93713581406
 30
0.0
 10
-320.3249270442486
 20
-2786.937135814061
 30
0.0
 10
-309.658260377582
 20
-2786.93713581406
 30
0.0
 11
-373.658260377582
 21
-2786.93713581406
 31
0.0
 11
-341.658260377582
 21
-2786.93713581406
 31
0.0
 11
-309.658260377582
 21
-2786.93713581406
 31
0.0
  0
SPLINE
  5
6D
330
1F
100
AcDbEntity
  8
Predefinito
  6
Continuous
 62
     7
100
AcDbSpline
210
0.0
220
0.0
230
1.0
 70
     8
 71
     3
 72
    23
 73
    19
 74
    17
 42
0.0000000001
 43
0.0000000001
 44
0.00000001
 40
0.0
 40
0.0
 40
0.0
 40
0.0
 40
0.7822091759564994
 40
1.564384400826413
 40
2.328636956221362
 40
3.092807308448054
 40
3.822329094238156
 40
4.55179766226839
 40
5.233793729090326
 40
5.915570337726002
 40
6.541586869198338
 40
7.167407214167117
 40
7.737389740477965
 40
8.306922691077405
 40
8.829654631648472
 40
9.351980500199844
 40
9.847337653083331
 40
10.34251085494578
 40
10.34251085494578
 40
10.34251085494578
 40
10.34251085494578
 10
-373.658260377582
 20
-2786.93713581406
 30
0.0
 10
-373.9190404362122
 20
-2786.941686107967
 30
0.0
 10
-374.4405892345483
 20
-2786.950786498278
 30
0.0
 10
-375.2139809491274
 20
-2787.025230994759
 30
0.0
 10
-375.9755422383612
 20
-2787.142832921832
 30
0.0
 10
-376.7107798881936
 20
-2787.30659173863
 30
0.0
 10
-377.4222305006786
 20
-2787.515930400959
 30
0.0
 10
-378.0914450823567
 20
-2787.76572717748
 30
0.0
 10
-378.7259063640092
 20
-2788.057667214098
 30
0.0
 10
-379.3046116056231
 20
-2788.383454519438
 30
0.0
 10
-379.8369758777802
 20
-2788.748313542344
 30
0.0
 10
-380.3033197856788
 20
-2789.138972733724
 30
0.0
 10
-380.7133950401426
 20
-2789.56256021352
 30
0.0
 10
-381.0506384504175
 20
-2790.004003827474
 30
0.0
 10
-381.3205839245876
 20
-2790.471555325598
 30
0.0
 10
-381.5129234853164
 20
-2790.949122424181
 30
0.0
 10
-381.6354297841563
 20
-2791.441394916373
 30
0.0
 10
-381.6506511220231
 20
-2791.771909308066
 30
0.0
 10
-381.658260377582
 20
-2791.93713581406
 30
0.0
 11
-373.658260377582
 21
-2786.93713581406
 31
0.0
 11
-374.4401049768
 21
-2786.961015044035
 31
0.0
 11
-375.2189336533817
 21
-2787.033292114634
 31
0.0
 11
-375.9740513129336
 21
-2787.151102507471
 31
0.0
 11
-376.7198710170281
 21
-2787.317563602645
 31
0.0
 11
-377.4195319292986
 21
-2787.524146863786
 31
0.0
 11
-378.1027123383558
 21
-2787.779859437635
 31
0.0
 11
-378.7217907300159
 21
-2788.065972317701
 31
0.0
 11
-379.3153137994184
 21
-2788.401456609688
 31
0.0
 11
-379.830974138987
 21
-2788.756408876722
 31
0.0
 11
-380.3098559769558
 21
-2789.159302522044
 31
0.0
 11
-380.7051148433867
 21
-2789.569973325495
 31
0.0
 11
-381.0495340240857
 21
-2790.023562577776
 31
0.0
 11
-381.3095841330385
 21
-2790.477018884962
 31
0.0
 11
-381.5045259084296
 21
-2790.961603260655
 31
0.0
 11
-381.6191914776734
 21
-2791.443506275942
 31
0.0
 11
-381.658260377582
 21
-2791.93713581406
 31
0.0
  0
SPLINE
  5
6E
330
1F
100
AcDbEntity
  8
Predefinito
  6
Continuous
 62
     7
100
AcDbSpline
210
0.0
220
0.0
230
1.0
 70
    24
 71
     3
 72
     9
 73
     5
 74
     3
 42
0.0000000001
 43
0.0000000001
 44
0.00000001
 40
0.0
 40
0.0
 40
0.0
 40
0.0
 40
129.1110043146069
 40
258.2220086292133
 40
258.2220086292133
 40
258.2220086292133
 40
258.2220086292133
 10
-524.673776278115
 20
-2399.42069138402
 30
0.0
 10
-481.6367748399134
 20
-2399.420683584096
 30
0.0
 10
-395.5627719635105
 20
-2399.420667984251
 30
0.0
 10
-309.4887690871075
 20
-2399.420652384404
 30
0.0
 10
-266.451767648906
 20
-2399.42064458448
 30
0.0
 11
-524.673776278115
 21
-2399.42069138402
 31
0.0
 11
-395.5627719635103
 21
-2399.42066798425
 31
0.0
 11
-266.451767648906
 21
-2399.42064458448
 31
0.0
  0
SPLINE
  5
6F
330
1F
100
AcDbEntity
  8
tratteggio
  6
Tratteggiato
 62
   251
100
AcDbSpline
210
0.0
220
0.0
230
1.0
 70
    24
 71
     3
 72
     9
 73
     5
 74
     3
 42
0.0000000001
 43
0.0000000001
 44
0.00000001
 40
0.0
 40
0.0
 40
0.0
 40
0.0
 40
0.0332579533924218
 40
0.0665159067898458
 40
0.0665159067898458
 40
0.0665159067898458
 40
0.0665159067898458
 10
-450.635566799517
 20
-2445.32226576289
 30
0.0
 10
-450.6355667995171
 20
-2445.311179778426
 30
0.0
 10
-450.6355667995171
 20
-2445.289007809496
 30
0.0
 10
-450.6355667995169
 20
-2445.266835840565
 30
0.0
 10
-450.635566799517
 20
-2445.2557498561
 30
0.0
 11
-450.635566799517
 21
-2445.32226576289
 31
0.0
 11
-450.635566799517
 21
-2445.289007809497
 31
0.0
 11
-450.635566799517
 21
-2445.2557498561
 31
0.0
  0
SPLINE
  5
70
330
1F
100
AcDbEntity
  8
Predefinito
  6
Continuous
 62
     7
100
AcDbSpline
210
0.0
220
0.0
230
1.0
 70
    24
 71
     3
 72
     9
 73
     5
 74
     3
 42
0.0000000001
 43
0.0000000001
 44
0.00000001
 40
0.0
 40
0.0
 40
0.0
 40
0.0
 40
22.48435251114233
 40
44.96870502229012
 40
44.96870502229012
 40
44.96870502229012
 40
44.96870502229012
 10
-381.658260377582
 20
-2986.96843079177
 30
0.0
 10
-381.6582603775819
 20
-2994.463214962151
 30
0.0
 10
-381.6582603775821
 20
-3009.452783302915
 30
0.0
 10
-381.6582603775819
 20
-3024.442351643677
 30
0.0
 10
-381.658260377582
 20
-3031.93713581406
 30
0.0
 11
-381.658260377582
 21
-2986.96843079177
 31
0.0
 11
-381.658260377582
 21
-3009.452783302912
 31
0.0
 11
-381.658260377582
 21
-3031.93713581406
 31
0.0
  0
SPLINE
  5
71
330
1F
100
AcDbEntity
  8
Predefinito
  6
Continuous
 62
     7
100
AcDbSpline
210
0.0
220
0.0
230
1.0
 70
    24
 71
     3
 72
     9
 73
     5
 74
     3
 42
0.0000000001
 43
0.0000000001
 44
0.00000001
 40
0.0
 40
0.0
 40
0.0
 40
0.0
 40
317.4998110357301
 40
634.99962207146
 40
634.99962207146
 40
634.99962207146
 40
634.99962207146
 10
-311.946483569703
 20
-2191.48975145658
 30
0.0
 10
-311.9464835697029
 20
-2085.656481111337
 30
0.0
 10
-311.946483569703
 20
-1873.98994042085
 30
0.0
 10
-311.946483569703
 20
-1662.323399730363
 30
0.0
 10
-311.946483569703
 20
-1556.49012938512
 30
0.0
 11
-311.946483569703
 21
-2191.48975145658
 31
0.0
 11
-311.946483569703
 21
-1873.98994042085
 31
0.0
 11
-311.946483569703
 21
-1556.49012938512
 31
0.0
  0
SPLINE
  5
72
330
1F
100
AcDbEntity
  8
Predefinito
  6
Continuous
 62
     7
100
AcDbSpline
210
0.0
220
0.0
230
1.0
 70
    24
 71
     3
 72
     9
 73
     5
 74
     3
 42
0.0000000001
 43
0.0000000001
 44
0.00000001
 40
0.0
 40
0.0
 40
0.0
 40
0.0
 40
14.1420020058153
 40
28.28400401162638
 40
28.28400401162638
 40
28.28400401162638
 40
28.28400401162638
 10
-311.946483569703
 20
-2191.49012938512
 30
0.0
 10
-308.6131817304153
 20
-2194.823431224409
 30
0.0
 10
-301.9465780518409
 20
-2201.490034902988
 30
0.0
 10
-295.2799743732639
 20
-2208.156638581563
 30
0.0
 10
-291.946672533976
 20
-2211.48994042085
 30
0.0
 11
-311.946483569703
 21
-2191.49012938512
 31
0.0
 11
-301.9465780518393
 21
-2201.490034902988
 31
0.0
 11
-291.946672533976
 21
-2211.48994042085
 31
0.0
  0
SPLINE
  5
73
330
1F
100
AcDbEntity
  8
tratteggio
  6
Tratteggiato
 62
   251
100
AcDbSpline
210
0.0
220
0.0
230
1.0
 70
    24
 71
     3
 72
     9
 73
     5
 74
     3
 42
0.0000000001
 43
0.0000000001
 44
0.00000001
 40
0.0
 40
0.0
 40
0.0
 40
0.0
 40
0.7431411055861914
 40
1.48628221117182
 40
1.48628221117182
 40
1.48628221117182
 40
1.48628221117182
 10
-862.374690864046
 20
-1537.5410896154
 30
0.0
 10
-862.5498509024249
 20
-1537.36592957702
 30
0.0
 10
-862.9001709791826
 20
-1537.01560950026
 30
0.0
 10
-863.2504910559401
 20
-1536.665289423499
 30
0.0
 10
-863.425651094319
 20
-1536.49012938512
 30
0.0
 11
-862.374690864046
 21
-1537.5410896154
 31
0.0
 11
-862.9001709791827
 21
-1537.01560950026
 31
0.0
 11
-863.425651094319
 21
-1536.49012938512
 31
0.0
  0
SPLINE
  5
74
330
1F
100
AcDbEntity
  8
Predefinito
  6
Continuous
 62
     7
100
AcDbSpline
210
0.0
220
0.0
230
1.0
 70
    24
 71
     3
 72
     9
 73
     5
 74
     3
 42
0.0000000001
 43
0.0000000001
 44
0.00000001
 40
0.0
 40
0.0
 40
0.0
 40
0.0
 40
22.45423303749203
 40
44.90846607498997
 40
44.90846607498997
 40
44.90846607498997
 40
44.90846607498997
 10
-381.658260377582
 20
-2791.93713581406
 30
0.0
 10
-381.658260377582
 20
-2799.421880159891
 30
0.0
 10
-381.658260377582
 20
-2814.391368851554
 30
0.0
 10
-381.6582603775819
 20
-2829.360857543217
 30
0.0
 10
-381.658260377582
 20
-2836.84560188905
 30
0.0
 11
-381.658260377582
 21
-2791.93713581406
 31
0.0
 11
-381.658260377582
 21
-2814.391368851552
 31
0.0
 11
-381.658260377582
 21
-2836.84560188905
 31
0.0
  0
SPLINE
  5
75
330
1F
100
AcDbEntity
  8
Predefinito
  6
Continuous
 62
     7
100
AcDbSpline
210
0.0
220
0.0
230
1.0
 70
    24
 71
     3
 72
     9
 73
     5
 74
     3
 42
0.0000000001
 43
0.0000000001
 44
0.00000001
 40
0.0
 40
0.0
 40
0.0
 40
0.0
 40
0.0023621849099982
 40
0.0047243698199964
 40
0.0047243698199964
 40
0.0047243698199964
 40
0.0047243698199964
 10
-2138.8964040208
 20
-2211.49485375494
 30
0.0
 10
-2138.8964040208
 20
-2211.49406635997
 30
0.0
 10
-2138.8964040208
 20
-2211.492491570029
 30
0.0
 10
-2138.8964040208
 20
-2211.49091678009
 30
0.0
 10
-2138.8964040208
 20
-2211.49012938512
 30
0.0
 11
-2138.8964040208
 21
-2211.49485375494
 31
0.0
 11
-2138.8964040208
 21
-2211.49249157003
 31
0.0
 11
-2138.8964040208
 21
-2211.49012938512
 31
0.0
  0
SPLINE
  5
76
330
1F
100
AcDbEntity
  8
Predefinito
  6
Continuous
 62
     7
100
AcDbSpline
210
0.0
220
0.0
230
1.0
 70
    24
 71
     3
 72
     9
 73
     5
 74
     3
 42
0.0000000001
 43
0.0000000001
 44
0.00000001
 40
0.0
 40
0.0
 40
0.0
 40
0.0
 40
0.002551149179908
 40
0.0051022983598159
 40
0.0051022983598159
 40
0.0051022983598159
 40
0.0051022983598159
 10
-1205.59997890332
 20
-2211.49485375494
 30
0.0
 10
-1205.59997890332
 20
-2211.49400337188
 30
0.0
 10
-1205.59997890332
 20
-2211.49230260576
 30
0.0
 10
-1205.59997890332
 20
-2211.49060183964
 30
0.0
 10
-1205.59997890332
 20
-2211.48975145658
 30
0.0
 11
-1205.59997890332
 21
-2211.49485375494
 31
0.0
 11
-1205.59997890332
 21
-2211.49230260576
 31
0.0
 11
-1205.59997890332
 21
-2211.48975145658
 31
0.0
  0
SPLINE
  5
77
330
1F
100
AcDbEntity
  8
tratteggio
  6
Tratteggiato
 62
   251
100
AcDbSpline
210
0.0
220
0.0
230
1.0
 70
    24
 71
     3
 72
     9
 73
     5
 74
     3
 42
0.0000000001
 43
0.0000000001
 44
0.00000001
 40
0.0
 40
0.0
 40
0.0
 40
0.0
 40
0.0059362601685909
 40
0.0118725203509389
 40
0.0118725203509389
 40
0.0118725203509389
 40
0.0118725203509389
 10
-2185.79354897726
 20
-1409.6574528773
 30
0.0
 10
-2185.793137571249
 20
-1409.659388390171
 30
0.0
 10
-2185.792314759227
 20
-1409.663259415915
 30
0.0
 10
-2185.791491947282
 20
-1409.667130441677
 30
0.0
 10
-2185.79108054131
 20
-1409.66906595456
 30
0.0
 11
-2185.79354897726
 21
-1409.6574528773
 31
0.0
 11
-2185.792314759247
 21
-1409.663259415915
 31
0.0
 11
-2185.79108054131
 21
-1409.66906595456
 31
0.0
  0
SPLINE
  5
78
330
1F
100
AcDbEntity
  8
Predefinito
  6
Continuous
 62
     7
100
AcDbSpline
210
0.0
220
0.0
230
1.0
 70
    24
 71
     3
 72
     9
 73
     5
 74
     3
 42
0.0000000001
 43
0.0000000001
 44
0.00000001
 40
0.0
 40
0.0
 40
0.0
 40
0.0
 40
466.6482125587402
 40
933.2964251174801
 40
933.2964251174801
 40
933.2964251174801
 40
933.2964251174801
 10
-2138.8964040208
 20
-2211.49485375494
 30
0.0
 10
-1983.346999834554
 20
-2211.49485375494
 30
0.0
 10
-1672.24819146206
 20
-2211.49485375494
 30
0.0
 10
-1361.149383089567
 20
-2211.49485375494
 30
0.0
 10
-1205.59997890332
 20
-2211.49485375494
 30
0.0
 11
-2138.8964040208
 21
-2211.49485375494
 31
0.0
 11
-1672.24819146206
 21
-2211.49485375494
 31
0.0
 11
-1205.59997890332
 21
-2211.49485375494
 31
0.0
  0
SPLINE
  5
79
330
1F
100
AcDbEntity
  8
Predefinito
  6
Continuous
 62
     7
100
AcDbSpline
210
0.0
220
0.0
230
1.0
 70
    24
 71
     3
 72
     9
 73
     5
 74
     3
 42
0.0000000001
 43
0.0000000001
 44
0.00000001
 40
0.0
 40
0.0
 40
0.0
 40
0.0
 40
0.0013587377895548
 40
0.0027174755396881
 40
0.0027174755396881
 40
0.0027174755396881
 40
0.0027174755396881
 10
-1158.63147193309
 20
-1409.65479478505
 30
0.0
 10
-1158.631566098912
 20
-1409.65523780042
 30
0.0
 10
-1158.631754430553
 20
-1409.656123831147
 30
0.0
 10
-1158.631942762199
 20
-1409.657009861873
 30
0.0
 10
-1158.63203692802
 20
-1409.65745287723
 30
0.0
 11
-1158.63147193309
 21
-1409.65479478505
 31
0.0
 11
-1158.631754430557
 21
-1409.65612383116
 31
0.0
 11
-1158.63203692802
 21
-1409.65745287723
 31
0.0
  0
SPLINE
  5
7A
330
1F
100
AcDbEntity
  8
Predefinito
  6
Continuous
 62
     7
100
AcDbSpline
210
0.0
220
0.0
230
1.0
 70
    24
 71
     3
 72
     9
 73
     5
 74
     3
 42
0.0000000001
 43
0.0000000001
 44
0.00000001
 40
0.0
 40
0.0
 40
0.0
 40
0.0
 40
248.1958813128799
 40
496.3917626257598
 40
496.3917626257598
 40
496.3917626257598
 40
496.3917626257598
 10
-2168.60455557832
 20
-1536.53107660004
 30
0.0
 10
-2085.872595140693
 20
-1536.53107660004
 30
0.0
 10
-1920.40867426544
 20
-1536.53107660004
 30
0.0
 10
-1754.944753390186
 20
-1536.53107660004
 30
0.0
 10
-1672.21279295256
 20
-1536.53107660004
 30
0.0
 11
-2168.60455557832
 21
-1536.53107660004
 31
0.0
 11
-1920.40867426544
 21
-1536.53107660004
 31
0.0
 11
-1672.21279295256
 21
-1536.53107660004
 31
0.0
  0
SPLINE
  5
7B
330
1F
100
AcDbEntity
  8
Predefinito
  6
Continuous
 62
     7
100
AcDbSpline
210
0.0
220
0.0
230
1.0
 70
    24
 71
     3
 72
     9
 73
     5
 74
     3
 42
0.0000000001
 43
0.0000000001
 44
0.00000001
 40
0.0
 40
0.0
 40
0.0
 40
0.0
 40
466.6482125587402
 40
933.2964251174801
 40
933.2964251174801
 40
933.2964251174801
 40
933.2964251174801
 10
-2138.8964040208
 20
-2191.49485375494
 30
0.0
 10
-1983.346999834554
 20
-2191.49485375494
 30
0.0
 10
-1672.24819146206
 20
-2191.49485375494
 30
0.0
 10
-1361.149383089567
 20
-2191.49485375494
 30
0.0
 10
-1205.59997890332
 20
-2191.49485375494
 30
0.0
 11
-2138.8964040208
 21
-2191.49485375494
 31
0.0
 11
-1672.24819146206
 21
-2191.49485375494
 31
0.0
 11
-1205.59997890332
 21
-2191.49485375494
 31
0.0
  0
SPLINE
  5
7C
330
1F
100
AcDbEntity
  8
Predefinito
  6
Continuous
 62
     7
100
AcDbSpline
210
0.0
220
0.0
230
1.0
 70
    24
 71
     3
 72
     9
 73
     5
 74
     3
 42
0.0000000001
 43
0.0000000001
 44
0.00000001
 40
0.0
 40
0.0
 40
0.0
 40
0.0
 40
32.0
 40
64.0
 40
64.0
 40
64.0
 40
64.0
 10
-309.658260377582
 20
-3036.93713581406
 30
0.0
 10
-320.3249270442486
 20
-3036.93713581406
 30
0.0
 10
-341.658260377582
 20
-3036.93713581406
 30
0.0
 10
-362.9915937109154
 20
-3036.937135814061
 30
0.0
 10
-373.658260377582
 20
-3036.93713581406
 30
0.0
 11
-309.658260377582
 21
-3036.93713581406
 31
0.0
 11
-341.658260377582
 21
-3036.93713581406
 31
0.0
 11
-373.658260377582
 21
-3036.93713581406
 31
0.0
  0
SPLINE
  5
7D
330
1F
100
AcDbEntity
  8
Predefinito
  6
Continuous
 62
     7
100
AcDbSpline
210
0.0
220
0.0
230
1.0
 70
    24
 71
     3
 72
     9
 73
     5
 74
     3
 42
0.0000000001
 43
0.0000000001
 44
0.00000001
 40
0.0
 40
0.0
 40
0.0
 40
0.0
 40
0.5313914041776202
 40
1.062782808350238
 40
1.062782808350238
 40
1.062782808350238
 40
1.062782808350238
 10
-524.673961359813
 20
-3422.3292997715
 30
0.0
 10
-524.6739613918623
 20
-3422.506430239559
 30
0.0
 10
-524.6739614559611
 20
-3422.860691175676
 30
0.0
 10
-524.6739615200604
 20
-3423.214952111793
 30
0.0
 10
-524.67396155211
 20
-3423.39208257985
 30
0.0
 11
-524.673961359813
 21
-3422.3292997715
 31
0.0
 11
-524.6739614559613
 21
-3422.860691175677
 31
0.0
 11
-524.67396155211
 21
-3423.39208257985
 31
0.0
  0
SPLINE
  5
7E
330
1F
100
AcDbEntity
  8
Predefinito
  6
Continuous
 62
     7
100
AcDbSpline
210
0.0
220
0.0
230
1.0
 70
    24
 71
     3
 72
     9
 73
     5
 74
     3
 42
0.0000000001
 43
0.0000000001
 44
0.00000001
 40
0.0
 40
0.0
 40
0.0
 40
0.0
 40
256.789150344153
 40
513.578300688311
 40
513.578300688311
 40
513.578300688311
 40
513.578300688311
 10
-264.869552886655
 20
-2398.3598077827
 30
0.0
 10
-264.8695586801376
 20
-2483.956191230751
 30
0.0
 10
-264.8695702671029
 20
-2655.148958126854
 30
0.0
 10
-264.8695818540677
 20
-2826.341725022958
 30
0.0
 10
-264.86958764755
 20
-2911.93810847101
 30
0.0
 11
-264.869552886655
 21
-2398.3598077827
 31
0.0
 11
-264.8695702671027
 21
-2655.148958126852
 31
0.0
 11
-264.86958764755
 21
-2911.93810847101
 31
0.0
  0
SPLINE
  5
7F
330
1F
100
AcDbEntity
  8
Predefinito
  6
Continuous
 62
     7
100
AcDbSpline
210
0.0
220
0.0
230
1.0
 70
     8
 71
     3
 72
     9
 73
     5
 74
     3
 42
0.0000000001
 43
0.0000000001
 44
0.00000001
 40
0.0
 40
0.0
 40
0.0
 40
0.0
 40
4.091950719064281
 40
8.183901438131956
 40
8.183901438131956
 40
8.183901438131956
 40
8.183901438131956
 10
-360.393836674736
 20
-2845.38941451773
 30
0.0
 10
-361.0344364768021
 20
-2844.140998329834
 30
0.0
 10
-362.315636080935
 20
-2841.644165954043
 30
0.0
 10
-364.8352185679
 20
-2840.408306564868
 30
0.0
 10
-366.095009811383
 20
-2839.79037687028
 30
0.0
 11
-360.393836674736
 21
-2845.38941451773
 31
0.0
 11
-362.6252318016423
 21
-2841.959409200698
 31
0.0
 11
-366.095009811383
 21
-2839.79037687028
 31
0.0
  0
SPLINE
  5
80
330
1F
100
AcDbEntity
  8
tratteggio
  6
Tratteggiato
 62
   251
100
AcDbSpline
210
0.0
220
0.0
230
1.0
 70
    24
 71
     3
 72
     9
 73
     5
 74
     3
 42
0.0000000001
 43
0.0000000001
 44
0.00000001
 40
0.0
 40
0.0
 40
0.0
 40
0.0
 40
0.014676077702007
 40
0.029352155409399
 40
0.029352155409399
 40
0.029352155409399
 40
0.029352155409399
 10
-1153.75234550498
 20
-1410.74898140716
 30
0.0
 10
-1153.751328395603
 20
-1410.744196283763
 30
0.0
 10
-1153.74929417685
 20
-1410.734626036966
 30
0.0
 10
-1153.747259958096
 20
-1410.725055790169
 30
0.0
 10
-1153.74624284872
 20
-1410.72027066677
 30
0.0
 11
-1153.75234550498
 21
-1410.74898140716
 31
0.0
 11
-1153.74929417685
 21
-1410.734626036968
 31
0.0
 11
-1153.74624284872
 21
-1410.72027066677
 31
0.0
  0
SPLINE
  5
81
330
1F
100
AcDbEntity
  8
Predefinito
  6
Continuous
 62
     7
100
AcDbSpline
210
0.0
220
0.0
230
1.0
 70
    24
 71
     3
 72
     9
 73
     5
 74
     3
 42
0.0000000001
 43
0.0000000001
 44
0.00000001
 40
0.0
 40
0.0
 40
0.0
 40
0.0
 40
0.3188582422722045
 40
0.637716484549866
 40
0.637716484549866
 40
0.637716484549866
 40
0.637716484549866
 10
-524.67396155211
 20
-3423.39208257985
 30
0.0
 10
-524.673961571341
 20
-3423.498368660608
 30
0.0
 10
-524.6739616098029
 20
-3423.710940822124
 30
0.0
 10
-524.673961648265
 20
-3423.923512983641
 30
0.0
 10
-524.673961667496
 20
-3424.0297990644
 30
0.0
 11
-524.67396155211
 21
-3423.39208257985
 31
0.0
 11
-524.673961609803
 21
-3423.710940822122
 31
0.0
 11
-524.673961667496
 21
-3424.0297990644
 31
0.0
  0
SPLINE
  5
82
330
1F
100
AcDbEntity
  8
Predefinito
  6
Continuous
 62
     7
100
AcDbSpline
210
0.0
220
0.0
230
1.0
 70
     8
 71
     3
 72
   101
 73
    97
 74
    95
 42
0.0000000001
 43
0.0000000001
 44
0.00000001
 40
0.0
 40
0.0
 40
0.0
 40
0.0
 40
37.01119258813104
 40
74.02238371699598
 40
88.7012109962291
 40
103.3800366501871
 40
112.7313289152957
 40
122.0826228192177
 40
127.6248197955395
 40
133.167016173759
 40
150.7700152480297
 40
168.373017454354
 40
183.9954581377736
 40
199.6178850705579
 40
207.4695727727853
 40
215.3212595811347
 40
222.074787574622
 40
228.8283123548906
 40
232.1592149645333
 40
235.4901179327744
 40
238.3676697678482
 40
241.2452199530965
 40
246.7414453311989
 40
252.2376728716984
 40
261.0056935871419
 40
269.7736563071693
 40
273.7051766847982
 40
277.6366904647318
 40
281.0928245652455
 40
284.548950807292
 40
286.2278700556253
 40
287.9067911550817
 40
289.4509658131595
 40
290.9951367277645
 40
293.9174619847954
 40
296.8397936277719
 40
301.1644574722764
 40
305.4889900898334
 40
307.4414348737229
 40
309.3938622849232
 40
311.1484591603696
 40
312.9030368382932
 40
314.4725242876964
 40
316.0420416099469
 40
317.0883647211641
 40
318.1346846184751
 40
318.904458692126
 40
319.6742380318069
 40
322.2673504651884
 40
324.8604517785142
 40
326.3395232585571
 40
327.8185954714501
 40
329.044419570958
 40
330.2702321162245
 40
331.4497388250096
 40
332.629258905341
 40
334.4898135408948
 40
336.3503027148731
 40
337.3646451360316
 40
338.3789969198743
 40
340.4352062261469
 40
342.4913570665276
 40
343.5240032842179
 40
344.5566548767935
 40
346.3190008069294
 40
348.0814014318288
 40
349.2991345935932
 40
350.5168702408776
 40
351.421423714224
 40
352.32597779235
 40
353.245199748737
 40
354.1644221596097
 40
354.9145069229511
 40
355.6645924548196
 40
357.1332884676048
 40
358.6019828770844
 40
360.6890717562488
 40
362.7761613151533
 40
364.8239159974872
 40
366.8716704830429
 40
368.4632440581604
 40
370.054817796721
 40
373.6912728751558
 40
377.3277283021118
 40
380.7072889137766
 40
384.0868494689229
 40
387.5292889094194
 40
390.9717283494253
 40
397.7192487064335
 40
404.466769120595
 40
411.2646004216132
 40
418.0624317153942
 40
426.0709592934322
 40
434.0794868750532
 40
516.8210255622015
 40
599.5625642457983
 40
599.5625642457983
 40
599.5625642457983
 40
599.5625642457983
 10
-863.426194223004
 20
-3421.40757477914
 30
0.0
 10
-851.0891299919111
 20
-3421.408435850375
 30
0.0
 10
-826.4150020161471
 20
-3421.410157992811
 30
0.0
 10
-796.8479344216371
 20
-3421.428515263392
 30
0.0
 10
-774.7250021687227
 20
-3421.455352024705
 30
0.0
 10
-761.8220383518621
 20
-3421.47729505769
 30
0.0
 10
-750.6949280259912
 20
-3421.50194270963
 30
0.0
 10
-742.6133632169167
 20
-3421.523968225247
 30
0.0
 10
-735.8015025021961
 20
-3421.545894405843
 30
0.0
 10
-726.2391057605885
 20
-3421.58190033681
 30
0.0
 10
-712.656549066756
 20
-3421.65362952592
 30
0.0
 10
-695.7142039627653
 20
-3421.781435000187
 30
0.0
 10
-679.4323242713248
 20
-3421.938367172965
 30
0.0
 10
-666.401111362577
 20
-3422.099496143895
 30
0.0
 10
-655.9603436400946
 20
-3422.255914907531
 30
0.0
 10
-648.475786667004
 20
-3422.383265129735
 30
0.0
 10
-641.3575093426301
 20
-3422.519720361027
 30
0.0
 10
-635.7461596282369
 20
-3422.640956790043
 30
0.0
 10
-631.2756425817179
 20
-3422.747154918802
 30
0.0
 10
-628.0968753169586
 20
-3422.827690584892
 30
0.0
 10
-625.0693055394903
 20
-3422.909306528304
 30
0.0
 10
-621.3203949949672
 20
-3423.016534855923
 30
0.0
 10
-616.6992975935135
 20
-3423.160721089213
 30
0.0
 10
-610.1165407110739
 20
-3423.39265017496
 30
0.0
 10
-602.4455797829987
 20
-3423.709216392224
 30
0.0
 10
-595.2987506411625
 20
-3424.070926029695
 30
0.0
 10
-589.7646120864395
 20
-3424.396192135634
 30
0.0
 10
-585.9994023733963
 20
-3424.639813582374
 30
0.0
 10
-582.393889560135
 20
-3424.896154002952
 30
0.0
 10
-579.5387621492275
 20
-3425.118250564028
 30
0.0
 10
-577.2752728334103
 20
-3425.306773128316
 30
0.0
 10
-575.6474365279339
 20
-3425.448674317662
 30
0.0
 10
-574.0649073093498
 20
-3425.592960622719
 30
0.0
 10
-572.0703761236631
 20
-3425.782968169949
 30
0.0
 10
-569.6200009205194
 20
-3426.031801499481
 30
0.0
 10
-566.250840514284
 20
-3426.405475709051
 30
0.0
 10
-562.4227690890357
 20
-3426.879934114431
 30
0.0
 10
-558.9245483460138
 20
-3427.38286796383
 30
0.0
 10
-556.2163685226939
 20
-3427.819718786008
 30
0.0
 10
-554.3578385799227
 20
-3428.143671543153
 30
0.0
 10
-552.568805894989
 20
-3428.4811675976
 30
0.0
 10
-550.9097755305585
 20
-3428.818366714889
 30
0.0
 10
-549.315999542538
 20
-3429.165932894694
 30
0.0
 10
-547.956019254543
 20
-3429.477107238309
 30
0.0
 10
-546.7676655795334
 20
-3429.756356448504
 30
0.0
 10
-545.8397150738524
 20
-3429.978378767884
 30
0.0
 10
-545.0020124466305
 20
-3430.181421754902
 30
0.0
 10
-543.6638203633189
 20
-3430.508380909634
 30
0.0
 10
-541.7364387644051
 20
-3430.984559799052
 30
0.0
 10
-539.5796809807391
 20
-3431.518061358079
 30
0.0
 10
-537.7822232253318
 20
-3431.957594584785
 30
0.0
 10
-536.4263530674028
 20
-3432.284233234665
 30
0.0
 10
-535.1511909132405
 20
-3432.585385760885
 30
0.0
 10
-533.9717113738467
 20
-3432.857175086414
 30
0.0
 10
-532.8055021941767
 20
-3433.117705022594
 30
0.0
 10
-531.4308037475575
 20
-3433.415269794247
 30
0.0
 10
-529.8313009684456
 20
-3433.747105504962
 30
0.0
 10
-528.281050070136
 20
-3434.044658453779
 30
0.0
 10
-527.0043638795428
 20
-3434.270000137065
 30
0.0
 10
-525.6607916937388
 20
-3434.491211994677
 30
0.0
 10
-523.9694273414806
 20
-3434.736868293428
 30
0.0
 10
-522.2658451837132
 20
-3434.936651417344
 30
0.0
 10
-520.8981140362072
 20
-3435.066267831167
 30
0.0
 10
-519.6263097487438
 20
-3435.168676249329
 30
0.0
 10
-518.1099962152584
 20
-3435.263133910207
 30
0.0
 10
-516.5306123471294
 20
-3435.332211661154
 30
0.0
 10
-515.1320124893584
 20
-3435.376631885419
 30
0.0
 10
-514.0189817809423
 20
-3435.40328855871
 30
0.0
 10
-513.0102112804549
 20
-3435.422317127597
 30
0.0
 10
-512.1008676725116
 20
-3435.435925832684
 30
0.0
 10
-511.1865937516073
 20
-3435.446419241662
 30
0.0
 10
-510.3237865399344
 20
-3435.454322030422
 30
0.0
 10
-509.5173489912387
 20
-3435.460888525223
 30
0.0
 10
-508.5277548283383
 20
-3435.468329793004
 30
0.0
 10
-507.2986264435735
 20
-3435.476967963169
 30
0.0
 10
-505.6238338993076
 20
-3435.487639517286
 30
0.0
 10
-503.7429051641156
 20
-3435.498119127334
 30
0.0
 10
-501.6689483501982
 20
-3435.507521041129
 30
0.0
 10
-499.6080936461674
 20
-3435.51454280152
 30
0.0
 10
-497.7124040150864
 20
-3435.518906606726
 30
0.0
 10
-495.968771454344
 20
-3435.521223625939
 30
0.0
 10
-493.6955709890416
 20
-3435.522691305694
 30
0.0
 10
-490.7407425817693
 20
-3435.522098463675
 30
0.0
 10
-487.1899196292401
 20
-3435.519866032467
 30
0.0
 10
-483.7247275356402
 20
-3435.518760963859
 30
0.0
 10
-480.3242073215624
 20
-3435.518509082657
 30
0.0
 10
-476.9027275244999
 20
-3435.518915953254
 30
0.0
 10
-472.3585945007523
 20
-3435.519638717069
 30
0.0
 10
-466.7127677321018
 20
-3435.519580009228
 30
0.0
 10
-459.9484770748845
 20
-3435.518957679363
 30
0.0
 10
-453.1674160699517
 20
-3435.518750397587
 30
0.0
 10
-445.9660193465844
 20
-3435.518726756206
 30
0.0
 10
-438.3610571955525
 20
-3435.518643010726
 30
0.0
 10
-405.4415259173035
 20
-3435.518146233212
 30
0.0
 10
-347.6109909387002
 20
-3435.517319657301
 30
0.0
 10
-292.4499651517834
 20
-3435.5167154818
 30
0.0
 10
-264.869452258917
 20
-3435.51641339405
 30
0.0
 11
-863.426194223004
 21
-3421.40757477914
 31
0.0
 11
-826.4150021183839
 21
-3421.413557306229
 31
0.0
 11
-789.4038193057871
 21
-3421.438368390709
 31
0.0
 11
-774.7250032802294
 21
-3421.45654478719
 31
0.0
 11
-760.0461994432532
 21
-3421.481852787228
 31
0.0
 11
-750.6949305008068
 21
-3421.502738033638
 31
0.0
 11
-741.3436717924149
 21
-3421.528394343849
 31
0.0
 11
-735.8015040623551
 21
-3421.546399238596
 31
0.0
 11
-730.259347598351
 21
-3421.567433098122
 31
0.0
 11
-712.6565933180544
 21
-3421.660267123551
 31
0.0
 11
-695.0540909932205
 21
-3421.792926763502
 31
0.0
 11
-679.4323950206448
 21
-3421.945464782948
 31
0.0
 11
-663.811186670884
 21
-3422.14058772765
 31
0.0
 11
-655.9603855157821
 21
-3422.258574999673
 31
0.0
 11
-648.1098413475415
 21
-3422.39252274662
 31
0.0
 11
-641.3575634693458
 21
-3422.52246047957
 31
0.0
 11
-634.6056251993638
 21
-3422.668838606541
 31
0.0
 11
-631.2756641345122
 21
-3422.748031418697
 31
0.0
 11
-627.945831935607
 21
-3422.832483245032
 31
0.0
 11
-625.0693269293558
 21
-3422.910094536406
 31
0.0
 11
-622.1929550265171
 21
-3422.992433744454
 31
0.0
 11
-616.6994207905195
 21
-3423.164407593687
 31
0.0
 11
-611.2066214010074
 21
-3423.358500467126
 31
0.0
 11
-602.4461732041366
 21
-3423.722828144348
 31
0.0
 11
-593.6895604062126
 21
-3424.168813084704
 31
0.0
 11
-589.7648464569529
 21
-3424.400055157427
 31
0.0
 11
-585.8415733375355
 21
-3424.654473380565
 31
0.0
 11
-582.394169849493
 21
-3424.899977171505
 31
0.0
 11
-578.9484843520643
 21
-3425.168417209078
 31
0.0
 11
-577.2753648376954
 21
-3425.307847955551
 31
0.0
 11
-575.6027934440749
 21
-3425.453728013963
 31
0.0
 11
-574.065003072265
 21
-3425.593999703973
 31
0.0
 11
-572.5277978041637
 21
-3425.740504916283
 31
0.0
 11
-569.6204795680025
 21
-3426.03628453283
 31
0.0
 11
-566.7160173595923
 21
-3426.358963183286
 31
0.0
 11
-562.4245602436067
 21
-3426.893858677397
 31
0.0
 11
-558.144464901702
 21
-3427.512216360716
 31
0.0
 11
-556.2170390973625
 21
-3427.823777595313
 31
0.0
 11
-554.2937232738999
 21
-3428.159677936522
 31
0.0
 11
-552.5695880709889
 21
-3428.485205197146
 31
0.0
 11
-550.850220180104
 21
-3428.834943504544
 31
0.0
 11
-549.3165954666932
 21
-3429.16853920633
 31
0.0
 11
-547.7864313303265
 21
-3429.51779891002
 31
0.0
 11
-546.7678272516168
 21
-3429.757043103059
 31
0.0
 11
-545.7502023909451
 21
-3430.000404912824
 31
0.0
 11
-545.0020699716217
 21
-3430.181650623455
 31
0.0
 11
-544.2542670796137
 21
-3430.364273367121
 31
0.0
 11
-541.736465005909
 21
-3430.984680338235
 31
0.0
 11
-539.2188508416831
 21
-3431.605802984144
 31
0.0
 11
-537.782024074453
 21
-3431.956774897617
 31
0.0
 11
-536.344004028167
 21
-3432.30282830019
 31
0.0
 11
-535.150934058685
 21
-3432.584304357528
 31
0.0
 11
-533.9563616736505
 21
-3432.859282925866
 31
0.0
 11
-532.8052274509693
 21
-3433.116432838255
 31
0.0
 11
-531.6524029614924
 21
-3433.365959021986
 31
0.0
 11
-529.8303639780569
 21
-3433.742572211773
 31
0.0
 11
-528.0029704131952
 21
-3434.091932664018
 31
0.0
 11
-527.004039457634
 21
-3434.268078891293
 31
0.0
 11
-526.0031354711055
 21
-3434.432701949022
 31
0.0
 11
-523.9681726626454
 21
-3434.727529151612
 31
0.0
 11
-521.9259315471371
 21
-3434.966291595319
 31
0.0
 11
-520.8979034547333
 21
-3435.06384389995
 31
0.0
 11
-519.8685936034886
 21
-3435.14685318726
 31
0.0
 11
-518.1097373889605
 21
-3435.257704412252
 31
0.0
 11
-516.349076458705
 21
-3435.335992670105
 31
0.0
 11
-515.1319697661307
 21
-3435.375048427067
 31
0.0
 11
-513.9145928463375
 21
-3435.404604167997
 31
0.0
 11
-513.0102015039455
 21
-3435.421729761397
 31
0.0
 11
-512.1057496910221
 21
-3435.435331171396
 31
0.0
 11
-511.1865903970938
 21
-3435.446064180721
 31
0.0
 11
-510.2674082418881
 21
-3435.454666866463
 31
0.0
 11
-509.5173486400644
 21
-3435.460810636403
 31
0.0
 11
-508.7672845874804
 21
-3435.466487091258
 31
0.0
 11
-507.2986248347543
 21
-3435.476807396173
 31
0.0
 11
-505.8299602313218
 21
-3435.486164268579
 31
0.0
 11
-503.7429035539122
 21
-3435.497758008781
 31
0.0
 11
-501.6558352852973
 21
-3435.507185045882
 31
0.0
 11
-499.6080925009209
 21
-3435.514165594199
 31
0.0
 11
-497.5603434488731
 21
-3435.518882897533
 31
0.0
 11
-495.9687713387984
 21
-3435.521042398587
 31
0.0
 11
-494.3771979613516
 21
-3435.52211453584
 31
0.0
 11
-490.7407428933541
 21
-3435.521839019033
 31
0.0
 11
-487.1042879279605
 21
-3435.52000683412
 31
0.0
 11
-483.724727497915
 21
-3435.518898869109
 31
0.0
 11
-480.3451669544121
 21
-3435.518618335646
 31
0.0
 11
-476.9027275288488
 21
-3435.518938981868
 31
0.0
 11
-473.4602881194192
 21
-3435.519397799766
 31
0.0
 11
-466.7127677630171
 21
-3435.519488238694
 31
0.0
 11
-459.965247364548
 21
-3435.519028054064
 31
0.0
 11
-453.1674160680078
 21
-3435.518781310568
 31
0.0
 11
-446.369584774503
 21
-3435.518720040287
 31
0.0
 11
-438.3610571968896
 21
-3435.518637566649
 31
0.0
 11
-430.3525296160975
 21
-3435.51852234464
 31
0.0
 11
-347.6109909370334
 21
-3435.517365718533
 31
0.0
 11
-264.869452258917
 21
-3435.51641339405
 31
0.0
  0
SPLINE
  5
83
330
1F
100
AcDbEntity
  8
Predefinito
  6
Continuous
 62
     7
100
AcDbSpline
210
0.0
220
0.0
230
1.0
 70
    24
 71
     3
 72
     9
 73
     5
 74
     3
 42
0.0000000001
 43
0.0000000001
 44
0.00000001
 40
0.0
 40
0.0
 40
0.0
 40
0.0
 40
337.2400575992826
 40
675.00895756143
 40
675.00895756143
 40
675.00895756143
 40
675.00895756143
 10
-2158.8964040208
 20
-2211.49012938512
 30
0.0
 10
-2158.8964040208
 20
-2099.076776852025
 30
0.0
 10
-2158.8964040208
 20
-1874.073790998216
 30
0.0
 10
-2158.8964040208
 20
-1649.070805144406
 30
0.0
 10
-2158.8964040208
 20
-1536.48117182369
 30
0.0
 11
-2158.8964040208
 21
-2211.49012938512
 31
0.0
 11
-2158.8964040208
 21
-1874.250071785837
 31
0.0
 11
-2158.8964040208
 21
-1536.48117182369
 31
0.0
  0
SPLINE
  5
84
330
1F
100
AcDbEntity
  8
Predefinito
  6
Continuous
 62
     7
100
AcDbSpline
210
0.0
220
0.0
230
1.0
 70
    24
 71
     3
 72
     9
 73
     5
 74
     3
 42
0.0000000001
 43
0.0000000001
 44
0.00000001
 40
0.0
 40
0.0
 40
0.0
 40
0.0
 40
337.2400575992826
 40
675.00895756143
 40
675.00895756143
 40
675.00895756143
 40
675.00895756143
 10
-2138.8964040208
 20
-2211.49012938512
 30
0.0
 10
-2138.8964040208
 20
-2099.076776852025
 30
0.0
 10
-2138.896404020801
 20
-1874.073790998216
 30
0.0
 10
-2138.896404020801
 20
-1649.070805144406
 30
0.0
 10
-2138.8964040208
 20
-1536.48117182369
 30
0.0
 11
-2138.8964040208
 21
-2211.49012938512
 31
0.0
 11
-2138.8964040208
 21
-1874.250071785837
 31
0.0
 11
-2138.8964040208
 21
-1536.48117182369
 31
0.0
  0
SPLINE
  5
85
330
1F
100
AcDbEntity
  8
tratteggio
  6
Tratteggiato
 62
   251
100
AcDbSpline
210
0.0
220
0.0
230
1.0
 70
    24
 71
     3
 72
     9
 73
     5
 74
     3
 42
0.0000000001
 43
0.0000000001
 44
0.00000001
 40
0.0
 40
0.0
 40
0.0
 40
0.0
 40
0.0114794875025837
 40
0.0229589750099422
 40
0.0229589750099422
 40
0.0229589750099422
 40
0.0229589750099422
 10
-2130.64876063975
 20
-1535.43206673085
 30
0.0
 10
-2130.64876063975
 20
-1535.435893226684
 30
0.0
 10
-2130.64876063975
 20
-1535.443546218354
 30
0.0
 10
-2130.64876063975
 20
-1535.451199210024
 30
0.0
 10
-2130.64876063975
 20
-1535.45502570586
 30
0.0
 11
-2130.64876063975
 21
-1535.43206673085
 31
0.0
 11
-2130.64876063975
 21
-1535.443546218353
 31
0.0
 11
-2130.64876063975
 21
-1535.45502570586
 31
0.0
  0
SPLINE
  5
86
330
1F
100
AcDbEntity
  8
Predefinito
  6
Continuous
 62
     7
100
AcDbSpline
210
0.0
220
0.0
230
1.0
 70
    24
 71
     3
 72
     9
 73
     5
 74
     3
 42
0.0000000001
 43
0.0000000001
 44
0.00000001
 40
0.0
 40
0.0
 40
0.0
 40
0.0
 40
512.7296669635309
 40
1024.609107680386
 40
1024.609107680386
 40
1024.609107680386
 40
1024.609107680386
 10
-266.451953038276
 20
-3424.02975226485
 30
0.0
 10
-266.4519221144079
 20
-3253.119863277009
 30
0.0
 10
-266.4518603179508
 20
-2911.583494050219
 30
0.0
 10
-266.4517985214947
 20
-2570.04712482343
 30
0.0
 10
-266.451767648906
 20
-2399.42064458448
 30
0.0
 11
-266.451953038276
 21
-3424.02975226485
 31
0.0
 11
-266.451860266672
 21
-2911.300085301327
 31
0.0
 11
-266.451767648906
 21
-2399.42064458448
 31
0.0
  0
SPLINE
  5
87
330
1F
100
AcDbEntity
  8
tratteggio
  6
Tratteggiato
 62
   251
100
AcDbSpline
210
0.0
220
0.0
230
1.0
 70
    24
 71
     3
 72
     9
 73
     5
 74
     3
 42
0.0000000001
 43
0.0000000001
 44
0.00000001
 40
0.0
 40
0.0
 40
0.0
 40
0.0
 40
0.0114794875025837
 40
0.0229589750099422
 40
0.0229589750099422
 40
0.0229589750099422
 40
0.0229589750099422
 10
-2135.64876063975
 20
-1535.43206673085
 30
0.0
 10
-2135.64876063975
 20
-1535.435893226684
 30
0.0
 10
-2135.64876063975
 20
-1535.443546218354
 30
0.0
 10
-2135.64876063975
 20
-1535.451199210024
 30
0.0
 10
-2135.64876063975
 20
-1535.45502570586
 30
0.0
 11
-2135.64876063975
 21
-1535.43206673085
 31
0.0
 11
-2135.64876063975
 21
-1535.443546218353
 31
0.0
 11
-2135.64876063975
 21
-1535.45502570586
 31
0.0
  0
SPLINE
  5
88
330
1F
100
AcDbEntity
  8
Predefinito
  6
Continuous
 62
     7
100
AcDbSpline
210
0.0
220
0.0
230
1.0
 70
    24
 71
     3
 72
     9
 73
     5
 74
     3
 42
0.0000000001
 43
0.0000000001
 44
0.00000001
 40
0.0
 40
0.0
 40
0.0
 40
0.0
 40
337.2560656264002
 40
675.07336759844
 40
675.07336759844
 40
675.07336759844
 40
675.07336759844
 10
-1185.59997890332
 20
-2211.48975145658
 30
0.0
 10
-1185.59997890332
 20
-2099.071062914447
 30
0.0
 10
-1185.59997890332
 20
-1874.0466070483
 30
0.0
 10
-1185.59997890332
 20
-1649.022151182153
 30
0.0
 10
-1185.59997890332
 20
-1536.41638385814
 30
0.0
 11
-1185.59997890332
 21
-2211.48975145658
 31
0.0
 11
-1185.59997890332
 21
-1874.23368583018
 31
0.0
 11
-1185.59997890332
 21
-1536.41638385814
 31
0.0
  0
SPLINE
  5
89
330
1F
100
AcDbEntity
  8
Predefinito
  6
Continuous
 62
     7
100
AcDbSpline
210
0.0
220
0.0
230
1.0
 70
    24
 71
     3
 72
     9
 73
     5
 74
     3
 42
0.0000000001
 43
0.0000000001
 44
0.00000001
 40
0.0
 40
0.0
 40
0.0
 40
0.0
 40
466.6151969241498
 40
933.2303938482999
 40
933.2303938482999
 40
933.2303938482999
 40
933.2303938482999
 10
-2138.83037275162
 20
-1556.49013018094
 30
0.0
 10
-1983.291973776903
 20
-1556.49013018094
 30
0.0
 10
-1672.21517582747
 20
-1556.49013018094
 30
0.0
 10
-1361.138377878037
 20
-1556.49013018094
 30
0.0
 10
-1205.59997890332
 20
-1556.49013018094
 30
0.0
 11
-2138.83037275162
 21
-1556.49013018094
 31
0.0
 11
-1672.21517582747
 21
-1556.49013018094
 31
0.0
 11
-1205.59997890332
 21
-1556.49013018094
 31
0.0
  0
SPLINE
  5
8A
330
1F
100
AcDbEntity
  8
tratteggio
  6
Tratteggiato
 62
   251
100
AcDbSpline
210
0.0
220
0.0
230
1.0
 70
    24
 71
     3
 72
    11
 73
     7
 74
     5
 42
0.0000000001
 43
0.0000000001
 44
0.00000001
 40
0.0
 40
0.0
 40
0.0
 40
0.0
 40
0.0004448743315814
 40
0.0037303415153301
 40
0.0094303040469743
 40
0.0138776907870669
 40
0.0138776907870669
 40
0.0138776907870669
 40
0.0138776907870669
 10
-1153.7380335844
 20
-1410.68164911468
 30
0.0
 10
-1153.737998719477
 20
-1410.681485088106
 30
0.0
 10
-1153.737706371596
 20
-1410.680109699386
 30
0.0
 10
-1153.73911807677
 20
-1410.68675125017
 30
0.0
 10
-1153.739647892099
 20
-1410.689243835287
 30
0.0
 10
-1153.740402986279
 20
-1410.692796273989
 30
0.0
 10
-1153.74073392944
 20
-1410.6943532391
 30
0.0
 11
-1153.7380335844
 21
-1410.68164911468
 31
0.0
 11
-1153.737941089831
 21
-1410.681213961919
 31
0.0
 11
-1153.738624176866
 21
-1410.684427633762
 31
0.0
 11
-1153.739809265717
 21
-1410.690003038436
 31
0.0
 11
-1153.74073392944
 21
-1410.6943532391
 31
0.0
  0
SPLINE
  5
8B
330
1F
100
AcDbEntity
  8
Predefinito
  6
Continuous
 62
     7
100
AcDbSpline
210
0.0
220
0.0
230
1.0
 70
    24
 71
     3
 72
     9
 73
     5
 74
     3
 42
0.0000000001
 43
0.0000000001
 44
0.00000001
 40
0.0
 40
0.0
 40
0.0
 40
0.0
 40
0.0013587377515677
 40
0.0027174755080755
 40
0.0027174755080755
 40
0.0027174755080755
 40
0.0027174755080755
 10
-1153.74073392944
 20
-1410.6943532391
 30
0.0
 10
-1153.74082809526
 20
-1410.694796254458
 30
0.0
 10
-1153.7410164269
 20
-1410.695682285174
 30
0.0
 10
-1153.74120475854
 20
-1410.696568315891
 30
0.0
 10
-1153.74129892436
 20
-1410.69701133125
 30
0.0
 11
-1153.74073392944
 21
-1410.6943532391
 31
0.0
 11
-1153.7410164269
 21
-1410.695682285173
 31
0.0
 11
-1153.74129892436
 21
-1410.69701133125
 31
0.0
  0
SPLINE
  5
8C
330
1F
100
AcDbEntity
  8
Predefinito
  6
Continuous
 62
     7
100
AcDbSpline
210
0.0
220
0.0
230
1.0
 70
    24
 71
     3
 72
     9
 73
     5
 74
     3
 42
0.0000000001
 43
0.0000000001
 44
0.00000001
 40
0.0
 40
0.0
 40
0.0
 40
0.0
 40
243.7989185649124
 40
487.5978371298299
 40
487.5978371298299
 40
487.5978371298299
 40
487.5978371298299
 10
-1184.61495582273
 20
-1536.48609496887
 30
0.0
 10
-1265.881262011034
 20
-1536.48609496887
 30
0.0
 10
-1428.413874387644
 20
-1536.48609496887
 30
0.0
 10
-1590.946486764254
 20
-1536.48609496887
 30
0.0
 10
-1672.21279295256
 20
-1536.48609496887
 30
0.0
 11
-1184.61495582273
 21
-1536.48609496887
 31
0.0
 11
-1428.413874387642
 21
-1536.48609496887
 31
0.0
 11
-1672.21279295256
 21
-1536.48609496887
 31
0.0
  0
SPLINE
  5
8D
330
1F
100
AcDbEntity
  8
tratteggio
  6
Tratteggiato
 62
   251
100
AcDbSpline
210
0.0
220
0.0
230
1.0
 70
    24
 71
     3
 72
    11
 73
     7
 74
     5
 42
0.0000000001
 43
0.0000000001
 44
0.00000001
 40
0.0
 40
0.0
 40
0.0
 40
0.0
 40
0.0004448743327439
 40
0.0037303415166956
 40
0.0094303040494617
 40
0.0138776907652827
 40
0.0138776907652827
 40
0.0138776907652827
 40
0.0138776907652827
 10
-2185.79681431705
 20
-1409.64209066059
 30
0.0
 10
-2185.796849181976
 20
-1409.641926634016
 30
0.0
 10
-2185.797141529879
 20
-1409.6405512453
 30
0.0
 10
-2185.795729824676
 20
-1409.647192796078
 30
0.0
 10
-2185.795200009329
 20
-1409.649685381186
 30
0.0
 10
-2185.79444491531
 20
-1409.653237819914
 30
0.0
 10
-2185.79411397222
 20
-1409.65479478503
 30
0.0
 11
-2185.79681431705
 21
-1409.64209066059
 31
0.0
 11
-2185.796906811627
 21
-1409.641655507829
 31
0.0
 11
-2185.79622372459
 21
-1409.644869179672
 31
0.0
 11
-2185.795038635763
 21
-1409.650444584353
 31
0.0
 11
-2185.79411397222
 21
-1409.65479478503
 31
0.0
  0
SPLINE
  5
8E
330
1F
100
AcDbEntity
  8
tratteggio
  6
Tratteggiato
 62
   251
100
AcDbSpline
210
0.0
220
0.0
230
1.0
 70
    24
 71
     3
 72
     9
 73
     5
 74
     3
 42
0.0000000001
 43
0.0000000001
 44
0.00000001
 40
0.0
 40
0.0
 40
0.0
 40
0.0
 40
0.005936260196046
 40
0.011872520386159
 40
0.011872520386159
 40
0.011872520386159
 40
0.011872520386159
 10
-1158.63203692802
 20
-1409.65745287723
 30
0.0
 10
-1158.632448333986
 20
-1409.659388390119
 30
0.0
 10
-1158.633271145918
 20
-1409.663259415895
 30
0.0
 10
-1158.634093957846
 20
-1409.667130441672
 30
0.0
 10
-1158.63450536381
 20
-1409.66906595456
 30
0.0
 11
-1158.63203692802
 21
-1409.65745287723
 31
0.0
 11
-1158.633271145917
 21
-1409.663259415898
 31
0.0
 11
-1158.63450536381
 21
-1409.66906595456
 31
0.0
  0
SPLINE
  5
8F
330
1F
100
AcDbEntity
  8
tratteggio
  6
Tratteggiato
 62
   251
100
AcDbSpline
210
0.0
220
0.0
230
1.0
 70
    24
 71
     3
 72
     9
 73
     5
 74
     3
 42
0.0000000001
 43
0.0000000001
 44
0.00000001
 40
0.0
 40
0.0
 40
0.0
 40
0.0
 40
0.0114794875023563
 40
0.0229589750099422
 40
0.0229589750099422
 40
0.0229589750099422
 40
0.0229589750099422
 10
-852.624477755163
 20
-1536.48975145658
 30
0.0
 10
-852.6244777551633
 20
-1536.493577952414
 30
0.0
 10
-852.6244777551631
 20
-1536.501230944084
 30
0.0
 10
-852.6244777551628
 20
-1536.508883935754
 30
0.0
 10
-852.624477755163
 20
-1536.51271043159
 30
0.0
 11
-852.624477755163
 21
-1536.48975145658
 31
0.0
 11
-852.624477755163
 21
-1536.501230944082
 31
0.0
 11
-852.624477755163
 21
-1536.51271043159
 31
0.0
  0
SPLINE
  5
90
330
1F
100
AcDbEntity
  8
tratteggio
  6
Tratteggiato
 62
   251
100
AcDbSpline
210
0.0
220
0.0
230
1.0
 70
    24
 71
     3
 72
     9
 73
     5
 74
     3
 42
0.0000000001
 43
0.0000000001
 44
0.00000001
 40
0.0
 40
0.0
 40
0.0
 40
0.0
 40
0.5313914041776115
 40
1.062782808350221
 40
1.062782808350221
 40
1.062782808350221
 40
1.062782808350221
 10
-2183.6667670614
 20
-1416.66317511412
 30
0.0
 10
-2183.489636593341
 20
-1416.66317511412
 30
0.0
 10
-2183.135375657224
 20
-1416.66317511412
 30
0.0
 10
-2182.781114721107
 20
-1416.66317511412
 30
0.0
 10
-2182.60398425305
 20
-1416.66317511412
 30
0.0
 11
-2183.6667670614
 21
-1416.66317511412
 31
0.0
 11
-2183.135375657223
 21
-1416.66317511412
 31
0.0
 11
-2182.60398425305
 21
-1416.66317511412
 31
0.0
  0
SPLINE
  5
91
330
1F
100
AcDbEntity
  8
Predefinito
  6
Continuous
 62
     7
100
AcDbSpline
210
0.0
220
0.0
230
1.0
 70
    24
 71
     3
 72
     9
 73
     5
 74
     3
 42
0.0000000001
 43
0.0000000001
 44
0.00000001
 40
0.0
 40
0.0
 40
0.0
 40
0.0
 40
249.15535622584
 40
498.31071245168
 40
498.31071245168
 40
498.31071245168
 40
498.31071245168
 10
-863.425937752715
 20
-2413.62833194457
 30
0.0
 10
-863.4259377527153
 20
-2496.680117353183
 30
0.0
 10
-863.425937752716
 20
-2662.78368817041
 30
0.0
 10
-863.4259377527175
 20
-2828.887258987637
 30
0.0
 10
-863.425937752718
 20
-2911.93904439625
 30
0.0
 11
-863.425937752715
 21
-2413.62833194457
 31
0.0
 11
-863.4259377527162
 21
-2662.78368817041
 31
0.0
 11
-863.425937752718
 21
-2911.93904439625
 31
0.0
  0
SPLINE
  5
92
330
1F
100
AcDbEntity
  8
tratteggio
  6
Tratteggiato
 62
   251
100
AcDbSpline
210
0.0
220
0.0
230
1.0
 70
    24
 71
     3
 72
     9
 73
     5
 74
     3
 42
0.0000000001
 43
0.0000000001
 44
0.00000001
 40
0.0
 40
0.0
 40
0.0
 40
0.0
 40
0.3188348425073855
 40
0.6376696850097687
 40
0.6376696850097687
 40
0.6376696850097687
 40
0.6376696850097687
 10
-2184.30443674641
 20
-1416.66317511412
 30
0.0
 10
-2184.198158465574
 20
-1416.66317511412
 30
0.0
 10
-2183.985601903904
 20
-1416.66317511412
 30
0.0
 10
-2183.773045342235
 20
-1416.66317511412
 30
0.0
 10
-2183.6667670614
 20
-1416.66317511412
 30
0.0
 11
-2184.30443674641
 21
-1416.66317511412
 31
0.0
 11
-2183.985601903903
 21
-1416.66317511412
 31
0.0
 11
-2183.6667670614
 21
-1416.66317511412
 31
0.0
  0
SPLINE
  5
93
330
1F
100
AcDbEntity
  8
Predefinito
  6
Continuous
 62
     7
100
AcDbSpline
210
0.0
220
0.0
230
1.0
 70
    24
 71
     3
 72
     9
 73
     5
 74
     3
 42
0.0000000001
 43
0.0000000001
 44
0.00000001
 40
0.0
 40
0.0
 40
0.0
 40
0.0
 40
74.40251459875208
 40
148.8050291975101
 40
148.8050291975101
 40
148.8050291975101
 40
148.8050291975101
 10
-377.737421171208
 20
-2837.50450174165
 30
0.0
 10
-377.737421171208
 20
-2862.305339941235
 30
0.0
 10
-377.737421171208
 20
-2911.907016340405
 30
0.0
 10
-377.737421171208
 20
-2961.508692739574
 30
0.0
 10
-377.737421171208
 20
-2986.30953093916
 30
0.0
 11
-377.737421171208
 21
-2837.50450174165
 31
0.0
 11
-377.737421171208
 21
-2911.907016340402
 31
0.0
 11
-377.737421171208
 21
-2986.30953093916
 31
0.0
  0
SPLINE
  5
94
330
1F
100
AcDbEntity
  8
Predefinito
  6
Continuous
 62
     7
100
AcDbSpline
210
0.0
220
0.0
230
1.0
 70
    24
 71
     3
 72
     9
 73
     5
 74
     3
 42
0.0000000001
 43
0.0000000001
 44
0.00000001
 40
0.0
 40
0.0
 40
0.0
 40
0.0
 40
10.0
 40
20.0
 40
20.0
 40
20.0
 40
20.0
 10
-2138.8964040208
 20
-2211.49012938512
 30
0.0
 10
-2142.229737354134
 20
-2211.49012938512
 30
0.0
 10
-2148.8964040208
 20
-2211.490129385119
 30
0.0
 10
-2155.563070687467
 20
-2211.49012938512
 30
0.0
 10
-2158.8964040208
 20
-2211.49012938512
 30
0.0
 11
-2138.8964040208
 21
-2211.49012938512
 31
0.0
 11
-2148.8964040208
 21
-2211.49012938512
 31
0.0
 11
-2158.8964040208
 21
-2211.49012938512
 31
0.0
  0
SPLINE
  5
95
330
1F
100
AcDbEntity
  8
Predefinito
  6
Continuous
 62
     7
100
AcDbSpline
210
0.0
220
0.0
230
1.0
 70
    24
 71
     3
 72
     9
 73
     5
 74
     3
 42
0.0000000001
 43
0.0000000001
 44
0.00000001
 40
0.0
 40
0.0
 40
0.0
 40
0.0
 40
129.1110043146121
 40
258.2220086292243
 40
258.2220086292243
 40
258.2220086292243
 40
258.2220086292243
 10
-524.673961667496
 20
-3424.0297990644
 30
0.0
 10
-481.6369602292926
 20
-3424.029791264476
 30
0.0
 10
-395.5629573528861
 20
-3424.029775664631
 30
0.0
 10
-309.4889544764793
 20
-3424.029760064776
 30
0.0
 10
-266.451953038276
 20
-3424.02975226485
 30
0.0
 11
-524.673961667496
 21
-3424.0297990644
 31
0.0
 11
-395.562957352886
 21
-3424.029775664628
 31
0.0
 11
-266.451953038276
 21
-3424.02975226485
 31
0.0
  0
SPLINE
  5
96
330
1F
100
AcDbEntity
  8
tratteggio
  6
Tratteggiato
 62
   251
100
AcDbSpline
210
0.0
220
0.0
230
1.0
 70
    24
 71
     3
 72
    11
 73
     7
 74
     5
 42
0.0000000001
 43
0.0000000001
 44
0.00000001
 40
0.0
 40
0.0
 40
0.0
 40
0.0
 40
0.0004448743311838
 40
0.0037303415147101
 40
0.0094303040544609
 40
0.0138776908212551
 40
0.0138776908212551
 40
0.0138776908212551
 40
0.0138776908212551
 10
-1158.62877158807
 20
-1409.64209066059
 30
0.0
 10
-1158.628736723148
 20
-1409.641926634017
 30
0.0
 10
-1158.628444375265
 20
-1409.640551245297
 30
0.0
 10
-1158.629856080442
 20
-1409.647192796085
 30
0.0
 10
-1158.630385895774
 20
-1409.649685381208
 30
0.0
 10
-1158.631140989936
 20
-1409.653237819928
 30
0.0
 10
-1158.63147193309
 20
-1409.65479478505
 30
0.0
 11
-1158.62877158807
 21
-1409.64209066059
 31
0.0
 11
-1158.628679093501
 21
-1409.641655507829
 31
0.0
 11
-1158.629362180536
 21
-1409.644869179672
 31
0.0
 11
-1158.630547269384
 21
-1409.650444584355
 31
0.0
 11
-1158.63147193309
 21
-1409.65479478505
 31
0.0
  0
SPLINE
  5
97
330
1F
100
AcDbEntity
  8
Predefinito
  6
Continuous
 62
     7
100
AcDbSpline
210
0.0
220
0.0
230
1.0
 70
    24
 71
     3
 72
     9
 73
     5
 74
     3
 42
0.0000000001
 43
0.0000000001
 44
0.00000001
 40
0.0
 40
0.0
 40
0.0
 40
0.0
 40
1.163439638470322
 40
2.326879276940986
 40
2.326879276940986
 40
2.326879276940986
 40
2.326879276940986
 10
-861.272561792504
 20
-1536.48975145658
 30
0.0
 10
-861.6603750053275
 20
-1536.48975145658
 30
0.0
 10
-862.4360014309746
 20
-1536.489751456581
 30
0.0
 10
-863.2116278566214
 20
-1536.48975145658
 30
0.0
 10
-863.599441069445
 20
-1536.48975145658
 30
0.0
 11
-861.272561792504
 21
-1536.48975145658
 31
0.0
 11
-862.4360014309743
 21
-1536.48975145658
 31
0.0
 11
-863.599441069445
 21
-1536.48975145658
 31
0.0
  0
SPLINE
  5
98
330
1F
100
AcDbEntity
  8
Predefinito
  6
Continuous
 62
     7
100
AcDbSpline
210
0.0
220
0.0
230
1.0
 70
     8
 71
     3
 72
     9
 73
     5
 74
     3
 42
0.0000000001
 43
0.0000000001
 44
0.00000001
 40
0.0
 40
0.0
 40
0.0
 40
0.0
 40
8.003850618398841
 40
16.00770123679617
 40
16.00770123679617
 40
16.00770123679617
 40
16.00770123679617
 10
-264.869452258917
 20
-3435.51641339405
 30
0.0
 10
-261.8769881247409
 20
-3435.175547425605
 30
0.0
 10
-255.8920598563892
 20
-3434.493815488718
 30
0.0
 10
-255.2103885964017
 20
-3428.508880309086
 30
0.0
 10
-254.869552966408
 20
-3425.51641271927
 30
0.0
 11
-264.869452258917
 21
-3435.51641339405
 31
0.0
 11
-257.2178741084799
 21
-3433.168014678031
 31
0.0
 11
-254.869552966408
 21
-3425.51641271927
 31
0.0
  0
SPLINE
  5
99
330
1F
100
AcDbEntity
  8
Predefinito
  6
Continuous
 62
     7
100
AcDbSpline
210
0.0
220
0.0
230
1.0
 70
    24
 71
     3
 72
     9
 73
     5
 74
     3
 42
0.0000000001
 43
0.0000000001
 44
0.00000001
 40
0.0
 40
0.0
 40
0.0
 40
0.0
 40
256.7891524617786
 40
513.5783049235513
 40
513.5783049235513
 40
513.5783049235513
 40
513.5783049235513
 10
-254.869552966408
 20
-3425.51641271927
 30
0.0
 10
-254.8695587465984
 20
-3339.920028565344
 30
0.0
 10
-254.8695703069789
 20
-3168.727260257494
 30
0.0
 10
-254.8695818673596
 20
-2997.534491949644
 30
0.0
 10
-254.86958764755
 20
-2911.93810779572
 30
0.0
 11
-254.869552966408
 21
-3425.51641271927
 31
0.0
 11
-254.869570306979
 21
-3168.727260257492
 31
0.0
 11
-254.86958764755
 21
-2911.93810779572
 31
0.0
  0
SPLINE
  5
9A
330
1F
100
AcDbEntity
  8
Predefinito
  6
Continuous
 62
     7
100
AcDbSpline
210
0.0
220
0.0
230
1.0
 70
    24
 71
     3
 72
     9
 73
     5
 74
     3
 42
0.0000000001
 43
0.0000000001
 44
0.00000001
 40
0.0
 40
0.0
 40
0.0
 40
0.0
 40
169.1050488036398
 40
338.2100976072791
 40
338.2100976072791
 40
338.2100976072791
 40
338.2100976072791
 10
-525.215840145435
 20
-3410.25043809267
 30
0.0
 10
-581.5841897466482
 20
-3410.250438092671
 30
0.0
 10
-694.3208889490746
 20
-3410.250438092674
 30
0.0
 10
-807.057588151501
 20
-3410.250438092691
 30
0.0
 10
-863.425937752714
 20
-3410.2504380927
 30
0.0
 11
-525.215840145435
 21
-3410.25043809267
 31
0.0
 11
-694.3208889490747
 21
-3410.250438092678
 31
0.0
 11
-863.425937752714
 21
-3410.2504380927
 31
0.0
  0
SPLINE
  5
9B
330
1F
100
AcDbEntity
  8
Predefinito
  6
Continuous
 62
     7
100
AcDbSpline
210
0.0
220
0.0
230
1.0
 70
    24
 71
     3
 72
     9
 73
     5
 74
     3
 42
0.0000000001
 43
0.0000000001
 44
0.00000001
 40
0.0
 40
0.0
 40
0.0
 40
0.0
 40
4.999999999996875
 40
9.999999999998753
 40
9.999999999998753
 40
9.999999999998753
 40
9.999999999998753
 10
-863.425937752714
 20
-3411.40757478243
 30
0.0
 10
-863.4259804977623
 20
-3413.074241448548
 30
0.0
 10
-863.426065987859
 20
-3416.407574780785
 30
0.0
 10
-863.4261514779555
 20
-3419.74090811302
 30
0.0
 10
-863.426194223004
 20
-3421.40757477914
 30
0.0
 11
-863.425937752714
 21
-3411.40757478243
 31
0.0
 11
-863.426065987859
 21
-3416.407574780782
 31
0.0
 11
-863.426194223004
 21
-3421.40757477914
 31
0.0
  0
SPLINE
  5
9C
330
1F
100
AcDbEntity
  8
Predefinito
  6
Continuous
 62
     7
100
AcDbSpline
210
0.0
220
0.0
230
1.0
 70
     8
 71
     3
 72
     9
 73
     5
 74
     3
 42
0.0000000001
 43
0.0000000001
 44
0.00000001
 40
0.0
 40
0.0
 40
0.0
 40
0.0
 40
0.5154098888730384
 40
1.030819777746558
 40
1.030819777746558
 40
1.030819777746558
 40
1.030819777746558
 10
-366.96171199784
 20
-2839.5019319591
 30
0.0
 10
-367.1266333081224
 20
-2839.453726351113
 30
0.0
 10
-367.4564759286873
 20
-2839.357315135137
 30
0.0
 10
-367.7898813010604
 20
-2839.274055693752
 30
0.0
 10
-367.956583987247
 20
-2839.23242597306
 30
0.0
 11
-366.96171199784
 21
-2839.5019319591
 31
0.0
 11
-367.4573666166392
 21
-2839.360603078785
 31
0.0
 11
-367.956583987247
 21
-2839.23242597306
 31
0.0
  0
SPLINE
  5
9D
330
1F
100
AcDbEntity
  8
Predefinito
  6
Continuous
 62
     7
100
AcDbSpline
210
0.0
220
0.0
230
1.0
 70
    24
 71
     3
 72
     9
 73
     5
 74
     3
 42
0.0000000001
 43
0.0000000001
 44
0.00000001
 40
0.0
 40
0.0
 40
0.0
 40
0.0
 40
10.0
 40
20.0
 40
20.0
 40
20.0
 40
20.0
 10
-1185.59997890332
 20
-2211.48975145658
 30
0.0
 10
-1188.933312236654
 20
-2211.48975145658
 30
0.0
 10
-1195.59997890332
 20
-2211.48975145658
 30
0.0
 10
-1202.266645569987
 20
-2211.48975145658
 30
0.0
 10
-1205.59997890332
 20
-2211.48975145658
 30
0.0
 11
-1185.59997890332
 21
-2211.48975145658
 31
0.0
 11
-1195.59997890332
 21
-2211.48975145658
 31
0.0
 11
-1205.59997890332
 21
-2211.48975145658
 31
0.0
  0
SPLINE
  5
9E
330
1F
100
AcDbEntity
  8
Predefinito
  6
Continuous
 62
     7
100
AcDbSpline
210
0.0
220
0.0
230
1.0
 70
    24
 71
     3
 72
     9
 73
     5
 74
     3
 42
0.0000000001
 43
0.0000000001
 44
0.00000001
 40
0.0
 40
0.0
 40
0.0
 40
0.0
 40
0.2598799304273598
 40
0.5197598608499447
 40
0.5197598608499447
 40
0.5197598608499447
 40
0.5197598608499447
 10
-863.425937752714
 20
-1476.56561120606
 30
0.0
 10
-863.4259377527139
 20
-1476.652237849536
 30
0.0
 10
-863.4259377527138
 20
-1476.825491136486
 30
0.0
 10
-863.4259377527139
 20
-1476.998744423436
 30
0.0
 10
-863.425937752714
 20
-1477.08537106691
 30
0.0
 11
-863.425937752714
 21
-1476.56561120606
 31
0.0
 11
-863.4259377527139
 21
-1476.825491136487
 31
0.0
 11
-863.425937752714
 21
-1477.08537106691
 31
0.0
  0
SPLINE
  5
9F
330
1F
100
AcDbEntity
  8
Predefinito
  6
Continuous
 62
     7
100
AcDbSpline
210
0.0
220
0.0
230
1.0
 70
    24
 71
     3
 72
     9
 73
     5
 74
     3
 42
0.0000000001
 43
0.0000000001
 44
0.00000001
 40
0.0
 40
0.0
 40
0.0
 40
0.0
 40
0.0013587378194301
 40
0.0027174756340952
 40
0.0027174756340952
 40
0.0027174756340952
 40
0.0027174756340952
 10
-2185.79411397222
 20
-1409.65479478503
 30
0.0
 10
-2185.794019806393
 20
-1409.655237800409
 30
0.0
 10
-2185.79383147474
 20
-1409.656123831166
 30
0.0
 10
-2185.793643143087
 20
-1409.657009861923
 30
0.0
 10
-2185.79354897726
 20
-1409.6574528773
 30
0.0
 11
-2185.79411397222
 21
-1409.65479478503
 31
0.0
 11
-2185.79383147474
 21
-1409.656123831167
 31
0.0
 11
-2185.79354897726
 21
-1409.6574528773
 31
0.0
  0
SPLINE
  5
A0
330
1F
100
AcDbEntity
  8
Predefinito
  6
Continuous
 62
     7
100
AcDbSpline
210
0.0
220
0.0
230
1.0
 70
     8
 71
     3
 72
    23
 73
    19
 74
    17
 42
0.0000000001
 43
0.0000000001
 44
0.00000001
 40
0.0
 40
0.0
 40
0.0
 40
0.0
 40
0.4951700761648951
 40
0.9905245806052578
 40
1.512857812069144
 40
2.035596691067184
 40
2.605119627416926
 40
3.175092460365559
 40
3.800907510197663
 40
4.426918521005418
 40
5.108699332701234
 40
5.790699695073207
 40
6.520181708584358
 40
7.249716977244772
 40
8.013876070604084
 40
8.77811725162153
 40
9.560297143965629
 40
10.34251114331498
 40
10.34251114331498
 40
10.34251114331498
 40
10.34251114331498
 10
-381.658260377582
 20
-3031.93713581406
 30
0.0
 10
-381.6506516898133
 20
-3032.102361335467
 30
0.0
 10
-381.6354314803868
 20
-3032.432873917256
 30
0.0
 10
-381.5129233844459
 20
-3032.925146528677
 30
0.0
 10
-381.3205840807494
 20
-3033.402717789051
 30
0.0
 10
-381.0506387340911
 20
-3033.870271188526
 30
0.0
 10
-380.7133967789692
 20
-3034.311710576094
 30
0.0
 10
-380.303326746102
 20
-3034.735291390714
 30
0.0
 10
-379.836989046498
 20
-3035.125947234199
 30
0.0
 10
-379.3046279902333
 20
-3035.490807029196
 30
0.0
 10
-378.7259228773171
 20
-3035.816596650373
 30
0.0
 10
-378.0914553977213
 20
-3036.108540809962
 30
0.0
 10
-377.4222307794608
 20
-3036.358340612599
 30
0.0
 10
-376.7107747933561
 20
-3036.56767948244
 30
0.0
 10
-375.975540359807
 20
-3036.731438409436
 30
0.0
 10
-375.2139851805741
 20
-3036.849040938768
 30
0.0
 10
-374.440593954224
 20
-3036.923483943137
 30
0.0
 10
-373.9190420267644
 20
-3036.932585124278
 30
0.0
 10
-373.658260377582
 20
-3036.93713581406
 30
0.0
 11
-381.658260377582
 21
-3031.93713581406
 31
0.0
 11
-381.6191927585803
 21
-3032.430762318084
 31
0.0
 11
-381.5045273440468
 21
-3032.912662647799
 31
0.0
 11
-381.3095839217885
 21
-3033.397254297345
 31
0.0
 11
-381.0495308850528
 21
-3033.85071692392
 31
0.0
 11
-380.7051168971365
 21
-3034.304297545151
 31
0.0
 11
-380.3098643489761
 21
-3034.714960976043
 31
0.0
 11
-379.8309873611604
 21
-3035.117852161274
 31
0.0
 11
-379.3153328318396
 21
-3035.472803132598
 31
0.0
 11
-378.7218071480366
 21
-3035.80829134083
 31
0.0
 11
-378.102725302725
 21
-3036.094406987171
 31
0.0
 11
-377.419532158041
 21
-3036.35012389137
 31
0.0
 11
-376.7198580340568
 21
-3036.556710019767
 31
0.0
 11
-375.9740494101329
 21
-3036.723169073124
 31
0.0
 11
-375.2189431418507
 21
-3036.840978692273
 31
0.0
 11
-374.440109777174
 21
-3036.91325575678
 31
0.0
 11
-373.658260377582
 21
-3036.93713581406
 31
0.0
  0
SPLINE
  5
A1
330
1F
100
AcDbEntity
  8
tratteggio
  6
Tratteggiato
 62
   251
100
AcDbSpline
210
0.0
220
0.0
230
1.0
 70
     8
 71
     3
 72
     9
 73
     5
 74
     3
 42
0.0000000001
 43
0.0000000001
 44
0.00000001
 40
0.0
 40
0.0
 40
0.0
 40
0.0
 40
0.000939941765511
 40
0.0018798835313611
 40
0.0018798835313611
 40
0.0018798835313611
 40
0.0018798835313611
 10
-352.261916265637
 20
-1536.49563630984
 30
0.0
 10
-352.2622295798951
 20
-1536.495636309891
 30
0.0
 10
-352.262856208411
 20
-1536.495636309993
 30
0.0
 10
-352.2634828320863
 20
-1536.495638773064
 30
0.0
 10
-352.263796143924
 20
-1536.4956400046
 30
0.0
 11
-352.261916265637
 21
-1536.49563630984
 31
0.0
 11
-352.2628562072007
 21
-1536.495636925735
 31
0.0
 11
-352.263796143924
 21
-1536.4956400046
 31
0.0
  0
SPLINE
  5
A2
330
1F
100
AcDbEntity
  8
Predefinito
  6
Continuous
 62
     7
100
AcDbSpline
210
0.0
220
0.0
230
1.0
 70
     8
 71
     3
 72
    85
 73
    81
 74
    79
 42
0.0000000001
 43
0.0000000001
 44
0.00000001
 40
0.0
 40
0.0
 40
0.0
 40
0.0
 40
30.69882954006476
 40
61.39765855885816
 40
83.97862729970106
 40
106.5595946773583
 40
115.1657336214921
 40
123.7718724726302
 40
131.1329748699963
 40
138.4940763562756
 40
144.6085932487828
 40
150.7231105039844
 40
157.8521945282318
 40
164.9812787825735
 40
172.3492996000402
 40
179.7173191121894
 40
186.5791331773284
 40
193.4409481755128
 40
205.6935544150928
 40
217.9461543388434
 40
228.1977170528982
 40
238.4492632203338
 40
246.9543526803589
 40
255.4594092846996
 40
262.1852077764569
 40
268.9109974032532
 40
275.0423966344157
 40
281.1737568407688
 40
286.4201125668809
 40
291.6664353354444
 40
296.2465638367165
 40
300.8266140841451
 40
304.3165960499338
 40
307.8065566196901
 40
310.9874616280804
 40
314.1681812615003
 40
316.7429360875339
 40
319.3178315990424
 40
320.7163402792219
 40
322.1148210012738
 40
325.4447799984077
 40
328.7747781972205
 40
330.435113566406
 40
332.0954343835173
 40
333.8426494602261
 40
335.5898774934639
 40
337.0445659400521
 40
338.4992075702888
 40
339.8735863505391
 40
341.2479643104444
 40
342.637883918221
 40
344.0277631663909
 40
345.4195704450003
 40
346.8114389231211
 40
348.5008481227729
 40
350.1902952250869
 40
351.5362318746997
 40
352.8821687447054
 40
353.8411725447582
 40
354.8001789853569
 40
356.2488312774238
 40
357.6974795851953
 40
360.8971989216503
 40
364.0969212541066
 40
367.0261080672955
 40
369.9552948007365
 40
371.1758096995562
 40
372.3963248888193
 40
377.5235991405299
 40
382.6508721152472
 40
388.037398996066
 40
393.4239263441646
 40
398.7843404290043
 40
404.1447543292726
 40
409.0275210661761
 40
413.9102878903507
 40
437.8557814708122
 40
461.801274973839
 40
529.7038629282044
 40
599.5620597950209
 40
599.5620597950209
 40
599.5620597950209
 40
599.5620597950209
 10
-863.425937752714
 20
-3411.40757478243
 30
0.0
 10
-853.1929945474454
 20
-3411.408252507726
 30
0.0
 10
-832.7271083106656
 20
-3411.409607958308
 30
0.0
 10
-804.7342343848472
 20
-3411.422750988016
 30
0.0
 10
-779.4473235408373
 20
-3411.447303865755
 30
0.0
 10
-761.5246543989804
 20
-3411.477195063165
 30
0.0
 10
-748.2602748974157
 20
-3411.508059167913
 30
0.0
 10
-740.0691808547485
 20
-3411.53137862423
 30
0.0
 10
-732.2931129812249
 20
-3411.558392145357
 30
0.0
 10
-725.3476017203201
 20
-3411.588062581796
 30
0.0
 10
-718.8176441290476
 20
-3411.6220410628
 30
0.0
 10
-712.3650546200665
 20
-3411.660938532977
 30
0.0
 10
-705.5743200620425
 20
-3411.707787305554
 30
0.0
 10
-698.3658074388086
 20
-3411.763831532485
 30
0.0
 10
-691.0777012240516
 20
-3411.826527771581
 30
0.0
 10
-683.8787500199159
 20
-3411.896000129798
 30
0.0
 10
-676.8486132866196
 20
-3411.972357423776
 30
0.0
 10
-668.1905012830134
 20
-3412.077202804381
 30
0.0
 10
-657.735832976683
 20
-3412.223143522434
 30
0.0
 10
-646.1519008117215
 20
-3412.420432839576
 30
0.0
 10
-635.2356000923184
 20
-3412.644169974027
 30
0.0
 10
-625.5691495518699
 20
-3412.884627035
 30
0.0
 10
-616.4859650146087
 20
-3413.15714096651
 30
0.0
 10
-608.5790941191783
 20
-3413.443352599234
 30
0.0
 10
-601.2669590516093
 20
-3413.758742359913
 30
0.0
 10
-594.7474778860461
 20
-3414.086740289719
 30
0.0
 10
-588.4285767274109
 20
-3414.454380751994
 30
0.0
 10
-582.6053659903882
 20
-3414.847668944738
 30
0.0
 10
-577.0806770862408
 20
-3415.278282362577
 30
0.0
 10
-572.0763513836716
 20
-3415.727047114583
 30
0.0
 10
-567.2991640249969
 20
-3416.217553262963
 30
0.0
 10
-563.1111955149584
 20
-3416.710839629587
 30
0.0
 10
-559.2917463952632
 20
-3417.22173351683
 30
0.0
 10
-555.9423037446254
 20
-3417.725603748579
 30
0.0
 10
-552.7042441839903
 20
-3418.273293738843
 30
0.0
 10
-549.7782527893361
 20
-3418.83333314626
 30
0.0
 10
-547.0637030367242
 20
-3419.418721181027
 30
0.0
 10
-544.9372781156616
 20
-3419.911486622136
 30
0.0
 10
-543.1959853475392
 20
-3420.328932039911
 30
0.0
 10
-541.2117555386409
 20
-3420.812569082581
 30
0.0
 10
-538.6044354832629
 20
-3421.458530178888
 30
0.0
 10
-535.9116548927707
 20
-3422.12253617674
 30
0.0
 10
-533.7562805317272
 20
-3422.641169451071
 30
0.0
 10
-532.1113765327723
 20
-3423.025940805651
 30
0.0
 10
-530.4347327705166
 20
-3423.40192982609
 30
0.0
 10
-528.8211918958019
 20
-3423.745652768104
 30
0.0
 10
-527.299568911267
 20
-3424.052326294971
 30
0.0
 10
-525.8959336906222
 20
-3424.314809191093
 30
0.0
 10
-524.5142982460509
 20
-3424.5481960928
 30
0.0
 10
-523.1498143459572
 20
-3424.752202013719
 30
0.0
 10
-521.7762138032045
 20
-3424.928229032223
 30
0.0
 10
-520.3932362522464
 20
-3425.074220207474
 30
0.0
 10
-519.0065717236795
 20
-3425.187700118051
 30
0.0
 10
-517.5183010561404
 20
-3425.279629022898
 30
0.0
 10
-515.9294816499771
 20
-3425.348833432742
 30
0.0
 10
-514.3551672233947
 20
-3425.394152050292
 30
0.0
 10
-512.8950147014205
 20
-3425.423601119336
 30
0.0
 10
-511.6781694021914
 20
-3425.440705551403
 30
0.0
 10
-510.590241975367
 20
-3425.45172909521
 30
0.0
 10
-509.4680588090735
 20
-3425.460957096598
 30
0.0
 10
-508.1826594798784
 20
-3425.470633631582
 30
0.0
 10
-506.1503662193991
 20
-3425.484434413183
 30
0.0
 10
-503.5343787216831
 20
-3425.499521363507
 30
0.0
 10
-500.4248612908592
 20
-3425.512473386119
 30
0.0
 10
-497.4055037919145
 20
-3425.519859897207
 30
0.0
 10
-495.0458746064625
 20
-3425.522155907409
 30
0.0
 10
-493.2558023020206
 20
-3425.52224469714
 30
0.0
 10
-490.7330342535483
 20
-3425.521606691614
 30
0.0
 10
-486.9080137903344
 20
-3425.520024670936
 30
0.0
 10
-481.6943226200029
 20
-3425.518286860122
 30
0.0
 10
-476.3942134803896
 20
-3425.518803459577
 30
0.0
 10
-471.0163908147061
 20
-3425.519858681753
 30
0.0
 10
-465.6472723334172
 20
-3425.519605772012
 30
0.0
 10
-460.4460741399312
 20
-3425.518955363189
 30
0.0
 10
-455.4040916507664
 20
-3425.518743202637
 30
0.0
 10
-444.1670826054009
 20
-3425.518701206516
 30
0.0
 10
-426.5758313021491
 20
-3425.518509736636
 30
0.0
 10
-387.977972962039
 20
-3425.517886099778
 30
0.0
 10
-334.0758801917879
 20
-3425.517143251825
 30
0.0
 10
-288.1556185873501
 20
-3425.516658971871
 30
0.0
 10
-264.869552966408
 20
-3425.51641339455
 30
0.0
 11
-863.425937752714
 21
-3411.40757478243
 31
0.0
 11
-832.7271084859797
 21
-3411.411671347557
 31
0.0
 11
-802.0282832832296
 21
-3411.426978081646
 31
0.0
 11
-779.4473262031313
 21
-3411.449926320855
 31
0.0
 11
-756.8663918674516
 21
-3411.488555824402
 31
0.0
 11
-748.2602767456026
 21
-3411.508805150748
 31
0.0
 11
-739.65417340975
 21
-3411.533529585944
 31
0.0
 11
-732.2931163714709
 21
-3411.559371097327
 31
0.0
 11
-724.932083207599
 21
-3411.591086262185
 31
0.0
 11
-718.8176489825248
 21
-3411.622881481892
 31
0.0
 11
-712.703242695309
 21
-3411.659719220885
 31
0.0
 11
-705.5743278151156
 21
-3411.70882783251
 31
0.0
 11
-698.445458445719
 21
-3411.764179612825
 31
0.0
 11
-691.0777124273924
 21
-3411.827814320762
 31
0.0
 11
-683.710038429172
 21
-3411.899168279013
 31
0.0
 11
-676.8486300688294
 21
-3411.973784478056
 31
0.0
 11
-669.9873192322117
 21
-3412.05696303672
 31
0.0
 11
-657.7359266514885
 21
-3412.229414465231
 31
0.0
 11
-645.4851277895459
 21
-3412.439490964912
 31
0.0
 11
-635.2357606068531
 21
-3412.651647592286
 31
0.0
 11
-624.9874368733315
 21
-3412.908667972805
 31
0.0
 11
-616.4862385233914
 21
-3413.165909761799
 31
0.0
 11
-607.986827891119
 21
-3413.475759317318
 31
0.0
 11
-601.2673277341585
 21
-3413.766762740549
 31
0.0
 11
-594.5500930666913
 21
-3414.105885913007
 31
0.0
 11
-588.4291542985824
 21
-3414.463887489765
 31
0.0
 11
-582.3118568751795
 21
-3414.87891786658
 31
0.0
 11
-577.0815085126776
 21
-3415.288435157769
 31
0.0
 11
-571.8563187290202
 21
-3415.758854456597
 31
0.0
 11
-567.3003722218797
 21
-3416.228884787788
 31
0.0
 11
-562.7520276500262
 21
-3416.766864271283
 31
0.0
 11
-559.2930660914574
 21
-3417.231147652283
 31
0.0
 11
-555.8421750628415
 21
-3417.751893163135
 31
0.0
 11
-552.7061863462874
 21
-3418.284557637309
 31
0.0
 11
-549.5825921302884
 21
-3418.884671426686
 31
0.0
 11
-547.0651978481372
 21
-3419.425123498915
 31
0.0
 11
-544.5562420752223
 21
-3420.004112121206
 31
0.0
 11
-543.1961835730119
 21
-3420.329792024029
 31
0.0
 11
-541.8373949471351
 21
-3420.660611914813
 31
0.0
 11
-538.6043006745238
 21
-3421.457937661921
 31
0.0
 11
-535.3702974559908
 21
-3422.251733093134
 31
0.0
 11
-533.7558687133273
 21
-3422.639461571622
 31
0.0
 11
-532.1390251989545
 21
-3423.016929803085
 31
0.0
 11
-530.4340695210583
 21
-3423.398880926513
 31
0.0
 11
-528.725106509938
 21
-3423.762544544098
 31
0.0
 11
-527.2989002139681
 21
-3424.048995374037
 31
0.0
 11
-525.8688662175211
 21
-3424.315425555179
 31
0.0
 11
-524.5136135139724
 21
-3424.543914375751
 31
0.0
 11
-523.1542792881006
 21
-3424.746707963044
 31
0.0
 11
-521.7755983974436
 21
-3424.923103875181
 31
0.0
 11
-520.3933694484648
 21
-3425.068731678497
 31
0.0
 11
-519.0062673389094
 21
-3425.183078687453
 31
0.0
 11
-517.6170976801923
 21
-3425.269713089892
 31
0.0
 11
-515.9293526909087
 21
-3425.344681716771
 31
0.0
 11
-514.2406476021795
 21
-3425.394748020982
 31
0.0
 11
-512.8949915647406
 21
-3425.422230627759
 31
0.0
 11
-511.5491925041772
 21
-3425.441490602513
 31
0.0
 11
-510.5902401501884
 21
-3425.451423945098
 31
0.0
 11
-509.6312679387811
 21
-3425.459526466826
 31
0.0
 11
-508.1826568741881
 21
-3425.470455641076
 31
0.0
 11
-506.7340421299215
 21
-3425.480316792249
 31
0.0
 11
-503.5343754131929
 21
-3425.498667104046
 31
0.0
 11
-500.3346804105571
 21
-3425.511891888625
 31
0.0
 11
-497.4055025664318
 21
-3425.519140615764
 31
0.0
 11
-494.4763173014445
 21
-3425.522073659874
 31
0.0
 11
-493.255802407537
 21
-3425.52218316281
 31
0.0
 11
-492.0352872459039
 21
-3425.521923459509
 31
0.0
 11
-486.9080133208363
 21
-3425.520093274679
 31
0.0
 11
-481.7807405423554
 21
-3425.518674713805
 31
0.0
 11
-476.3942136659236
 21
-3425.518892110809
 31
0.0
 11
-471.0076863699418
 21
-3425.519641415607
 31
0.0
 11
-465.647272286136
 21
-3425.519536135507
 31
0.0
 11
-460.2868584113912
 21
-3425.51901303636
 31
0.0
 11
-455.404091680319
 21
-3425.518774404732
 31
0.0
 11
-450.521324856415
 21
-3425.518722984005
 31
0.0
 11
-426.5758312770997
 21
-3425.518488692894
 31
0.0
 11
-402.6303377767928
 21
-3425.518127786298
 31
0.0
 11
-334.7277498289262
 21
-3425.517188330237
 31
0.0
 11
-264.869552966408
 21
-3425.51641339455
 31
0.0
  0
SPLINE
  5
A3
330
1F
100
AcDbEntity
  8
Predefinito
  6
Continuous
 62
     7
100
AcDbSpline
210
0.0
220
0.0
230
1.0
 70
    24
 71
     3
 72
     9
 73
     5
 74
     3
 42
0.0000000001
 43
0.0000000001
 44
0.00000001
 40
0.0
 40
0.0
 40
0.0
 40
0.0
 40
256.7891524617709
 40
513.5783049235413
 40
513.5783049235413
 40
513.5783049235413
 40
513.5783049235413
 10
-264.869552966408
 20
-3425.51641339455
 30
0.0
 10
-264.8695587465983
 20
-3339.920029240627
 30
0.0
 10
-264.869570306979
 20
-3168.72726093278
 30
0.0
 10
-264.8695818673597
 20
-2997.534492624933
 30
0.0
 10
-264.86958764755
 20
-2911.93810847101
 30
0.0
 11
-264.869552966408
 21
-3425.51641339455
 31
0.0
 11
-264.869570306979
 21
-3168.72726093278
 31
0.0
 11
-264.86958764755
 21
-2911.93810847101
 31
0.0
  0
SPLINE
  5
A4
330
1F
100
AcDbEntity
  8
Predefinito
  6
Continuous
 62
     7
100
AcDbSpline
210
0.0
220
0.0
230
1.0
 70
    24
 71
     3
 72
     9
 73
     5
 74
     3
 42
0.0000000001
 43
0.0000000001
 44
0.00000001
 40
0.0
 40
0.0
 40
0.0
 40
0.0
 40
4.999999999996875
 40
9.999999999999208
 40
9.999999999999208
 40
9.999999999999208
 40
9.999999999999208
 10
-863.425937752726
 20
-2412.4686421596
 30
0.0
 10
-863.4259804977744
 20
-2410.801975493483
 30
0.0
 10
-863.4260659878709
 20
-2407.468642161246
 30
0.0
 10
-863.4261514779673
 20
-2404.135308829009
 30
0.0
 10
-863.426194223016
 20
-2402.46864216289
 30
0.0
 11
-863.425937752726
 21
-2412.4686421596
 31
0.0
 11
-863.426065987871
 21
-2407.468642161248
 31
0.0
 11
-863.426194223016
 21
-2402.46864216289
 31
0.0
  0
SPLINE
  5
A5
330
1F
100
AcDbEntity
  8
Predefinito
  6
Continuous
 62
     7
100
AcDbSpline
210
0.0
220
0.0
230
1.0
 70
     8
 71
     3
 72
   107
 73
   103
 74
   101
 42
0.0000000001
 43
0.0000000001
 44
0.00000001
 40
0.0
 40
0.0
 40
0.0
 40
0.0
 40
5.163345950236653
 40
10.32669190047371
 40
10.52185162753188
 40
10.71701135459025
 40
10.87669338605419
 40
11.03637541751843
 40
11.26709319277119
 40
11.49781096797665
 40
11.81711618740673
 40
12.13642140705766
 40
12.47350289355766
 40
12.81058438091596
 40
12.98801874786975
 40
13.16545313335267
 40
13.36072445965781
 40
13.55599398632403
 40
13.69790198145908
 40
13.83981249849733
 40
13.99940132940103
 40
14.15898298254482
 40
15.45342932439008
 40
16.74797230578186
 40
17.95366838575761
 40
19.15931470322349
 40
20.36518481180278
 40
21.57108516930532
 40
22.75912226145067
 40
23.94714186369421
 40
25.13530725840167
 40
26.32347507924293
 40
26.85572664867682
 40
27.38798057488962
 40
27.6806989883591
 40
27.9734222971557
 40
28.02662763008778
 40
28.0798327361497
 40
28.14192018152291
 40
28.20400772258731
 40
28.24837048000587
 40
28.29273325964604
 40
28.33711385930994
 40
28.38149445984747
 40
28.73647186588784
 40
29.09144927487553
 40
29.44623585274609
 40
29.80102242838972
 40
90.16347500614714
 40
150.5259275842287
 40
150.8453206024031
 40
151.164713621011
 40
151.5905763011027
 40
152.0164389736062
 40
152.3003705581139
 40
152.5843022081164
 40
152.9567438042806
 40
153.329184174517
 40
153.4889077570945
 40
153.6486334789957
 40
153.8262139139764
 40
154.0037802620731
 40
154.1634034127411
 40
154.3230391208165
 40
154.6601664431
 40
154.9972709199914
 40
155.653666274939
 40
156.3100834200414
 40
157.639874528161
 40
158.9696131368699
 40
160.317037073532
 40
161.6644970488319
 40
163.0120128918421
 40
164.3595050037673
 40
165.9192166084698
 40
167.4788845530664
 40
167.6563517874707
 40
167.8338260714882
 40
167.9758080610335
 40
168.117788168692
 40
168.3129603658969
 40
168.5081347974091
 40
168.6678627992794
 40
168.8275903533155
 40
169.0226965169939
 40
169.2178031477103
 40
169.3776006280934
 40
169.5373980550275
 40
169.6526690733674
 40
169.7679401044801
 40
169.8477373169757
 40
169.9275344925029
 40
170.0251647494305
 40
170.1227950653196
 40
170.2026681856208
 40
170.2825412747235
 40
170.3800969304189
 40
170.4776526139329
 40
170.5573692270663
 40
170.6370858337418
 40
176.1553233077182
 40
181.673560783113
 40
181.673560783113
 40
181.673560783113
 40
181.673560783113
 10
-381.658260377582
 20
-2986.96843079177
 30
0.0
 10
-379.9609451728957
 20
-2986.683195749261
 30
0.0
 10
-376.5663147635228
 20
-2986.112725664243
 30
0.0
 10
-373.1075306931803
 20
-2985.531474478841
 30
0.0
 10
-371.2819081761449
 20
-2985.224677178578
 30
0.0
 10
-371.1011095150086
 20
-2985.194294011957
 30
0.0
 10
-370.9319731690387
 20
-2985.1658710191
 30
0.0
 10
-370.7511481420843
 20
-2985.135483127957
 30
0.0
 10
-370.5469723307653
 20
-2985.101168904823
 30
0.0
 10
-370.2903243540694
 20
-2985.058037974229
 30
0.0
 10
-370.0045540637188
 20
-2985.010022220263
 30
0.0
 10
-369.6838209374346
 20
-2984.956122010047
 30
0.0
 10
-369.3572498061479
 20
-2984.901207220292
 30
0.0
 10
-369.0773081330858
 20
-2984.85417058336
 30
0.0
 10
-368.8498360231362
 20
-2984.816014387367
 30
0.0
 10
-368.6689965512775
 20
-2984.785595090952
 30
0.0
 10
-368.4823310848304
 20
-2984.753972610426
 30
0.0
 10
-368.3073070827942
 20
-2984.724530001415
 30
0.0
 10
-368.149743666447
 20
-2984.698517597308
 30
0.0
 10
-368.0039534237068
 20
-2984.674213692783
 30
0.0
 10
-367.85250387349
 20
-2984.648022259813
 30
0.0
 10
-367.3235794575862
 20
-2984.550373253664
 30
0.0
 10
-366.4344426067884
 20
-2984.317195920362
 30
0.0
 10
-365.2594707691734
 20
-2983.839615903133
 30
0.0
 10
-364.1795037749292
 20
-2983.233809151698
 30
0.0
 10
-363.2038292681071
 20
-2982.520402751365
 30
0.0
 10
-362.3215462779567
 20
-2981.694192176663
 30
0.0
 10
-361.5485238101469
 20
-2980.772614955542
 30
0.0
 10
-360.8948642229321
 20
-2979.770102811925
 30
0.0
 10
-360.3668582028241
 20
-2978.702657346304
 30
0.0
 10
-359.9695965288827
 20
-2977.580029527583
 30
0.0
 10
-359.7559432411488
 20
-2976.631755328649
 30
0.0
 10
-359.6547168154151
 20
-2975.887444541142
 30
0.0
 10
-359.6176577095234
 20
-2975.43631128124
 30
0.0
 10
-359.6024528769475
 20
-2975.064016474348
 30
0.0
 10
-359.5997886039306
 20
-2974.851117309514
 30
0.0
 10
-359.600280993879
 20
-2974.718073989147
 30
0.0
 10
-359.6004978593648
 20
-2974.661908305241
 30
0.0
 10
-359.6004271663319
 20
-2974.602781504856
 30
0.0
 10
-359.60030711729
 20
-2974.546602374735
 30
0.0
 10
-359.6003532807588
 20
-2974.496331325547
 30
0.0
 10
-359.6004196516078
 20
-2974.451962667223
 30
0.0
 10
-359.6004242820156
 20
-2974.407587993527
 30
0.0
 10
-359.6003436104793
 20
-2974.259675151371
 30
0.0
 10
-359.6003109308892
 20
-2974.008229995307
 30
0.0
 10
-359.6003746015282
 20
-2973.653316207255
 30
0.0
 10
-359.6003957608895
 20
-2973.298466018587
 30
0.0
 10
-359.6003909208364
 20
-2952.94112412279
 30
0.0
 10
-359.6003909649346
 20
-2912.581226858547
 30
0.0
 10
-359.6003925279438
 20
-2872.23312747103
 30
0.0
 10
-359.6003892312704
 20
-2851.899381268332
 30
0.0
 10
-359.6003961833137
 20
-2851.544498362523
 30
0.0
 10
-359.6004218229973
 20
-2851.154125573763
 30
0.0
 10
-359.6004150856314
 20
-2850.775573257581
 30
0.0
 10
-359.6003485624841
 20
-2850.444331299343
 30
0.0
 10
-359.6003657660895
 20
-2850.130896332362
 30
0.0
 10
-359.600645357636
 20
-2849.787958587496
 30
0.0
 10
-359.6006985216729
 20
-2849.486423286288
 30
0.0
 10
-359.600386414936
 20
-2849.255793568845
 30
0.0
 10
-359.6003041816297
 20
-2849.090117033418
 30
0.0
 10
-359.6006957828847
 20
-2848.918492553362
 30
0.0
 10
-359.6031997008637
 20
-2848.746911371528
 30
0.0
 10
-359.609027273482
 20
-2848.581394579116
 30
0.0
 10
-359.6205160745976
 20
-2848.362894320834
 30
0.0
 10
-359.6416688815909
 20
-2848.085688209265
 30
0.0
 10
-359.689994215736
 20
-2847.644721311203
 30
0.0
 10
-359.7772466234466
 20
-2847.101252234131
 30
0.0
 10
-359.9738787931539
 20
-2846.242091743803
 30
0.0
 10
-360.3274658446391
 20
-2845.191109889611
 30
0.0
 10
-360.9185199185564
 20
-2843.989060618987
 30
0.0
 10
-361.6690740802405
 20
-2842.872166360471
 30
0.0
 10
-362.5662743175568
 20
-2841.861378722102
 30
0.0
 10
-363.5917363003948
 20
-2840.980904021361
 30
0.0
 10
-364.7853008921904
 20
-2840.207037233762
 30
0.0
 10
-366.1446524797824
 20
-2839.585038079641
 30
0.0
 10
-367.2077131417934
 20
-2839.28670895818
 30
0.0
 10
-367.8349248816542
 20
-2839.168859101101
 30
0.0
 10
-367.9981340669788
 20
-2839.140537597879
 30
0.0
 10
-368.1499086641022
 20
-2839.115586957985
 30
0.0
 10
-368.3075350218226
 20
-2839.089860736601
 30
0.0
 10
-368.4824674735352
 20
-2839.060116813187
 30
0.0
 10
-368.6631878311493
 20
-2839.029126353481
 30
0.0
 10
-368.8323900563353
 20
-2839.000880362598
 30
0.0
 10
-369.0015925058381
 20
-2838.972776348132
 30
0.0
 10
-369.1823497467187
 20
-2838.942269002449
 30
0.0
 10
-369.3631161005047
 20
-2838.91167658529
 30
0.0
 10
-369.53232885303
 20
-2838.883350668691
 30
0.0
 10
-369.6752970176784
 20
-2838.859431040351
 30
0.0
 10
-369.8035999103441
 20
-2838.837802229364
 30
0.0
 10
-369.9056066737768
 20
-2838.820603885263
 30
0.0
 10
-369.9959660867234
 20
-2838.805446946404
 30
0.0
 10
-370.0805276844666
 20
-2838.791271285391
 30
0.0
 10
-370.1709437027612
 20
-2838.77606433086
 30
0.0
 10
-370.2613828640894
 20
-2838.760842373817
 30
0.0
 10
-370.3459896156486
 20
-2838.746629876786
 30
0.0
 10
-370.4305729630631
 20
-2838.732428289874
 30
0.0
 10
-370.5209669916399
 20
-2838.717237968607
 30
0.0
 10
-370.6113087080444
 20
-2838.702051089072
 30
0.0
 10
-370.6957868712262
 20
-2838.68785306111
 30
0.0
 10
-372.5621729429139
 20
-2838.374205738443
 30
0.0
 10
-376.2163307881072
 20
-2837.760122076083
 30
0.0
 10
-379.8442838476017
 20
-2837.15044195142
 30
0.0
 10
-381.658260377582
 20
-2836.84560188905
 30
0.0
 11
-381.658260377582
 21
-2986.96843079177
 31
0.0
 11
-376.566314764783
 21
-2986.112725656737
 31
0.0
 11
-371.4743691723893
 21
-2985.257020400278
 31
0.0
 11
-371.2819081706174
 21
-2985.224677211468
 31
0.0
 11
-371.089447135683
 21
-2985.192334219994
 31
0.0
 11
-370.931973184244
 21
-2985.165870928614
 31
0.0
 11
-370.774499324041
 21
-2985.139407094325
 31
0.0
 11
-370.546972285416
 21
-2985.101169174506
 31
0.0
 11
-370.3194449749036
 21
-2985.062932872818
 31
0.0
 11
-370.0045543289888
 21
-2985.01002064105
 31
0.0
 11
-369.6896652751503
 21
-2984.957098934076
 31
0.0
 11
-369.3572486029403
 21
-2984.901214369321
 31
0.0
 11
-369.0248247212422
 21
-2984.845372700323
 31
0.0
 11
-368.8498382685569
 21
-2984.816001014078
 31
0.0
 11
-368.6748652844926
 21
-2984.786549087157
 31
0.0
 11
-368.4823242020617
 21
-2984.75400953502
 31
0.0
 11
-368.2897474741705
 21
-2984.721692481949
 31
0.0
 11
-368.1497506463605
 21
-2984.6984811208
 31
0.0
 11
-368.0097879471842
 21
-2984.675049567601
 31
0.0
 11
-367.8525556290215
 21
-2984.647725712192
 31
0.0
 11
-367.6956498815791
 21
-2984.6186243301
 31
0.0
 11
-366.4434404395452
 21
-2984.29065657986
 31
0.0
 11
-365.2441707343837
 21
-2983.803220732847
 31
0.0
 11
-364.1925643420716
 21
-2983.213452106251
 31
0.0
 11
-363.2194605652405
 21
-2982.501657134131
 31
0.0
 11
-362.3391342287498
 21
-2981.677552614033
 31
0.0
 11
-361.5642800526348
 21
-2980.753541424716
 31
0.0
 11
-360.9152634090967
 21
-2979.758448701035
 31
0.0
 11
-360.388670617894
 21
-2978.693511797942
 31
0.0
 11
-359.9921707217787
 21
-2977.573456068275
 31
0.0
 11
-359.731165123278
 21
-2976.414310327639
 31
0.0
 11
-359.6594089888067
 21
-2975.886917883315
 31
0.0
 11
-359.6158221948953
 21
-2975.35645164182
 31
0.0
 11
-359.60383339012
 21
-2975.063978842838
 31
0.0
 11
-359.6001283179114
 21
-2974.771278982994
 31
0.0
 11
-359.6002824148824
 21
-2974.718073873216
 31
0.0
 11
-359.600445040929
 21
-2974.664869015695
 31
0.0
 11
-359.6004174261664
 21
-2974.602781576463
 31
0.0
 11
-359.6003313708937
 21
-2974.540694095036
 31
0.0
 11
-359.6003575514154
 21
-2974.496331345343
 31
0.0
 11
-359.6004093559872
 21
-2974.45196859595
 31
0.0
 11
-359.6004194759884
 21
-2974.40758799744
 31
0.0
 11
-359.6004007598505
 21
-2974.363207400849
 31
0.0
 11
-359.6003292337937
 21
-2974.008230002014
 31
0.0
 11
-359.600367525184
 21
-2973.653252595092
 31
0.0
 11
-359.6003922209028
 21
-2973.298466018081
 31
0.0
 11
-359.6003956767023
 21
-2972.943679442454
 31
0.0
 11
-359.6003913436636
 21
-2912.581226864697
 31
0.0
 11
-359.6003892829404
 21
-2852.218774286615
 31
0.0
 11
-359.6003902827021
 21
-2851.899381268443
 31
0.0
 11
-359.6003975910523
 21
-2851.579988249918
 31
0.0
 11
-359.6004158979905
 21
-2851.15412557022
 31
0.0
 11
-359.6003986548452
 21
-2850.728262898066
 31
0.0
 11
-359.6003606634993
 21
-2850.4443313161
 31
0.0
 11
-359.6003952778941
 21
-2850.160399668207
 31
0.0
 11
-359.6006056946024
 21
-2849.787958131482
 31
0.0
 11
-359.6005781240153
 21
-2849.415517762266
 31
0.0
 11
-359.6004092277694
 21
-2849.255794268986
 31
0.0
 11
-359.6003771762773
 21
-2849.096068550301
 31
0.0
 11
-359.6010601649722
 21
-2848.91848942874
 31
0.0
 11
-359.603928953799
 21
-2848.740946256449
 31
0.0
 11
-359.6094878993101
 21
-2848.581419931493
 31
0.0
 11
-359.6178128358054
 21
-2848.422001442211
 31
0.0
 11
-359.6435153976321
 21
-2848.085855328526
 31
0.0
 11
-359.6802930772236
 21
-2847.75076305672
 31
0.0
 11
-359.7843100030504
 21
-2847.102661721172
 31
0.0
 11
-359.9307646049873
 21
-2846.46279101708
 31
0.0
 11
-360.3546494433334
 21
-2845.202368058286
 31
0.0
 11
-360.9416589083554
 21
-2844.009210627154
 31
0.0
 11
-361.6929547486722
 21
-2842.890682207572
 31
0.0
 11
-362.5876354451519
 21
-2841.883113432559
 31
0.0
 11
-363.6098362112956
 21
-2841.005101735109
 31
0.0
 11
-364.7406267245765
 21
-2840.272266278288
 31
0.0
 11
-366.1588041426701
 21
-2839.623056681429
 31
0.0
 11
-367.6606050330144
 21
-2839.20215505021
 31
0.0
 11
-367.8349977043175
 21
-2839.169264086665
 31
0.0
 11
-368.0098383035303
 21
-2839.138802859598
 31
0.0
 11
-368.1499138174966
 21
-2839.115613729767
 31
0.0
 11
-368.2900140997488
 21
-2839.092586313855
 31
0.0
 11
-368.4824588657936
 21
-2839.060071723534
 31
0.0
 11
-368.6748597673114
 21
-2839.027285265792
 31
0.0
 11
-368.8323937220964
 21
-2839.000901792342
 31
0.0
 11
-368.9899487283542
 21
-2838.974647049505
 31
0.0
 11
-369.1823471329973
 21
-2838.942254627612
 31
0.0
 11
-369.3747314253307
 21
-2838.909775689623
 31
0.0
 11
-369.5323292539761
 21
-2838.883352988341
 31
0.0
 11
-369.6899293646443
 21
-2838.856944225172
 31
0.0
 11
-369.8035998307864
 21
-2838.837801790735
 31
0.0
 11
-369.9172698653323
 21
-2838.818656716692
 31
0.0
 11
-369.995966319578
 21
-2838.805448264428
 31
0.0
 11
-370.0746640661736
 21
-2838.792247737813
 31
0.0
 11
-370.1709433602446
 21
-2838.776062417275
 31
0.0
 11
-370.267220778193
 21
-2838.75986558506
 31
0.0
 11
-370.3459898026479
 21
-2838.746630928545
 31
0.0
 11
-370.4247598580629
 21
-2838.733402597859
 31
0.0
 11
-370.5209668272423
 21
-2838.717237046849
 31
0.0
 11
-370.6171728928346
 21
-2838.701065951365
 31
0.0
 11
-370.6957869093633
 21
-2838.687853275077
 31
0.0
 11
-370.7744011356405
 21
-2838.674641885798
 31
0.0
 11
-376.2163307796832
 21
-2837.760122028995
 31
0.0
 11
-381.658260377582
 21
-2836.84560188905
 31
0.0
  0
SPLINE
  5
A6
330
1F
100
AcDbEntity
  8
tratteggio
  6
Tratteggiato
 62
   251
100
AcDbSpline
210
0.0
220
0.0
230
1.0
 70
     8
 71
     3
 72
     9
 73
     5
 74
     3
 42
0.0000000001
 43
0.0000000001
 44
0.00000001
 40
0.0
 40
0.0
 40
0.0
 40
0.0
 40
0.0948337731209391
 40
0.1896675462371048
 40
0.1896675462371048
 40
0.1896675462371048
 40
0.1896675462371048
 10
-302.309983390984
 20
-2922.73736536649
 30
0.0
 10
-302.3116455089862
 20
-2922.768932941456
 30
0.0
 10
-302.3149697449905
 20
-2922.832068091388
 30
0.0
 10
-302.3185781178055
 20
-2922.895187639449
 30
0.0
 10
-302.320382304213
 20
-2922.92674741348
 30
0.0
 11
-302.309983390984
 21
-2922.73736536649
 31
0.0
 11
-302.3150407791933
 21
-2922.832064190922
 31
0.0
 11
-302.320382304213
 21
-2922.92674741348
 31
0.0
  0
SPLINE
  5
A7
330
1F
100
AcDbEntity
  8
Predefinito
  6
Continuous
 62
     7
100
AcDbSpline
210
0.0
220
0.0
230
1.0
 70
     8
 71
     3
 72
    85
 73
    81
 74
    79
 42
0.0000000001
 43
0.0000000001
 44
0.00000001
 40
0.0
 40
0.0
 40
0.0
 40
0.0
 40
30.6988295400667
 40
61.39765855885941
 40
83.97862729970255
 40
106.5595946773597
 40
115.1657336214931
 40
123.7718724726307
 40
131.1329748699961
 40
138.4940763562754
 40
144.6085932487833
 40
150.7231105039856
 40
157.8521945282326
 40
164.9812787825741
 40
172.349299600041
 40
179.7173191121905
 40
186.579133177329
 40
193.4409481755126
 40
205.6935544150919
 40
217.9461543388426
 40
228.197717052897
 40
238.449263220333
 40
246.9543526803595
 40
255.4594092847013
 40
262.1852077764581
 40
268.9109974032538
 40
275.0423966344161
 40
281.173756840769
 40
286.4201125668803
 40
291.6664353354437
 40
296.2465638367169
 40
300.8266140841463
 40
304.3165960499342
 40
307.8065566196898
 40
310.9874616280807
 40
314.1681812615016
 40
316.7429360875355
 40
319.3178315990438
 40
320.7163402792234
 40
322.1148210012757
 40
325.4447799984097
 40
328.7747781972215
 40
330.435113566406
 40
332.0954343835169
 40
333.8426494602255
 40
335.5898774934631
 40
337.0445659400506
 40
338.499207570287
 40
339.8735863505386
 40
341.2479643104454
 40
342.6378839182215
 40
344.0277631663905
 40
345.4195704450005
 40
346.811438923122
 40
348.5008481227737
 40
350.1902952250877
 40
351.5362318747005
 40
352.8821687447062
 40
353.8411725447592
 40
354.8001789853583
 40
356.2488312774249
 40
357.6974795851963
 40
360.8971989216519
 40
364.0969212541079
 40
367.0261080672967
 40
369.955294800737
 40
371.1758096995562
 40
372.3963248888189
 40
377.523599140529
 40
382.6508721152471
 40
388.0373989960666
 40
393.4239263441654
 40
398.7843404290045
 40
404.1447543292722
 40
409.0275210661759
 40
413.9102878903509
 40
437.8557814708136
 40
461.801274973841
 40
529.8529905210033
 40
599.5620598748349
 40
599.5620598748349
 40
599.5620598748349
 40
599.5620598748349
 10
-863.4259377527259
 20
-2412.4686421596
 30
0.0
 10
-853.1929945474569
 20
-2412.467964434304
 30
0.0
 10
-832.7271083106765
 20
-2412.466608983721
 30
0.0
 10
-804.7342343848575
 20
-2412.453465954013
 30
0.0
 10
-779.4473235408478
 20
-2412.428913076267
 30
0.0
 10
-761.5246543989907
 20
-2412.39902187886
 30
0.0
 10
-748.2602748974266
 20
-2412.368157774113
 30
0.0
 10
-740.06918085476
 20
-2412.344838317797
 30
0.0
 10
-732.2931129812368
 20
-2412.317824796668
 30
0.0
 10
-725.3476017203319
 20
-2412.288154360224
 30
0.0
 10
-718.8176441290591
 20
-2412.254175879219
 30
0.0
 10
-712.3650546200776
 20
-2412.215278409045
 30
0.0
 10
-705.5743200620533
 20
-2412.168429636472
 30
0.0
 10
-698.3658074388198
 20
-2412.112385409543
 30
0.0
 10
-691.0777012240626
 20
-2412.049689170442
 30
0.0
 10
-683.8787500199267
 20
-2411.980216812223
 30
0.0
 10
-676.848613286631
 20
-2411.903859518244
 30
0.0
 10
-668.1905012830257
 20
-2411.799014137639
 30
0.0
 10
-657.7358329766954
 20
-2411.653073419587
 30
0.0
 10
-646.1519008117341
 20
-2411.455784102444
 30
0.0
 10
-635.2356000923313
 20
-2411.232046967992
 30
0.0
 10
-625.5691495518823
 20
-2410.99158990702
 30
0.0
 10
-616.4859650146203
 20
-2410.719075975509
 30
0.0
 10
-608.5790941191888
 20
-2410.432864342785
 30
0.0
 10
-601.2669590516202
 20
-2410.117474582107
 30
0.0
 10
-594.747477886057
 20
-2409.789476652303
 30
0.0
 10
-588.4285767274225
 20
-2409.421836190024
 30
0.0
 10
-582.6053659904003
 20
-2409.028547997284
 30
0.0
 10
-577.0806770862531
 20
-2408.59793457944
 30
0.0
 10
-572.0763513836841
 20
-2408.149169827437
 30
0.0
 10
-567.2991640250085
 20
-2407.658663679057
 30
0.0
 10
-563.1111955149693
 20
-2407.165377312435
 30
0.0
 10
-559.291746395274
 20
-2406.654483425198
 30
0.0
 10
-555.9423037446361
 20
-2406.150613193447
 30
0.0
 10
-552.7042441840014
 20
-2405.602923203181
 30
0.0
 10
-549.7782527893469
 20
-2405.042883795762
 30
0.0
 10
-547.0637030367349
 20
-2404.457495760994
 30
0.0
 10
-544.9372781156723
 20
-2403.964730319883
 30
0.0
 10
-543.1959853475496
 20
-2403.54728490211
 30
0.0
 10
-541.2117555386512
 20
-2403.063647859437
 30
0.0
 10
-538.6044354832735
 20
-2402.417686763133
 30
0.0
 10
-535.9116548927814
 20
-2401.75368076528
 30
0.0
 10
-533.7562805317376
 20
-2401.235047490957
 30
0.0
 10
-532.111376532783
 20
-2400.850276136376
 30
0.0
 10
-530.434732770528
 20
-2400.474287115936
 30
0.0
 10
-528.8211918958144
 20
-2400.130564173919
 30
0.0
 10
-527.2995689112806
 20
-2399.823890647049
 30
0.0
 10
-525.8959336906356
 20
-2399.561407750927
 30
0.0
 10
-524.5142982460636
 20
-2399.328020849219
 30
0.0
 10
-523.1498143459692
 20
-2399.124014928302
 30
0.0
 10
-521.7762138032165
 20
-2398.947987909794
 30
0.0
 10
-520.3932362522582
 20
-2398.801996734548
 30
0.0
 10
-519.0065717236914
 20
-2398.688516823968
 30
0.0
 10
-517.5183010561518
 20
-2398.596587919124
 30
0.0
 10
-515.9294816499885
 20
-2398.527383509278
 30
0.0
 10
-514.3551672234062
 20
-2398.482064891727
 30
0.0
 10
-512.8950147014318
 20
-2398.452615822685
 30
0.0
 10
-511.6781694022026
 20
-2398.435511390618
 30
0.0
 10
-510.5902419753784
 20
-2398.424487846811
 30
0.0
 10
-509.4680588090845
 20
-2398.415259845422
 30
0.0
 10
-508.1826594798895
 20
-2398.405583310436
 30
0.0
 10
-506.15036621941
 20
-2398.391782528838
 30
0.0
 10
-503.534378721694
 20
-2398.37669557851
 30
0.0
 10
-500.4248612908701
 20
-2398.363743555894
 30
0.0
 10
-497.4055037919256
 20
-2398.35635704481
 30
0.0
 10
-495.0458746064741
 20
-2398.354061034612
 30
0.0
 10
-493.255802302033
 20
-2398.35397224488
 30
0.0
 10
-490.7330342535608
 20
-2398.354610250408
 30
0.0
 10
-486.9080137903471
 20
-2398.356192271079
 30
0.0
 10
-481.694322620015
 20
-2398.357930081892
 30
0.0
 10
-476.3942134804016
 20
-2398.357413482438
 30
0.0
 10
-471.0163908147179
 20
-2398.356358260266
 30
0.0
 10
-465.6472723334293
 20
-2398.356611170008
 30
0.0
 10
-460.4460741399437
 20
-2398.357261578832
 30
0.0
 10
-455.4040916507788
 20
-2398.357473739376
 30
0.0
 10
-444.1670826054125
 20
-2398.357515735554
 30
0.0
 10
-426.5758313021603
 20
-2398.35770720439
 30
0.0
 10
-387.9282637644576
 20
-2398.358331651731
 30
0.0
 10
-334.0261709676003
 20
-2398.359074210028
 30
0.0
 10
-288.1059093365893
 20
-2398.359561305117
 30
0.0
 10
-264.869552886655
 20
-2398.3598077827
 30
0.0
 11
-863.4259377527259
 21
-2412.4686421596
 31
0.0
 11
-832.7271084859896
 21
-2412.464545594472
 31
0.0
 11
-802.0282832832402
 21
-2412.449238860381
 31
0.0
 11
-779.4473262031416
 21
-2412.426290621168
 31
0.0
 11
-756.8663918674621
 21
-2412.387661117622
 31
0.0
 11
-748.2602767456134
 21
-2412.367411791279
 31
0.0
 11
-739.6541734097614
 21
-2412.342687356082
 31
0.0
 11
-732.2931163714829
 21
-2412.316845844698
 31
0.0
 11
-724.9320832076111
 21
-2412.285130679835
 31
0.0
 11
-718.8176489825362
 21
-2412.253335460128
 31
0.0
 11
-712.7032426953197
 21
-2412.216497721137
 31
0.0
 11
-705.5743278151265
 21
-2412.167389109516
 31
0.0
 11
-698.4454584457303
 21
-2412.112037329202
 31
0.0
 11
-691.0777124274034
 21
-2412.048402621263
 31
0.0
 11
-683.7100384291828
 21
-2411.977048663008
 31
0.0
 11
-676.8486300688406
 21
-2411.902432463965
 31
0.0
 11
-669.9873192322237
 21
-2411.8192539053
 31
0.0
 11
-657.7359266515012
 21
-2411.646802476789
 31
0.0
 11
-645.4851277895585
 21
-2411.436725977108
 31
0.0
 11
-635.2357606068662
 21
-2411.224569349733
 31
0.0
 11
-624.9874368733442
 21
-2410.967548969214
 31
0.0
 11
-616.4862385234027
 21
-2410.71030718022
 31
0.0
 11
-607.9868278911292
 21
-2410.400457624702
 31
0.0
 11
-601.2673277341692
 21
-2410.109454201472
 31
0.0
 11
-594.5500930667026
 21
-2409.770331029014
 31
0.0
 11
-588.4291542985939
 21
-2409.412329452255
 31
0.0
 11
-582.3118568751912
 21
-2408.997299075441
 31
0.0
 11
-577.0815085126902
 21
-2408.58778178425
 31
0.0
 11
-571.8563187290329
 21
-2408.117362485423
 31
0.0
 11
-567.300372221891
 21
-2407.647332154233
 31
0.0
 11
-562.7520276500366
 21
-2407.10935267074
 31
0.0
 11
-559.2930660914681
 21
-2406.645069289743
 31
0.0
 11
-555.8421750628529
 21
-2406.124323778891
 31
0.0
 11
-552.7061863462984
 21
-2405.591659304715
 31
0.0
 11
-549.582592130299
 21
-2404.991545515335
 31
0.0
 11
-547.0651978481478
 21
-2404.451093443105
 31
0.0
 11
-544.5562420752331
 21
-2403.872104820814
 31
0.0
 11
-543.1961835730224
 21
-2403.546424917992
 31
0.0
 11
-541.8373949471454
 21
-2403.215605027206
 31
0.0
 11
-538.6043006745339
 21
-2402.418279280099
 31
0.0
 11
-535.3702974560011
 21
-2401.624483848889
 31
0.0
 11
-533.755868713338
 21
-2401.236755370404
 31
0.0
 11
-532.1390251989656
 21
-2400.859287138942
 31
0.0
 11
-530.4340695210698
 21
-2400.477336015513
 31
0.0
 11
-528.7251065099505
 21
-2400.113672397924
 31
0.0
 11
-527.2989002139817
 21
-2399.827221567983
 31
0.0
 11
-525.8688662175351
 21
-2399.56079138684
 31
0.0
 11
-524.5136135139852
 21
-2399.332302566268
 31
0.0
 11
-523.1542792881119
 21
-2399.129508978976
 31
0.0
 11
-521.7755983974553
 21
-2398.953113066838
 31
0.0
 11
-520.3933694484773
 21
-2398.807485263524
 31
0.0
 11
-519.0062673389214
 21
-2398.693138254568
 31
0.0
 11
-517.6170976802035
 21
-2398.606503852128
 31
0.0
 11
-515.92935269092
 21
-2398.531535225248
 31
0.0
 11
-514.240647602191
 21
-2398.481468921037
 31
0.0
 11
-512.894991564752
 21
-2398.453986314261
 31
0.0
 11
-511.5491925041887
 21
-2398.434726339507
 31
0.0
 11
-510.5902401501997
 21
-2398.424792996922
 31
0.0
 11
-509.6312679387919
 21
-2398.416690475194
 31
0.0
 11
-508.1826568741993
 21
-2398.405761300943
 31
0.0
 11
-506.7340421299327
 21
-2398.395900149771
 31
0.0
 11
-503.5343754132036
 21
-2398.37754983797
 31
0.0
 11
-500.334680410568
 21
-2398.36432505339
 31
0.0
 11
-497.4055025664429
 21
-2398.357076326253
 31
0.0
 11
-494.4763173014562
 21
-2398.354143282145
 31
0.0
 11
-493.2558024075492
 21
-2398.35403377921
 31
0.0
 11
-492.0352872459165
 21
-2398.354293482511
 31
0.0
 11
-486.9080133208495
 21
-2398.356123667337
 31
0.0
 11
-481.7807405423678
 21
-2398.357542228209
 31
0.0
 11
-476.3942136659353
 21
-2398.357324831205
 31
0.0
 11
-471.0076863699533
 21
-2398.356575526412
 31
0.0
 11
-465.6472722861481
 21
-2398.356680806513
 31
0.0
 11
-460.2868584114038
 21
-2398.35720390566
 31
0.0
 11
-455.4040916803314
 21
-2398.357442537287
 31
0.0
 11
-450.5213248564272
 21
-2398.357493958015
 31
0.0
 11
-426.5758312771106
 21
-2398.357728249125
 31
0.0
 11
-402.630337776803
 21
-2398.358089155719
 31
0.0
 11
-334.5786222361596
 21
-2398.359031093162
 31
0.0
 11
-264.869552886655
 21
-2398.3598077827
 31
0.0
  0
SPLINE
  5
A8
330
1F
100
AcDbEntity
  8
Predefinito
  6
Continuous
 62
     7
100
AcDbSpline
210
0.0
220
0.0
230
1.0
 70
     8
 71
     3
 72
     9
 73
     5
 74
     3
 42
0.0000000001
 43
0.0000000001
 44
0.00000001
 40
0.0
 40
0.0
 40
0.0
 40
0.0
 40
4.092509428670027
 40
8.18501885733911
 40
8.18501885733911
 40
8.18501885733911
 40
8.18501885733911
 10
-366.095371457851
 20
-2984.02376792442
 30
0.0
 10
-364.8353735980885
 20
-2983.40579254322
 30
0.0
 10
-362.3153778785636
 20
-2982.16984178082
 30
0.0
 10
-361.0341858317432
 20
-2979.67254330994
 30
0.0
 10
-360.393589808333
 20
-2978.4238940745
 30
0.0
 11
-366.095371457851
 21
-2984.02376792442
 31
0.0
 11
-362.6250787967395
 21
-2981.8545048537
 31
0.0
 11
-360.393589808333
 21
-2978.4238940745
 31
0.0
  0
SPLINE
  5
A9
330
1F
100
AcDbEntity
  8
Predefinito
  6
Continuous
 62
     7
100
AcDbSpline
210
0.0
220
0.0
230
1.0
 70
     8
 71
     3
 72
     9
 73
     5
 74
     3
 42
0.0000000001
 43
0.0000000001
 44
0.00000001
 40
0.0
 40
0.0
 40
0.0
 40
0.0
 40
8.003850185876386
 40
16.00770037174947
 40
16.00770037174947
 40
16.00770037174947
 40
16.00770037174947
 10
-264.869451386327
 20
-2388.35980778321
 30
0.0
 10
-261.8769874715109
 20
-2388.700673944451
 30
0.0
 10
-255.8920596418798
 20
-2389.382406266932
 30
0.0
 10
-255.2103884717299
 20
-2395.367341061998
 30
0.0
 10
-254.869552886655
 20
-2398.35980845953
 30
0.0
 11
-264.869451386327
 21
-2388.35980778321
 31
0.0
 11
-257.2178738067494
 21
-2390.708206885079
 31
0.0
 11
-254.869552886655
 21
-2398.35980845953
 31
0.0
  0
SPLINE
  5
AA
330
1F
100
AcDbEntity
  8
Predefinito
  6
Continuous
 62
     7
100
AcDbSpline
210
0.0
220
0.0
230
1.0
 70
    24
 71
     3
 72
     9
 73
     5
 74
     3
 42
0.0000000001
 43
0.0000000001
 44
0.00000001
 40
0.0
 40
0.0
 40
0.0
 40
0.0
 40
256.789150344158
 40
513.578300688311
 40
513.578300688311
 40
513.578300688311
 40
513.578300688311
 10
-254.869552886655
 20
-2398.35980845953
 30
0.0
 10
-254.8695586801375
 20
-2483.956191907582
 30
0.0
 10
-254.8695702671028
 20
-2655.148958803686
 30
0.0
 10
-254.8695818540676
 20
-2826.341725699789
 30
0.0
 10
-254.86958764755
 20
-2911.93810914784
 30
0.0
 11
-254.869552886655
 21
-2398.35980845953
 31
0.0
 11
-254.8695702671027
 21
-2655.148958803687
 31
0.0
 11
-254.86958764755
 21
-2911.93810914784
 31
0.0
  0
SPLINE
  5
AB
330
1F
100
AcDbEntity
  8
Predefinito
  6
Continuous
 62
     7
100
AcDbSpline
210
0.0
220
0.0
230
1.0
 70
    24
 71
     3
 72
     9
 73
     5
 74
     3
 42
0.0000000001
 43
0.0000000001
 44
0.00000001
 40
0.0
 40
0.0
 40
0.0
 40
0.0
 40
0.5798448924924742
 40
1.159689784969942
 40
1.159689784969942
 40
1.159689784969942
 40
1.159689784969942
 10
-863.425937752715
 20
-2413.62833194457
 30
0.0
 10
-863.4259377527183
 20
-2413.435050313739
 30
0.0
 10
-863.4259377527246
 20
-2413.048487052082
 30
0.0
 10
-863.4259377527258
 20
-2412.661923790426
 30
0.0
 10
-863.425937752726
 20
-2412.4686421596
 30
0.0
 11
-863.425937752715
 21
-2413.62833194457
 31
0.0
 11
-863.4259377527233
 21
-2413.048487052078
 31
0.0
 11
-863.425937752726
 21
-2412.4686421596
 31
0.0
  0
SPLINE
  5
AC
330
1F
100
AcDbEntity
  8
Predefinito
  6
Continuous
 62
     7
100
AcDbSpline
210
0.0
220
0.0
230
1.0
 70
    24
 71
     3
 72
     9
 73
     5
 74
     3
 42
0.0000000001
 43
0.0000000001
 44
0.00000001
 40
0.0
 40
0.0
 40
0.0
 40
0.0
 40
120.0
 40
240.0
 40
240.0
 40
240.0
 40
240.0
 10
-301.658260377582
 20
-2791.93713581406
 30
0.0
 10
-301.6582603775821
 20
-2831.937135814061
 30
0.0
 10
-301.6582603775819
 20
-2911.93713581406
 30
0.0
 10
-301.658260377582
 20
-2991.937135814061
 30
0.0
 10
-301.658260377582
 20
-3031.93713581406
 30
0.0
 11
-301.658260377582
 21
-2791.93713581406
 31
0.0
 11
-301.658260377582
 21
-2911.93713581406
 31
0.0
 11
-301.658260377582
 21
-3031.93713581406
 31
0.0
  0
SPLINE
  5
AD
330
1F
100
AcDbEntity
  8
tratteggio
  6
Tratteggiato
 62
   251
100
AcDbSpline
210
0.0
220
0.0
230
1.0
 70
    24
 71
     3
 72
     9
 73
     5
 74
     3
 42
0.0000000001
 43
0.0000000001
 44
0.00000001
 40
0.0
 40
0.0
 40
0.0
 40
0.0
 40
0.1036077425790076
 40
0.2072154851579583
 40
0.2072154851579583
 40
0.2072154851579583
 40
0.2072154851579583
 10
-345.597395307453
 20
-1536.49608588864
 30
0.0
 10
-345.6319312216431
 20
-1536.496085434104
 30
0.0
 10
-345.701003050023
 20
-1536.49608452503
 30
0.0
 10
-345.7700748784031
 20
-1536.496083615957
 30
0.0
 10
-345.804610792593
 20
-1536.49608316142
 30
0.0
 11
-345.597395307453
 21
-1536.49608588864
 31
0.0
 11
-345.701003050023
 21
-1536.49608452503
 31
0.0
 11
-345.804610792593
 21
-1536.49608316142
 31
0.0
  0
SPLINE
  5
AE
330
1F
100
AcDbEntity
  8
Predefinito
  6
Continuous
 62
     7
100
AcDbSpline
210
0.0
220
0.0
230
1.0
 70
    24
 71
     3
 72
     9
 73
     5
 74
     3
 42
0.0000000001
 43
0.0000000001
 44
0.00000001
 40
0.0
 40
0.0
 40
0.0
 40
0.0
 40
30.22785833555008
 40
60.45571667110016
 40
60.45571667110016
 40
60.45571667110016
 40
60.45571667110016
 10
-863.425937752714
 20
-1477.08540979929
 30
0.0
 10
-863.4259377527142
 20
-1487.161362577807
 30
0.0
 10
-863.4259377527139
 20
-1507.31326813484
 30
0.0
 10
-863.4259377527148
 20
-1527.465173691874
 30
0.0
 10
-863.425937752715
 20
-1537.54112647039
 30
0.0
 11
-863.425937752714
 21
-1477.08540979929
 31
0.0
 11
-863.4259377527143
 21
-1507.31326813484
 31
0.0
 11
-863.425937752715
 21
-1537.54112647039
 31
0.0
  0
SPLINE
  5
AF
330
1F
100
AcDbEntity
  8
Predefinito
  6
Continuous
 62
     7
100
AcDbSpline
210
0.0
220
0.0
230
1.0
 70
    24
 71
     3
 72
     9
 73
     5
 74
     3
 42
0.0000000001
 43
0.0000000001
 44
0.00000001
 40
0.0
 40
0.0
 40
0.0
 40
0.0
 40
510.3911912514579
 40
1020.782382502917
 40
1020.782382502917
 40
1020.782382502917
 40
1020.782382502917
 10
-524.673776662827
 20
-2401.5469172686
 30
0.0
 10
-524.6738074456579
 20
-2571.677314352416
 30
0.0
 10
-524.6738690113198
 20
-2911.938108520048
 30
0.0
 10
-524.6739305769819
 20
-3252.198902687683
 30
0.0
 10
-524.673961359813
 20
-3422.3292997715
 30
0.0
 11
-524.673776662827
 21
-2401.5469172686
 31
0.0
 11
-524.6738690113199
 21
-2911.938108520049
 31
0.0
 11
-524.673961359813
 21
-3422.3292997715
 31
0.0
  0
SPLINE
  5
B0
330
1F
100
AcDbEntity
  8
Predefinito
  6
Continuous
 62
     7
100
AcDbSpline
210
0.0
220
0.0
230
1.0
 70
     8
 71
     3
 72
    23
 73
    19
 74
    17
 42
0.0000000001
 43
0.0000000001
 44
0.00000001
 40
0.0
 40
0.0
 40
0.0
 40
0.0
 40
0.4951699433268471
 40
0.9905243802263957
 40
1.5128572163895
 40
2.03559573868703
 40
2.605119070006846
 40
3.175092230239568
 40
3.800912292813608
 40
4.426928411466578
 40
5.108706617867709
 40
5.790704276863001
 40
6.520181411713822
 40
7.249711884638673
 40
8.013873146013783
 40
8.778116434335614
 40
9.560296670764915
 40
10.34251096847089
 40
10.34251096847089
 40
10.34251096847089
 40
10.34251096847089
 10
-301.658260377582
 20
-2791.93713581406
 30
0.0
 10
-301.6658690814846
 20
-2791.771910340753
 30
0.0
 10
-301.6810893241892
 20
-2791.441397833381
 30
0.0
 10
-301.8035971592949
 20
-2790.949125363552
 30
0.0
 10
-301.9959364993681
 20
-2790.471554395786
 30
0.0
 10
-302.265881875857
 20
-2790.004001172538
 30
0.0
 10
-302.6031235933064
 20
-2789.562561465818
 30
0.0
 10
-303.01319475737
 20
-2789.138979050967
 30
0.0
 10
-303.4795356721641
 20
-2788.748321551747
 30
0.0
 10
-304.0118994922707
 20
-2788.383461372902
 30
0.0
 10
-304.5906045961341
 20
-2788.057671946648
 30
0.0
 10
-305.2250689324204
 20
-2787.765729049188
 30
0.0
 10
-305.8942899410068
 20
-2787.51593134811
 30
0.0
 10
-306.6057436216643
 20
-2787.30659360827
 30
0.0
 10
-307.3409776936201
 20
-2787.142833935301
 30
0.0
 10
-308.1025343054766
 20
-2787.02523042686
 30
0.0
 10
-308.8759265019348
 20
-2786.950787910721
 30
0.0
 10
-309.3974786338131
 20
-2786.941686579
 30
0.0
 10
-309.658260377582
 20
-2786.93713581406
 30
0.0
 11
-301.658260377582
 21
-2791.93713581406
 31
0.0
 11
-301.6973279956851
 21
-2791.443509443219
 31
0.0
 11
-301.8119932875466
 21
-2790.961609153741
 31
0.0
 11
-302.006936635666
 21
-2790.477017900459
 31
0.0
 11
-302.2669895233252
 21
-2790.023555599585
 31
0.0
 11
-302.6114035162504
 21
-2789.569974486227
 31
0.0
 11
-303.0066561626879
 21
-2789.159310695676
 31
0.0
 11
-303.4855374006614
 21
-2788.756416775844
 31
0.0
 11
-304.0011967209599
 21
-2788.401463756132
 31
0.0
 11
-304.5947203207655
 21
-2788.06597715551
 31
0.0
 11
-305.2137997286741
 21
-2787.779862679157
 31
0.0
 11
-305.8969884898848
 21
-2787.524147981055
 31
0.0
 11
-306.5966580823685
 21
-2787.317563440782
 31
0.0
 11
-307.3424686850807
 21
-2787.151103300603
 31
0.0
 11
-308.097576953715
 21
-2787.03329283254
 31
0.0
 11
-308.8764106824141
 21
-2786.961015966938
 31
0.0
 11
-309.658260377582
 21
-2786.93713581406
 31
0.0
  0
SPLINE
  5
B1
330
1F
100
AcDbEntity
  8
Predefinito
  6
Continuous
 62
     7
100
AcDbSpline
210
0.0
220
0.0
230
1.0
 70
     8
 71
     3
 72
     9
 73
     5
 74
     3
 42
0.0000000001
 43
0.0000000001
 44
0.00000001
 40
0.0
 40
0.0
 40
0.0
 40
0.0
 40
0.1806377703636219
 40
0.3612755407326667
 40
0.3612755407326667
 40
0.3612755407326667
 40
0.3612755407326667
 10
-359.836831670963
 20
-2976.44091716285
 30
0.0
 10
-359.826967643988
 20
-2976.381515175955
 30
0.0
 10
-359.8072395900375
 20
-2976.26271120216
 30
0.0
 10
-359.7906006224079
 20
-2976.143435366141
 30
0.0
 10
-359.782281138593
 20
-2976.08379744813
 30
0.0
 11
-359.836831670963
 21
-2976.44091716285
 31
0.0
 11
-359.808011861618
 21
-2976.262593236605
 31
0.0
 11
-359.782281138593
 21
-2976.08379744813
 31
0.0
  0
SPLINE
  5
B2
330
1F
100
AcDbEntity
  8
Predefinito
  6
Continuous
 62
     7
100
AcDbSpline
210
0.0
220
0.0
230
1.0
 70
    24
 71
     3
 72
     9
 73
     5
 74
     3
 42
0.0000000001
 43
0.0000000001
 44
0.00000001
 40
0.0
 40
0.0
 40
0.0
 40
0.0
 40
1.063112942290008
 40
2.126225884580016
 40
2.126225884580016
 40
2.126225884580016
 40
2.126225884580016
 10
-524.673776662827
 20
-2401.5469172686
 30
0.0
 10
-524.6737765987083
 20
-2401.192546287836
 30
0.0
 10
-524.673776470471
 20
-2400.48380432631
 30
0.0
 10
-524.6737763422336
 20
-2399.775062364783
 30
0.0
 10
-524.673776278115
 20
-2399.42069138402
 30
0.0
 11
-524.673776662827
 21
-2401.5469172686
 31
0.0
 11
-524.673776470471
 21
-2400.48380432631
 31
0.0
 11
-524.673776278115
 21
-2399.42069138402
 31
0.0
  0
SPLINE
  5
B3
330
1F
100
AcDbEntity
  8
tratteggio
  6
Tratteggiato
 62
   251
100
AcDbSpline
210
0.0
220
0.0
230
1.0
 70
    24
 71
     3
 72
     9
 73
     5
 74
     3
 42
0.0000000001
 43
0.0000000001
 44
0.00000001
 40
0.0
 40
0.0
 40
0.0
 40
0.0
 40
0.01214741767963
 40
0.024294835359816
 40
0.024294835359816
 40
0.024294835359816
 40
0.024294835359816
 10
-852.776580964572
 20
-2416.40723646584
 30
0.0
 10
-852.7726203087525
 20
-2416.408078329223
 30
0.0
 10
-852.7646989971138
 20
-2416.409762055991
 30
0.0
 10
-852.7567776854746
 20
-2416.411445782756
 30
0.0
 10
-852.752817029655
 20
-2416.41228764614
 30
0.0
 11
-852.776580964572
 21
-2416.40723646584
 31
0.0
 11
-852.7646989971138
 21
-2416.40976205599
 31
0.0
 11
-852.752817029655
 21
-2416.41228764614
 31
0.0
  0
SPLINE
  5
B4
330
1F
100
AcDbEntity
  8
Predefinito
  6
Continuous
 62
     7
100
AcDbSpline
210
0.0
220
0.0
230
1.0
 70
    24
 71
     3
 72
     9
 73
     5
 74
     3
 42
0.0000000001
 43
0.0000000001
 44
0.00000001
 40
0.0
 40
0.0
 40
0.0
 40
0.0
 40
75.0478293645001
 40
150.0956587290002
 40
150.0956587290002
 40
150.0956587290002
 40
150.0956587290002
 10
-381.577421171209
 20
-2986.95484570491
 30
0.0
 10
-381.577421171209
 20
-2961.93890258341
 30
0.0
 10
-381.5774211712089
 20
-2911.907016340409
 30
0.0
 10
-381.577421171209
 20
-2861.87513009741
 30
0.0
 10
-381.577421171209
 20
-2836.85918697591
 30
0.0
 11
-381.577421171209
 21
-2986.95484570491
 31
0.0
 11
-381.577421171209
 21
-2911.90701634041
 31
0.0
 11
-381.577421171209
 21
-2836.85918697591
 31
0.0
  0
SPLINE
  5
B5
330
1F
100
AcDbEntity
  8
Predefinito
  6
Continuous
 62
     7
100
AcDbSpline
210
0.0
220
0.0
230
1.0
 70
     8
 71
     3
 72
    15
 73
    11
 74
     9
 42
0.0000000001
 43
0.0000000001
 44
0.00000001
 40
0.0
 40
0.0
 40
0.0
 40
0.0
 40
0.2024887553320402
 40
0.4049771706895665
 40
0.5901306843982623
 40
0.7752841192992825
 40
1.096678271271092
 40
1.41807169911021
 40
1.987591075213944
 40
2.557100711688034
 40
2.557100711688034
 40
2.557100711688034
 40
2.557100711688034
 10
-370.462408128563
 20
-2985.08553835776
 30
0.0
 10
-370.3959063354556
 20
-2985.073994517759
 30
0.0
 10
-370.2629028608961
 20
-2985.050906857141
 30
0.0
 10
-370.0692009992982
 20
-2985.016633796095
 30
0.0
 10
-369.8812845203825
 20
-2984.982833329223
 30
0.0
 10
-369.6544976114809
 20
-2984.941252915827
 30
0.0
 10
-369.3832918107041
 20
-2984.890119140937
 30
0.0
 10
-368.9868120649359
 20
-2984.812007585129
 30
0.0
 10
-368.5101868226391
 20
-2984.712709712434
 30
0.0
 10
-368.1407170611975
 20
-2984.62520058176
 30
0.0
 10
-367.955983760111
 20
-2984.58144639056
 30
0.0
 11
-370.462408128563
 21
-2985.08553835776
 31
0.0
 11
-370.262921643224
 21
-2985.050798780863
 31
0.0
 11
-370.0635286692244
 21
-2985.015528392807
 31
0.0
 11
-369.8813030810608
 21
-2984.982731157297
 31
0.0
 11
-369.6991870571142
 21
-2984.949331332783
 31
0.0
 11
-369.3833752804949
 21
-2984.889689714175
 31
0.0
 11
-369.0680399401667
 21
-2984.827582076977
 31
0.0
 11
-368.5107499364867
 21
-2984.710193101533
 31
0.0
 11
-367.955983760111
 21
-2984.58144639056
 31
0.0
  0
SPLINE
  5
B6
330
1F
100
AcDbEntity
  8
Predefinito
  6
Continuous
 62
     7
100
AcDbSpline
210
0.0
220
0.0
230
1.0
 70
    24
 71
     3
 72
     9
 73
     5
 74
     3
 42
0.0000000001
 43
0.0000000001
 44
0.00000001
 40
0.0
 40
0.0
 40
0.0
 40
0.0
 40
249.1555265370453
 40
498.3110530740796
 40
498.3110530740796
 40
498.3110530740796
 40
498.3110530740796
 10
-863.425937752714
 20
-3410.2504380927
 30
0.0
 10
-863.4259377527147
 20
-3327.198595913685
 30
0.0
 10
-863.425937752716
 20
-3161.094911555657
 30
0.0
 10
-863.4259377527173
 20
-2994.991227197632
 30
0.0
 10
-863.425937752718
 20
-2911.93938501862
 30
0.0
 11
-863.425937752714
 21
-3410.2504380927
 31
0.0
 11
-863.425937752716
 21
-3161.094911555655
 31
0.0
 11
-863.425937752718
 21
-2911.93938501862
 31
0.0
  0
SPLINE
  5
B7
330
1F
100
AcDbEntity
  8
Predefinito
  6
Continuous
 62
     7
100
AcDbSpline
210
0.0
220
0.0
230
1.0
 70
    24
 71
     3
 72
     9
 73
     5
 74
     3
 42
0.0000000001
 43
0.0000000001
 44
0.00000001
 40
0.0
 40
0.0
 40
0.0
 40
0.0
 40
0.5785683448625605
 40
1.157136689730123
 40
1.157136689730123
 40
1.157136689730123
 40
1.157136689730123
 10
-863.425937752714
 20
-3410.2504380927
 30
0.0
 10
-863.4259377527142
 20
-3410.443294207654
 30
0.0
 10
-863.4259377527142
 20
-3410.829006437564
 30
0.0
 10
-863.4259377527138
 20
-3411.214718667473
 30
0.0
 10
-863.425937752714
 20
-3411.40757478243
 30
0.0
 11
-863.425937752714
 21
-3410.2504380927
 31
0.0
 11
-863.425937752714
 21
-3410.829006437562
 31
0.0
 11
-863.425937752714
 21
-3411.40757478243
 31
0.0
  0
SPLINE
  5
B8
330
1F
100
AcDbEntity
  8
Predefinito
  6
Continuous
 62
     7
100
AcDbSpline
210
0.0
220
0.0
230
1.0
 70
     8
 71
     3
 72
   101
 73
    97
 74
    95
 42
0.0000000001
 43
0.0000000001
 44
0.00000001
 40
0.0
 40
0.0
 40
0.0
 40
0.0
 40
37.01119258813092
 40
74.02238371699643
 40
88.70121099622932
 40
103.3800366501861
 40
112.7313289152939
 40
122.0826228192164
 40
127.6248197955395
 40
133.1670161737607
 40
150.7700152480361
 40
168.3730174543632
 40
183.9954581377821
 40
199.6178850705649
 40
207.4695727727887
 40
215.3212595811345
 40
222.0747875746205
 40
228.8283123548891
 40
232.1592149645332
 40
235.4901179327755
 40
238.3676697678506
 40
241.245219953099
 40
246.7414453311986
 40
252.2376728716946
 40
261.0056935871406
 40
269.7736563071722
 40
273.7051766848003
 40
277.6366904647337
 40
281.092824565248
 40
284.5489508072923
 40
286.2278700556224
 40
287.9067911550756
 40
289.4509658131527
 40
290.9951367277583
 40
293.9174619847928
 40
296.839793627773
 40
301.164457472279
 40
305.4889900898367
 40
307.4414348737255
 40
309.3938622849238
 40
311.1484591603684
 40
312.9030368382915
 40
314.4725242876971
 40
316.0420416099485
 40
317.0883647211633
 40
318.1346846184737
 40
318.9044586921274
 40
319.6742380318124
 40
322.2673504651927
 40
324.8604517785143
 40
326.3395232585577
 40
327.8185954714511
 40
329.0444195709606
 40
330.2702321162283
 40
331.4497388250106
 40
332.6292589053392
 40
334.4898135408936
 40
336.3503027148714
 40
337.3646451360277
 40
338.3789969198683
 40
340.4352062261446
 40
342.49135706653
 40
343.5240032842194
 40
344.5566548767938
 40
346.3190008069311
 40
348.0814014318334
 40
349.299134593599
 40
350.5168702408834
 40
351.4214237142286
 40
352.3259777923511
 40
353.2451997487317
 40
354.1644221596006
 40
354.9145069229444
 40
355.664592454817
 40
357.1332884676038
 40
358.6019828770828
 40
360.68907175625
 40
362.7761613151583
 40
364.8239159974917
 40
366.8716704830458
 40
368.4632440581627
 40
370.0548177967227
 40
373.691272875157
 40
377.3277283021122
 40
380.7072889137783
 40
384.0868494689263
 40
387.5292889094217
 40
390.9717283494252
 40
397.7192487064328
 40
404.4667691205956
 40
411.2647823620659
 40
418.0627955962975
 40
426.072851474109
 40
434.0829073555036
 40
516.8227362387518
 40
599.562565118452
 40
599.562565118452
 40
599.562565118452
 40
599.562565118452
 10
-863.426194223016
 20
-2402.46864216289
 30
0.0
 10
-851.0891299919231
 20
-2402.467781091656
 30
0.0
 10
-826.4150020161587
 20
-2402.46605894922
 30
0.0
 10
-796.8479344216489
 20
-2402.447701678635
 30
0.0
 10
-774.7250021687346
 20
-2402.420864917318
 30
0.0
 10
-761.8220383518751
 20
-2402.398921884331
 30
0.0
 10
-750.6949280260042
 20
-2402.374274232391
 30
0.0
 10
-742.6133632169299
 20
-2402.352248716772
 30
0.0
 10
-735.8015025022078
 20
-2402.330322536178
 30
0.0
 10
-726.2391057605977
 20
-2402.294316605209
 30
0.0
 10
-712.656549066762
 20
-2402.2225874161
 30
0.0
 10
-695.7142039627693
 20
-2402.094781941833
 30
0.0
 10
-679.4323242713282
 20
-2401.937849769052
 30
0.0
 10
-666.4011113625829
 20
-2401.776720798127
 30
0.0
 10
-655.960343640103
 20
-2401.620302034487
 30
0.0
 10
-648.4757866670153
 20
-2401.492951812287
 30
0.0
 10
-641.3575093426432
 20
-2401.356496580997
 30
0.0
 10
-635.7461596282498
 20
-2401.235260151985
 30
0.0
 10
-631.2756425817298
 20
-2401.129062023221
 30
0.0
 10
-628.0968753169695
 20
-2401.048526357128
 30
0.0
 10
-625.0693055395003
 20
-2400.966910413717
 30
0.0
 10
-621.3203949949776
 20
-2400.859682086098
 30
0.0
 10
-616.6992975935261
 20
-2400.715495852809
 30
0.0
 10
-610.1165407110879
 20
-2400.483566767057
 30
0.0
 10
-602.4455797830113
 20
-2400.167000549796
 30
0.0
 10
-595.2987506411736
 20
-2399.805290912323
 30
0.0
 10
-589.7646120864489
 20
-2399.480024806387
 30
0.0
 10
-585.9994023734062
 20
-2399.236403359646
 30
0.0
 10
-582.393889560145
 20
-2398.980062939076
 30
0.0
 10
-579.5387621492391
 20
-2398.757966377999
 30
0.0
 10
-577.2752728334251
 20
-2398.569443813707
 30
0.0
 10
-575.6474365279511
 20
-2398.42754262436
 30
0.0
 10
-574.0649073093679
 20
-2398.283256319303
 30
0.0
 10
-572.0703761236798
 20
-2398.093248772081
 30
0.0
 10
-569.6200009205334
 20
-2397.844415442544
 30
0.0
 10
-566.2508405142959
 20
-2397.470741232971
 30
0.0
 10
-562.4227690890457
 20
-2396.996282827591
 30
0.0
 10
-558.9245483460228
 20
-2396.493348978189
 30
0.0
 10
-556.2163685227042
 20
-2396.056498156012
 30
0.0
 10
-554.357838579934
 20
-2395.732545398868
 30
0.0
 10
-552.5688058950025
 20
-2395.395049344418
 30
0.0
 10
-550.9097755305716
 20
-2395.05785022713
 30
0.0
 10
-549.3159995425499
 20
-2394.710284047325
 30
0.0
 10
-547.9560192545549
 20
-2394.399109703711
 30
0.0
 10
-546.7676655795455
 20
-2394.119860493518
 30
0.0
 10
-545.8397150738654
 20
-2393.897838174134
 30
0.0
 10
-545.0020124466405
 20
-2393.694795187118
 30
0.0
 10
-543.6638203633271
 20
-2393.367836032387
 30
0.0
 10
-541.7364387644138
 20
-2392.891657142967
 30
0.0
 10
-539.5796809807496
 20
-2392.35815558394
 30
0.0
 10
-537.7822232253438
 20
-2391.918622357235
 30
0.0
 10
-536.4263530674137
 20
-2391.591983707353
 30
0.0
 10
-535.1511909132502
 20
-2391.290831181135
 30
0.0
 10
-533.9717113738566
 20
-2391.019041855604
 30
0.0
 10
-532.8055021941891
 20
-2390.758511919422
 30
0.0
 10
-531.4308037475713
 20
-2390.460947147767
 30
0.0
 10
-529.8313009684592
 20
-2390.129111437059
 30
0.0
 10
-528.2810500701496
 20
-2389.831558488246
 30
0.0
 10
-527.0043638795589
 20
-2389.606216804955
 30
0.0
 10
-525.6607916937562
 20
-2389.385004947336
 30
0.0
 10
-523.9694273414955
 20
-2389.139348648588
 30
0.0
 10
-522.2658451837251
 20
-2388.939565524675
 30
0.0
 10
-520.8981140362174
 20
-2388.809949110858
 30
0.0
 10
-519.6263097487546
 20
-2388.707540692698
 30
0.0
 10
-518.109996215268
 20
-2388.613083031817
 30
0.0
 10
-516.5306123471378
 20
-2388.544005280867
 30
0.0
 10
-515.1320124893648
 20
-2388.499585056602
 30
0.0
 10
-514.0189817809492
 20
-2388.472928383309
 30
0.0
 10
-513.010211280463
 20
-2388.453899814424
 30
0.0
 10
-512.1008676725237
 20
-2388.440291109336
 30
0.0
 10
-511.1865937516238
 20
-2388.429797700359
 30
0.0
 10
-510.3237865399536
 20
-2388.421894911597
 30
0.0
 10
-509.5173489912569
 20
-2388.415328416796
 30
0.0
 10
-508.5277548283537
 20
-2388.407887149018
 30
0.0
 10
-507.2986264435874
 20
-2388.39924897885
 30
0.0
 10
-505.6238338993202
 20
-2388.388577424733
 30
0.0
 10
-503.7429051641261
 20
-2388.378097814681
 30
0.0
 10
-501.6689483502068
 20
-2388.368695900884
 30
0.0
 10
-499.6080936461755
 20
-2388.361674140494
 30
0.0
 10
-497.7124040150952
 20
-2388.357310335296
 30
0.0
 10
-495.9687714543536
 20
-2388.354993316085
 30
0.0
 10
-493.695570989052
 20
-2388.353525636309
 30
0.0
 10
-490.7407425817804
 20
-2388.35411847819
 30
0.0
 10
-487.189919629251
 20
-2388.356350909369
 30
0.0
 10
-483.7247275356506
 20
-2388.357455978395
 30
0.0
 10
-480.3242073215717
 20
-2388.3577078598
 30
0.0
 10
-476.9027275245103
 20
-2388.357300988583
 30
0.0
 10
-472.3585945007648
 20
-2388.356578220581
 30
0.0
 10
-466.7127677321146
 20
-2388.356636912902
 30
0.0
 10
-459.9484164280799
 20
-2388.357259244583
 30
0.0
 10
-453.167234129514
 20
-2388.357466566967
 30
0.0
 10
-445.9652066792548
 20
-2388.357490246253
 30
0.0
 10
-438.3591650148901
 20
-2388.357573995045
 30
0.0
 10
-405.4391848047576
 20
-2388.358070660385
 30
0.0
 10
-347.6092802621588
 20
-2388.358896835687
 30
0.0
 10
-292.4493943445434
 20
-2388.359504134035
 30
0.0
 10
-264.869451386327
 20
-2388.35980778321
 30
0.0
 11
-863.426194223016
 21
-2402.46864216289
 31
0.0
 11
-826.4150021183959
 21
-2402.462659635801
 31
0.0
 11
-789.4038193057986
 21
-2402.437848551317
 31
0.0
 11
-774.7250032802411
 21
-2402.419672154833
 31
0.0
 11
-760.0461994432661
 21
-2402.394364154792
 31
0.0
 11
-750.6949305008205
 21
-2402.373478908382
 31
0.0
 11
-741.3436717924282
 21
-2402.347822598171
 31
0.0
 11
-735.801504062367
 21
-2402.329817703425
 31
0.0
 11
-730.2593475983613
 21
-2402.308783843898
 31
0.0
 11
-712.65659331806
 21
-2402.215949818469
 31
0.0
 11
-695.0540909932232
 21
-2402.083290178517
 31
0.0
 11
-679.4323950206482
 21
-2401.930752159072
 31
0.0
 11
-663.811186670889
 21
-2401.73562921437
 31
0.0
 11
-655.9603855157907
 21
-2401.617641942346
 31
0.0
 11
-648.1098413475537
 21
-2401.483694195403
 31
0.0
 11
-641.3575634693591
 21
-2401.353756462456
 31
0.0
 11
-634.6056251993772
 21
-2401.207378335485
 31
0.0
 11
-631.2756641345243
 21
-2401.128185523326
 31
0.0
 11
-627.9458319356179
 21
-2401.043733696989
 31
0.0
 11
-625.0693269293655
 21
-2400.966122405614
 31
0.0
 11
-622.1929550265265
 21
-2400.883783197567
 31
0.0
 11
-616.6994207905318
 21
-2400.711809348334
 31
0.0
 11
-611.2066214010232
 21
-2400.517716474893
 31
0.0
 11
-602.44617320415
 21
-2400.153388797671
 31
0.0
 11
-593.6895604062217
 21
-2399.707403857316
 31
0.0
 11
-589.7648464569628
 21
-2399.476161784593
 31
0.0
 11
-585.8415733375455
 21
-2399.221743561457
 31
0.0
 11
-582.3941698495021
 21
-2398.976239770521
 31
0.0
 11
-578.9484843520756
 21
-2398.707799732947
 31
0.0
 11
-577.2753648377101
 21
-2398.568368986474
 31
0.0
 11
-575.6027934440929
 21
-2398.42248892806
 31
0.0
 11
-574.0650030722835
 21
-2398.282217238051
 31
0.0
 11
-572.5277978041814
 21
-2398.135712025744
 31
0.0
 11
-569.6204795680167
 21
-2397.839932409196
 31
0.0
 11
-566.7160173596033
 21
-2397.517253758737
 31
0.0
 11
-562.4245602436163
 21
-2396.982358264625
 31
0.0
 11
-558.144464901711
 21
-2396.364000581304
 31
0.0
 11
-556.2170390973722
 21
-2396.052439346707
 31
0.0
 11
-554.2937232739115
 21
-2395.716539005498
 31
0.0
 11
-552.5695880710025
 21
-2395.391011744873
 31
0.0
 11
-550.8502201801181
 21
-2395.041273437475
 31
0.0
 11
-549.3165954667048
 21
-2394.70767773569
 31
0.0
 11
-547.7864313303371
 21
-2394.358418032
 31
0.0
 11
-546.7678272516297
 21
-2394.119173838961
 31
0.0
 11
-545.7502023909589
 21
-2393.875812029196
 31
0.0
 11
-545.0020699716323
 21
-2393.694566318565
 31
0.0
 11
-544.2542670796201
 21
-2393.511943574899
 31
0.0
 11
-541.7364650059169
 21
-2392.891536603785
 31
0.0
 11
-539.2188508416953
 21
-2392.270413957876
 31
0.0
 11
-537.7820240744647
 21
-2391.919442044402
 31
0.0
 11
-536.3440040281781
 21
-2391.57338864183
 31
0.0
 11
-535.1509340586946
 21
-2391.291912584492
 31
0.0
 11
-533.9563616736592
 21
-2391.016934016151
 31
0.0
 11
-532.8052274509813
 21
-2390.759784103761
 31
0.0
 11
-531.6524029615074
 21
-2390.51025792003
 31
0.0
 11
-529.8303639780702
 21
-2390.133644730247
 31
0.0
 11
-528.0029704132085
 21
-2389.784284278006
 31
0.0
 11
-527.0040394576502
 21
-2389.608138050727
 31
0.0
 11
-526.0031354711243
 21
-2389.443514992994
 31
0.0
 11
-523.9681726626607
 21
-2389.148687790404
 31
0.0
 11
-521.9259315471469
 21
-2388.909925346702
 31
0.0
 11
-520.8979034547438
 21
-2388.812373042075
 31
0.0
 11
-519.8685936035001
 21
-2388.729363754767
 31
0.0
 11
-518.1097373889708
 21
-2388.618512529773
 31
0.0
 11
-516.3490764587125
 21
-2388.540224271916
 31
0.0
 11
-515.1319697661371
 21
-2388.501168514953
 31
0.0
 11
-513.9145928463439
 21
-2388.471612774023
 31
0.0
 11
-513.010201503953
 21
-2388.454487180623
 31
0.0
 11
-512.1057496910331
 21
-2388.440885770624
 31
0.0
 11
-511.1865903971112
 21
-2388.430152761299
 31
0.0
 11
-510.2674082419093
 21
-2388.421550075556
 31
0.0
 11
-509.5173486400832
 21
-2388.415406305617
 31
0.0
 11
-508.7672845874952
 21
-2388.409729850763
 31
0.0
 11
-507.2986248347674
 21
-2388.399409545846
 31
0.0
 11
-505.8299602313356
 21
-2388.39005267344
 31
0.0
 11
-503.7429035539232
 21
-2388.378458933234
 31
0.0
 11
-501.6558352853044
 21
-2388.369031896132
 31
0.0
 11
-499.6080925009285
 21
-2388.362051347816
 31
0.0
 11
-497.5603434488822
 21
-2388.357334044487
 31
0.0
 11
-495.9687713388082
 21
-2388.355174543434
 31
0.0
 11
-494.377197961362
 21
-2388.354102406163
 31
0.0
 11
-490.740742893365
 21
-2388.354377922855
 31
0.0
 11
-487.1042879279722
 21
-2388.356210107796
 31
0.0
 11
-483.7247274979254
 21
-2388.35731807311
 31
0.0
 11
-480.3451669544207
 21
-2388.357598606674
 31
0.0
 11
-476.9027275288587
 21
-2388.357277959544
 31
0.0
 11
-473.460288119432
 21
-2388.356819138191
 31
0.0
 11
-466.7127677630307
 21
-2388.356728685902
 31
0.0
 11
-459.9652473645604
 21
-2388.357188871957
 31
0.0
 11
-453.1672341275694
 21
-2388.357435652631
 31
0.0
 11
-446.3692208936142
 21
-2388.357496951841
 31
0.0
 11
-438.3591650162273
 21
-2388.357579436842
 31
0.0
 11
-430.3491091356615
 21
-2388.357694654434
 31
0.0
 11
-347.6092802605028
 21
-2388.358851652619
 31
0.0
 11
-264.869451386327
 21
-2388.35980778321
 31
0.0
  0
SPLINE
  5
B9
330
1F
100
AcDbEntity
  8
Predefinito
  6
Continuous
 62
     7
100
AcDbSpline
210
0.0
220
0.0
230
1.0
 70
     8
 71
     3
 72
    23
 73
    19
 74
    17
 42
0.0000000001
 43
0.0000000001
 44
0.00000001
 40
0.0
 40
0.0
 40
0.0
 40
0.0
 40
0.782209007177705
 40
1.564384137483975
 40
2.32863672604181
 40
3.09280717137307
 40
3.822328384353216
 40
4.551796273287941
 40
5.23379653793826
 40
5.915577483341962
 40
6.541592806763091
 40
7.167411773397134
 40
7.737389831367409
 40
8.306918505039453
 40
8.829652326317648
 40
9.351979924750738
 40
9.847337243392847
 40
10.34251053690254
 40
10.34251053690254
 40
10.34251053690254
 40
10.34251053690254
 10
-309.658260377582
 20
-3036.93713581406
 30
0.0
 10
-309.3974803786318
 20
-3036.932585474889
 30
0.0
 10
-308.8759316749129
 20
-3036.923484993617
 30
0.0
 10
-308.1025399935753
 20
-3036.849040946881
 30
0.0
 10
-307.3409787454775
 20
-3036.731438580959
 30
0.0
 10
-306.6057413340533
 20
-3036.567679459545
 30
0.0
 10
-305.8942909370658
 20
-3036.35834148739
 30
0.0
 10
-305.2250752587693
 20
-3036.108544772214
 30
0.0
 10
-304.5906119630463
 20
-3035.816602769318
 30
0.0
 10
-304.0119051335058
 20
-3035.490813346019
 30
0.0
 10
-303.4795402494153
 20
-3035.125954244225
 30
0.0
 10
-303.0131979993407
 20
-3034.735296673904
 30
0.0
 10
-302.6031259358444
 20
-3034.311710776882
 30
0.0
 10
-302.2658843799127
 20
-3033.870268731548
 30
0.0
 10
-301.9959379593656
 20
-3033.402718084221
 30
0.0
 10
-301.8035970307685
 20
-3032.925150091244
 30
0.0
 10
-301.6810912475985
 20
-3032.432876784161
 30
0.0
 10
-301.665869724947
 20
-3032.102362335951
 30
0.0
 10
-301.658260377582
 20
-3031.93713581406
 30
0.0
 11
-309.658260377582
 21
-3036.93713581406
 31
0.0
 11
-308.8764159483111
 21
-3036.913256548408
 31
0.0
 11
-308.0975873473802
 21
-3036.840979685986
 31
0.0
 11
-307.3424696978786
 21
-3036.723169013598
 31
0.0
 11
-306.596649947627
 21
-3036.556707697815
 31
0.0
 11
-305.8969894680299
 21
-3036.35012499409
 31
0.0
 11
-305.2138096047565
 21
-3036.094412899334
 31
0.0
 11
-304.5947276977734
 21
-3035.80829761937
 31
0.0
 11
-304.0012012783764
 21
-3035.472810440787
 31
0.0
 11
-303.4855419260662
 21
-3035.1178588701
 31
0.0
 11
-303.0066611986456
 21
-3034.714966045761
 31
0.0
 11
-302.6114060537908
 21
-3034.304297862146
 31
0.0
 11
-302.2669896555579
 21
-3033.850711867253
 31
0.0
 11
-302.0069377859876
 21
-3033.397254401727
 31
0.0
 11
-301.8119947285655
 21
-3032.912668677167
 31
0.0
 11
-301.6973293988024
 21
-3032.430765434511
 31
0.0
 11
-301.658260377582
 21
-3031.93713581406
 31
0.0
  0
SPLINE
  5
BA
330
1F
100
AcDbEntity
  8
Predefinito
  6
Continuous
 62
     7
100
AcDbSpline
210
0.0
220
0.0
230
1.0
 70
    24
 71
     3
 72
     9
 73
     5
 74
     3
 42
0.0000000001
 43
0.0000000001
 44
0.00000001
 40
0.0
 40
0.0
 40
0.0
 40
0.0
 40
169.10504880364
 40
338.21009760728
 40
338.21009760728
 40
338.21009760728
 40
338.21009760728
 10
-525.215840145435
 20
-2413.62833194458
 30
0.0
 10
-581.5841897466483
 20
-2413.62833194458
 30
0.0
 10
-694.320888949075
 20
-2413.628331944578
 30
0.0
 10
-807.0575881515017
 20
-2413.628331944573
 30
0.0
 10
-863.425937752715
 20
-2413.62833194457
 30
0.0
 11
-525.215840145435
 21
-2413.62833194458
 31
0.0
 11
-694.320888949075
 21
-2413.628331944577
 31
0.0
 11
-863.425937752715
 21
-2413.62833194457
 31
0.0
  0
SPLINE
  5
BB
330
1F
100
AcDbEntity
  8
Predefinito
  6
Continuous
 62
     7
100
AcDbSpline
210
0.0
220
0.0
230
1.0
 70
     8
 71
     3
 72
     9
 73
     5
 74
     3
 42
0.0000000001
 43
0.0000000001
 44
0.00000001
 40
0.0
 40
0.0
 40
0.0
 40
0.0
 40
0.3451987625017773
 40
0.6903975250019225
 40
0.6903975250019225
 40
0.6903975250019225
 40
0.6903975250019225
 10
-359.836593575906
 20
-2847.3743417893
 30
0.0
 10
-359.8569928070364
 20
-2847.26107614687
 30
0.0
 10
-359.8977912692969
 20
-2847.03454486201
 30
0.0
 10
-359.9503303723783
 20
-2846.81044537475
 30
0.0
 10
-359.976599923919
 20
-2846.69839563112
 30
0.0
 11
-359.836593575906
 21
-2847.3743417893
 31
0.0
 11
-359.9007264295022
 21
-2847.03515281141
 31
0.0
 11
-359.976599923919
 21
-2846.69839563112
 31
0.0
  0
LWPOLYLINE
  5
BC
330
1F
100
AcDbEntity
  8
Predefinito
  6
Continuous
 62
     7
100
AcDbPolyline
 90
        2
 70
     0
 43
0.0
 10
-863.425937752714
 20
-1476.56561120606
 10
-609.684838426265
 20
-1475.8124915597
  0
LWPOLYLINE
  5
BD
330
1F
100
AcDbEntity
  8
Predefinito
  6
Continuous
 62
     7
100
AcDbPolyline
 90
        2
 70
     0
 43
0.0
 10
-561.795494618414
 20
-1453.17078855773
 10
-529.384847656106
 20
-1417.9031671105
  0
LWPOLYLINE
  5
BE
330
1F
100
AcDbEntity
  8
Predefinito
  6
Continuous
 62
     7
100
AcDbPolyline
 90
        2
 70
     0
 43
0.0
 10
-512.374536232774
 20
-1410.05585879338
 10
-264.869552844472
 20
-1409.66922969013
  0
LWPOLYLINE
  5
BF
330
1F
100
AcDbEntity
  8
Predefinito
  6
Continuous
 62
     7
100
AcDbPolyline
 90
        2
 70
     0
 43
0.0
 10
-1185.60929667849
 20
-1536.48975145658
 10
-1175.60929667849
 20
-1536.48975145658
  0
LWPOLYLINE
  5
C0
330
1F
100
AcDbEntity
  8
Predefinito
  6
Continuous
 62
     7
100
AcDbPolyline
 90
        2
 70
     0
 43
0.0
 10
-1148.87373749347
 20
-1410.70883472102
 10
-1158.62877158807
 20
-1409.64209066059
  0
LWPOLYLINE
  5
C1
330
1F
100
AcDbEntity
  8
Predefinito
  6
Continuous
 62
     7
100
AcDbPolyline
 90
        2
 70
     0
 43
0.0
 10
-2195.34889868408
 20
-1410.70883476645
 10
-2185.79108054131
 20
-1409.66906595456
  0
LWPOLYLINE
  5
C2
330
1F
100
AcDbEntity
  8
Predefinito
  6
Continuous
 62
     7
100
AcDbPolyline
 90
        2
 70
     0
 43
0.0
 10
-264.869552844472
 20
-1409.66922969013
 10
-255.846950123463
 20
-1410.70883668717
  0
MTEXT
  5
E6
330
1F
100
AcDbEntity
  8
1
 62
     2
100
AcDbMText
 10
-75.38743161664297
 20
-1801.6033057384
 30
0.0
 40
55.0
 41
0.0
 71
     5
 72
     1
  1
86
  7
CONVERTER_11
 11
0.0
 21
1.0
 31
0.0
 73
     1
 44
1.32052821128451
  0
MTEXT
  5
E7
330
1F
100
AcDbEntity
  8
1
 62
     2
100
AcDbMText
 10
-1049.10423361613
 20
-1805.4202445318
 30
0.0
 40
55.0
 41
0.0
 71
     5
 72
     1
  1
78
  7
CONVERTER_11
 11
0.0
 21
1.0
 31
0.0
 73
     1
 44
1.32052821128451
  0
MTEXT
  5
E8
330
1F
100
AcDbEntity
  8
1
 62
     2
100
AcDbMText
 10
-1678.70899510344
 20
-1261.88584015604
 30
0.0
 40
55.0
 41
0.0
 71
     5
 72
     1
  1
106
  7
CONVERTER_11
 73
     1
 44
1.32052821128451
  0
ENDSEC
  0
SECTION
  2
OBJECTS
  0
DICTIONARY
  5
C
330
0
100
AcDbDictionary
281
     1
  3
ACAD_GROUP
350
D
  3
ACAD_LAYOUT
350
1A
  3
ACAD_MATERIAL
350
3B
  3
ACAD_MLEADERSTYLE
350
EB
  3
ACAD_MLINESTYLE
350
17
  3
ACAD_PLOTSETTINGS
350
19
  3
ACAD_PLOTSTYLENAME
350
E
  3
ACAD_SCALELIST
350
C4
  3
ACAD_VISUALSTYLE
350
2A
  3
AcDbVariableDictionary
350
E9
  0
DICTIONARY
  5
D
102
{ACAD_REACTORS
330
C
102
}
330
C
100
AcDbDictionary
281
     1
  0
DICTIONARY
  5
1A
102
{ACAD_REACTORS
330
C
102
}
330
C
100
AcDbDictionary
281
     1
  3
Layout1
350
1E
  3
Layout2
350
26
  3
Model
350
22
  0
DICTIONARY
  5
3B
102
{ACAD_REACTORS
330
C
102
}
330
C
100
AcDbDictionary
281
     1
  3
ByBlock
350
3D
  3
ByLayer
350
3C
  3
Global
350
3E
  0
DICTIONARY
  5
EB
102
{ACAD_REACTORS
330
C
102
}
330
C
100
AcDbDictionary
281
     1
  0
DICTIONARY
  5
17
102
{ACAD_REACTORS
330
C
102
}
330
C
100
AcDbDictionary
281
     1
  3
Standard
350
18
  0
DICTIONARY
  5
19
102
{ACAD_REACTORS
330
C
102
}
330
C
100
AcDbDictionary
281
     1
  0
ACDBDICTIONARYWDFLT
  5
E
102
{ACAD_REACTORS
330
C
102
}
330
C
100
AcDbDictionary
281
     1
  3
Normal
350
F
100
AcDbDictionaryWithDefault
340
F
  0
DICTIONARY
  5
C4
102
{ACAD_REACTORS
330
C
102
}
330
C
100
AcDbDictionary
281
     1
  3
A0
350
C5
  3
A1
350
C6
  3
A2
350
C7
  3
A3
350
C8
  3
A4
350
C9
  3
A5
350
CA
  3
A6
350
CB
  3
A7
350
CC
  3
A8
350
CD
  3
A9
350
CE
  3
B0
350
CF
  3
B1
350
D0
  3
B2
350
D1
  3
B3
350
D2
  3
B4
350
D3
  3
B5
350
D4
  3
B6
350
D5
  3
B7
350
D6
  3
B8
350
D7
  3
B9
350
D8
  3
C0
350
D9
  3
C1
350
DA
  3
C2
350
DB
  3
C3
350
DC
  3
C4
350
DD
  3
C5
350
DE
  3
C6
350
DF
  3
C7
350
E0
  3
C8
350
E1
  3
C9
350
E2
  3
D0
350
E3
  3
D1
350
E4
  3
D2
350
E5
  0
DICTIONARY
  5
2A
102
{ACAD_REACTORS
330
C
102
}
330
C
100
AcDbDictionary
281
     1
  3
2dWireframe
350
2F
  3
3D Hidden
350
31
  3
3dWireframe
350
30
  3
Basic
350
32
  3
Brighten
350
36
  3
ColorChange
350
3A
  3
Conceptual
350
34
  3
Dim
350
35
  3
Facepattern
350
39
  3
Flat
350
2B
  3
FlatWithEdges
350
2C
  3
Gouraud
350
2D
  3
GouraudWithEdges
350
2E
  3
Linepattern
350
38
  3
Realistic
350
33
  3
Thicken
350
37
  0
DICTIONARY
  5
E9
102
{ACAD_REACTORS
330
C
102
}
330
C
100
AcDbDictionary
281
     1
  3
CANNOSCALE
350
EC
  3
DIMASSOC
350
ED
  3
HIDETEXT
350
EE
  0
LAYOUT
  5
1E
102
{ACAD_REACTORS
330
1A
102
}
330
1A
100
AcDbPlotSettings
  1

  2
none_device
  4

  6

 40
0.0
 41
0.0
 42
0.0
 43
0.0
 44
0.0
 45
0.0
 46
0.0
 47
0.0
 48
0.0
 49
0.0
140
0.0
141
0.0
142
1.0
143
1.0
 70
   688
 72
     0
 73
     0
 74
     5
  7

 75
    16
147
1.0
148
0.0
149
0.0
100
AcDbLayout
  1
Layout1
 70
     1
 71
     1
 10
0.0
 20
0.0
 11
12.0
 21
9.0
 12
0.0
 22
0.0
 32
0.0
 14
1.00000000000000E+20
 24
1.00000000000000E+20
 34
1.00000000000000E+20
 15
-1.00000000000000E+20
 25
-1.00000000000000E+20
 35
-1.00000000000000E+20
146
0.0
 13
0.0
 23
0.0
 33
0.0
 16
1.0
 26
0.0
 36
0.0
 17
0.0
 27
1.0
 37
0.0
 76
     0
330
1B
  0
LAYOUT
  5
26
102
{ACAD_REACTORS
330
1A
102
}
330
1A
100
AcDbPlotSettings
  1

  2
none_device
  4

  6

 40
0.0
 41
0.0
 42
0.0
 43
0.0
 44
0.0
 45
0.0
 46
0.0
 47
0.0
 48
0.0
 49
0.0
140
0.0
141
0.0
142
1.0
143
1.0
 70
   688
 72
     0
 73
     0
 74
     5
  7

 75
    16
147
1.0
148
0.0
149
0.0
100
AcDbLayout
  1
Layout2
 70
     1
 71
     2
 10
0.0
 20
0.0
 11
0.0
 21
0.0
 12
0.0
 22
0.0
 32
0.0
 14
0.0
 24
0.0
 34
0.0
 15
0.0
 25
0.0
 35
0.0
146
0.0
 13
0.0
 23
0.0
 33
0.0
 16
1.0
 26
0.0
 36
0.0
 17
0.0
 27
1.0
 37
0.0
 76
     0
330
23
  0
LAYOUT
  5
22
102
{ACAD_REACTORS
330
1A
102
}
330
1A
100
AcDbPlotSettings
  1

  2
none_device
  4

  6

 40
0.0
 41
0.0
 42
0.0
 43
0.0
 44
0.0
 45
0.0
 46
0.0
 47
0.0
 48
0.0
 49
0.0
140
0.0
141
0.0
142
1.0
143
1.0
 70
  1712
 72
     0
 73
     0
 74
     0
  7

 75
     0
147
1.0
148
0.0
149
0.0
100
AcDbLayout
  1
Model
 70
     1
 71
     0
 10
0.0
 20
0.0
 11
12.0
 21
9.0
 12
0.0
 22
0.0
 32
0.0
 14
-2213.546978554
 24
-3438.51573042545
 34
0.0
 15
-7.72656745855511
 25
-1234.38584015604
 35
0.0
146
0.0
 13
0.0
 23
0.0
 33
0.0
 16
1.0
 26
0.0
 36
0.0
 17
0.0
 27
1.0
 37
0.0
 76
     0
330
1F
331
29
  0
MATERIAL
  5
3D
102
{ACAD_REACTORS
330
3B
102
}
102
{ACAD_XDICTIONARY
360
111
102
}
330
3B
100
AcDbMaterial
  1
ByBlock
  0
MATERIAL
  5
3C
102
{ACAD_REACTORS
330
3B
102
}
102
{ACAD_XDICTIONARY
360
10F
102
}
330
3B
100
AcDbMaterial
  1
ByLayer
  0
MATERIAL
  5
3E
102
{ACAD_REACTORS
330
3B
102
}
102
{ACAD_XDICTIONARY
360
113
102
}
330
3B
100
AcDbMaterial
  1
Global
  0
MLINESTYLE
  5
18
102
{ACAD_REACTORS
330
17
102
}
330
17
100
AcDbMlineStyle
  2
Standard
 70
     0
  3

 62
   256
 51
90.0
 52
90.0
 71
     2
 49
0.5
 62
   256
  6
BYLAYER
 49
-0.5
 62
   256
  6
BYLAYER
  0
ACDBPLACEHOLDER
  5
F
102
{ACAD_REACTORS
330
E
102
}
330
E
  0
SCALE
  5
C5
102
{ACAD_REACTORS
330
C4
102
}
330
C4
100
AcDbScale
 70
     0
300
1:1
140
1.0
141
1.0
290
     1
  0
SCALE
  5
C6
102
{ACAD_REACTORS
330
C4
102
}
330
C4
100
AcDbScale
 70
     0
300
1:2
140
1.0
141
2.0
290
     0
  0
SCALE
  5
C7
102
{ACAD_REACTORS
330
C4
102
}
330
C4
100
AcDbScale
 70
     0
300
1:4
140
1.0
141
4.0
290
     0
  0
SCALE
  5
C8
102
{ACAD_REACTORS
330
C4
102
}
330
C4
100
AcDbScale
 70
     0
300
1:5
140
1.0
141
5.0
290
     0
  0
SCALE
  5
C9
102
{ACAD_REACTORS
330
C4
102
}
330
C4
100
AcDbScale
 70
     0
300
1:8
140
1.0
141
8.0
290
     0
  0
SCALE
  5
CA
102
{ACAD_REACTORS
330
C4
102
}
330
C4
100
AcDbScale
 70
     0
300
1:10
140
1.0
141
10.0
290
     0
  0
SCALE
  5
CB
102
{ACAD_REACTORS
330
C4
102
}
330
C4
100
AcDbScale
 70
     0
300
1:16
140
1.0
141
16.0
290
     0
  0
SCALE
  5
CC
102
{ACAD_REACTORS
330
C4
102
}
330
C4
100
AcDbScale
 70
     0
300
1:20
140
1.0
141
20.0
290
     0
  0
SCALE
  5
CD
102
{ACAD_REACTORS
330
C4
102
}
330
C4
100
AcDbScale
 70
     0
300
1:30
140
1.0
141
30.0
290
     0
  0
SCALE
  5
CE
102
{ACAD_REACTORS
330
C4
102
}
330
C4
100
AcDbScale
 70
     0
300
1:40
140
1.0
141
40.0
290
     0
  0
SCALE
  5
CF
102
{ACAD_REACTORS
330
C4
102
}
330
C4
100
AcDbScale
 70
     0
300
1:50
140
1.0
141
50.0
290
     0
  0
SCALE
  5
D0
102
{ACAD_REACTORS
330
C4
102
}
330
C4
100
AcDbScale
 70
     0
300
1:100
140
1.0
141
100.0
290
     0
  0
SCALE
  5
D1
102
{ACAD_REACTORS
330
C4
102
}
330
C4
100
AcDbScale
 70
     0
300
2:1
140
2.0
141
1.0
290
     0
  0
SCALE
  5
D2
102
{ACAD_REACTORS
330
C4
102
}
330
C4
100
AcDbScale
 70
     0
300
4:1
140
4.0
141
1.0
290
     0
  0
SCALE
  5
D3
102
{ACAD_REACTORS
330
C4
102
}
330
C4
100
AcDbScale
 70
     0
300
8:1
140
8.0
141
1.0
290
     0
  0
SCALE
  5
D4
102
{ACAD_REACTORS
330
C4
102
}
330
C4
100
AcDbScale
 70
     0
300
10:1
140
10.0
141
1.0
290
     0
  0
SCALE
  5
D5
102
{ACAD_REACTORS
330
C4
102
}
330
C4
100
AcDbScale
 70
     0
300
100:1
140
100.0
141
1.0
290
     0
  0
SCALE
  5
D6
102
{ACAD_REACTORS
330
C4
102
}
330
C4
100
AcDbScale
 70
     0
300
1/128" = 1'-0"
140
0.0078125
141
12.0
290
     0
  0
SCALE
  5
D7
102
{ACAD_REACTORS
330
C4
102
}
330
C4
100
AcDbScale
 70
     0
300
1/64" = 1'-0"
140
0.015625
141
12.0
290
     0
  0
SCALE
  5
D8
102
{ACAD_REACTORS
330
C4
102
}
330
C4
100
AcDbScale
 70
     0
300
1/32" = 1'-0"
140
0.03125
141
12.0
290
     0
  0
SCALE
  5
D9
102
{ACAD_REACTORS
330
C4
102
}
330
C4
100
AcDbScale
 70
     0
300
1/16" = 1'-0"
140
0.0625
141
12.0
290
     0
  0
SCALE
  5
DA
102
{ACAD_REACTORS
330
C4
102
}
330
C4
100
AcDbScale
 70
     0
300
3/32" = 1'-0"
140
0.09375
141
12.0
290
     0
  0
SCALE
  5
DB
102
{ACAD_REACTORS
330
C4
102
}
330
C4
100
AcDbScale
 70
     0
300
1/8" = 1'-0"
140
0.125
141
12.0
290
     0
  0
SCALE
  5
DC
102
{ACAD_REACTORS
330
C4
102
}
330
C4
100
AcDbScale
 70
     0
300
3/16" = 1'-0"
140
0.1875
141
12.0
290
     0
  0
SCALE
  5
DD
102
{ACAD_REACTORS
330
C4
102
}
330
C4
100
AcDbScale
 70
     0
300
1/4" = 1'-0"
140
0.25
141
12.0
290
     0
  0
SCALE
  5
DE
102
{ACAD_REACTORS
330
C4
102
}
330
C4
100
AcDbScale
 70
     0
300
3/8" = 1'-0"
140
0.375
141
12.0
290
     0
  0
SCALE
  5
DF
102
{ACAD_REACTORS
330
C4
102
}
330
C4
100
AcDbScale
 70
     0
300
1/2" = 1'-0"
140
0.5
141
12.0
290
     0
  0
SCALE
  5
E0
102
{ACAD_REACTORS
330
C4
102
}
330
C4
100
AcDbScale
 70
     0
300
3/4" = 1'-0"
140
0.75
141
12.0
290
     0
  0
SCALE
  5
E1
102
{ACAD_REACTORS
330
C4
102
}
330
C4
100
AcDbScale
 70
     0
300
1" = 1'-0"
140
1.0
141
12.0
290
     0
  0
SCALE
  5
E2
102
{ACAD_REACTORS
330
C4
102
}
330
C4
100
AcDbScale
 70
     0
300
1-1/2" = 1'-0"
140
1.5
141
12.0
290
     0
  0
SCALE
  5
E3
102
{ACAD_REACTORS
330
C4
102
}
330
C4
100
AcDbScale
 70
     0
300
3" = 1'-0"
140
3.0
141
12.0
290
     0
  0
SCALE
  5
E4
102
{ACAD_REACTORS
330
C4
102
}
330
C4
100
AcDbScale
 70
     0
300
6" = 1'-0"
140
6.0
141
12.0
290
     0
  0
SCALE
  5
E5
102
{ACAD_REACTORS
330
C4
102
}
330
C4
100
AcDbScale
 70
     0
300
1'-0" = 1'-0"
140
12.0
141
12.0
290
     0
  0
VISUALSTYLE
  5
2F
102
{ACAD_REACTORS
330
2A
102
}
102
{ACAD_XDICTIONARY
360
F7
102
}
330
2A
100
AcDbVisualStyle
  2
2dWireframe
 70
     4
 71
     0
 72
     2
 73
     0
 90
        0
 40
-0.6
 41
-30.0
 62
     5
 63
     7
 74
     1
 91
        4
 64
     7
 65
   257
 75
     1
175
     1
 42
1.0
 92
        0
 66
   257
 43
1.0
 76
     1
 77
     6
 78
     2
 67
     7
 79
     5
170
     0
171
     0
290
     0
174
     0
 93
        1
 44
0.0
173
     0
291
     0
 45
0.0
1001
ACAD
1000
AcDbSavedByObjectVersion
1070
     0
  0
VISUALSTYLE
  5
31
102
{ACAD_REACTORS
330
2A
102
}
102
{ACAD_XDICTIONARY
360
FB
102
}
330
2A
100
AcDbVisualStyle
  2
3D Hidden
 70
     6
 71
     1
 72
     2
 73
     2
 90
        0
 40
-0.6
 41
-30.0
 62
     5
 63
     7
 74
     2
 91
        2
 64
     7
 65
   257
 75
     2
175
     1
 42
40.0
 92
        0
 66
   257
 43
1.0
 76
     1
 77
     6
 78
     2
 67
     7
 79
     3
170
     0
171
     0
290
     0
174
     0
 93
        1
 44
0.0
173
     0
291
     0
 45
0.0
1001
ACAD
1000
AcDbSavedByObjectVersion
1070
     0
  0
VISUALSTYLE
  5
30
102
{ACAD_REACTORS
330
2A
102
}
102
{ACAD_XDICTIONARY
360
F9
102
}
330
2A
100
AcDbVisualStyle
  2
3dWireframe
 70
     5
 71
     0
 72
     2
 73
     0
 90
        0
 40
-0.6
 41
-30.0
 62
     5
 63
     7
 74
     1
 91
        4
 64
     7
 65
   257
 75
     1
175
     1
 42
1.0
 92
        0
 66
   257
 43
1.0
 76
     1
 77
     6
 78
     2
 67
     7
 79
     5
170
     0
171
     0
290
     0
174
     0
 93
        1
 44
0.0
173
     0
291
     0
 45
0.0
1001
ACAD
1000
AcDbSavedByObjectVersion
1070
     0
  0
VISUALSTYLE
  5
32
102
{ACAD_REACTORS
330
2A
102
}
102
{ACAD_XDICTIONARY
360
FD
102
}
330
2A
100
AcDbVisualStyle
  2
Basic
 70
     7
 71
     1
 72
     0
 73
     1
 90
        0
 40
-0.6
 41
-30.0
 62
     5
 63
     7
 74
     0
 91
        4
 64
     7
 65
   257
 75
     1
175
     1
 42
1.0
 92
        8
 66
     7
 43
1.0
 76
     1
 77
     6
 78
     2
 67
     7
 79
     5
170
     0
171
     0
290
     0
174
     0
 93
        1
 44
0.0
173
     0
291
     1
 45
0.0
1001
ACAD
1000
AcDbSavedByObjectVersion
1070
     0
  0
VISUALSTYLE
  5
36
102
{ACAD_REACTORS
330
2A
102
}
102
{ACAD_XDICTIONARY
360
105
102
}
330
2A
100
AcDbVisualStyle
  2
Brighten
 70
    12
 71
     2
 72
     2
 73
     0
 90
        0
 40
-0.6
 41
-30.0
 62
     5
 63
     7
 74
     1
 91
        4
 64
     7
 65
   257
 75
     1
175
     1
 42
1.0
 92
        8
 66
     7
 43
1.0
 76
     1
 77
     6
 78
     2
 67
     7
 79
     5
170
     0
171
     0
290
     0
174
     0
 93
        1
 44
50.0
173
     0
291
     1
 45
0.0
1001
ACAD
1000
AcDbSavedByObjectVersion
1070
     0
  0
VISUALSTYLE
  5
3A
102
{ACAD_REACTORS
330
2A
102
}
102
{ACAD_XDICTIONARY
360
10D
102
}
330
2A
100
AcDbVisualStyle
  2
ColorChange
 70
    16
 71
     2
 72
     2
 73
     3
 90
        0
 40
-0.6
 41
-30.0
 62
     5
 63
     8
 74
     1
 91
        4
 64
     7
 65
   257
 75
     1
175
     1
 42
1.0
 92
        8
 66
     8
 43
1.0
 76
     1
 77
     6
 78
     2
 67
     7
 79
     5
170
     0
171
     0
290
     0
174
     0
 93
        1
 44
0.0
173
     0
291
     1
 45
0.0
1001
ACAD
1000
AcDbSavedByObjectVersion
1070
     0
  0
VISUALSTYLE
  5
34
102
{ACAD_REACTORS
330
2A
102
}
102
{ACAD_XDICTIONARY
360
101
102
}
330
2A
100
AcDbVisualStyle
  2
Conceptual
 70
     9
 71
     3
 72
     2
 73
     0
 90
        0
 40
-0.6
 41
-30.0
 62
     5
 63
     7
 74
     2
 91
        2
 64
     7
 65
   257
 75
     1
175
     1
 42
40.0
 92
        8
 66
     7
 43
1.0
 76
     1
 77
     6
 78
     2
 67
     7
 79
     3
170
     0
171
     0
290
     0
174
     0
 93
        1
 44
0.0
173
     0
291
     0
 45
0.0
1001
ACAD
1000
AcDbSavedByObjectVersion
1070
     0
  0
VISUALSTYLE
  5
35
102
{ACAD_REACTORS
330
2A
102
}
102
{ACAD_XDICTIONARY
360
103
102
}
330
2A
100
AcDbVisualStyle
  2
Dim
 70
    11
 71
     2
 72
     2
 73
     0
 90
        0
 40
-0.6
 41
-30.0
 62
     5
 63
     7
 74
     1
 91
        4
 64
     7
 65
   257
 75
     1
175
     1
 42
1.0
 92
        8
 66
     7
 43
1.0
 76
     1
 77
     6
 78
     2
 67
     7
 79
     5
170
     0
171
     0
290
     0
174
     0
 93
        1
 44
-50.0
173
     0
291
     1
 45
0.0
1001
ACAD
1000
AcDbSavedByObjectVersion
1070
     0
  0
VISUALSTYLE
  5
39
102
{ACAD_REACTORS
330
2A
102
}
102
{ACAD_XDICTIONARY
360
10B
102
}
330
2A
100
AcDbVisualStyle
  2
Facepattern
 70
    15
 71
     2
 72
     2
 73
     0
 90
        0
 40
-0.6
 41
-30.0
 62
     5
 63
     7
 74
     1
 91
        4
 64
     7
 65
   257
 75
     1
175
     1
 42
1.0
 92
        8
 66
     7
 43
1.0
 76
     1
 77
     6
 78
     2
 67
     7
 79
     5
170
     0
171
     0
290
     0
174
     0
 93
        1
 44
0.0
173
     0
291
     1
 45
0.0
1001
ACAD
1000
AcDbSavedByObjectVersion
1070
     0
  0
VISUALSTYLE
  5
2B
102
{ACAD_REACTORS
330
2A
102
}
102
{ACAD_XDICTIONARY
360
EF
102
}
330
2A
100
AcDbVisualStyle
  2
Flat
 70
     0
 71
     2
 72
     1
 73
     1
 90
        2
 40
-0.6
 41
30.0
 62
     5
 63
     7
 74
     0
 91
        4
 64
     7
 65
   257
 75
     1
175
     1
 42
1.0
 92
        8
 66
     7
 43
1.0
 76
     1
 77
     6
 78
     2
 67
     7
 79
     5
170
     0
171
     0
290
     0
174
     0
 93
       13
 44
0.0
173
     0
291
     1
 45
0.0
1001
ACAD
1000
AcDbSavedByObjectVersion
1070
     0
  0
VISUALSTYLE
  5
2C
102
{ACAD_REACTORS
330
2A
102
}
102
{ACAD_XDICTIONARY
360
F1
102
}
330
2A
100
AcDbVisualStyle
  2
FlatWithEdges
 70
     1
 71
     2
 72
     1
 73
     1
 90
        2
 40
-0.6
 41
30.0
 62
     5
 63
     7
 74
     1
 91
        4
 64
     7
 65
   257
 75
     1
175
     1
 42
1.0
 92
        0
 66
   257
 43
1.0
 76
     1
 77
     6
 78
     2
 67
     7
 79
     5
170
     0
171
     0
290
     0
174
     0
 93
       13
 44
0.0
173
     0
291
     1
 45
0.0
1001
ACAD
1000
AcDbSavedByObjectVersion
1070
     0
  0
VISUALSTYLE
  5
2D
102
{ACAD_REACTORS
330
2A
102
}
102
{ACAD_XDICTIONARY
360
F3
102
}
330
2A
100
AcDbVisualStyle
  2
Gouraud
 70
     2
 71
     2
 72
     2
 73
     1
 90
        2
 40
-0.6
 41
30.0
 62
     5
 63
     7
 74
     0
 91
        4
 64
     7
 65
   257
 75
     1
175
     1
 42
1.0
 92
        0
 66
     7
 43
1.0
 76
     1
 77
     6
 78
     2
 67
     7
 79
     5
170
     0
171
     0
290
     0
174
     0
 93
       13
 44
0.0
173
     0
291
     1
 45
0.0
1001
ACAD
1000
AcDbSavedByObjectVersion
1070
     0
  0
VISUALSTYLE
  5
2E
102
{ACAD_REACTORS
330
2A
102
}
102
{ACAD_XDICTIONARY
360
F5
102
}
330
2A
100
AcDbVisualStyle
  2
GouraudWithEdges
 70
     3
 71
     2
 72
     2
 73
     1
 90
        2
 40
-0.6
 41
30.0
 62
     5
 63
     7
 74
     1
 91
        4
 64
     7
 65
   257
 75
     1
175
     1
 42
1.0
 92
        0
 66
   257
 43
1.0
 76
     1
 77
     6
 78
     2
 67
     7
 79
     5
170
     0
171
     0
290
     0
174
     0
 93
       13
 44
0.0
173
     0
291
     1
 45
0.0
1001
ACAD
1000
AcDbSavedByObjectVersion
1070
     0
  0
VISUALSTYLE
  5
38
102
{ACAD_REACTORS
330
2A
102
}
102
{ACAD_XDICTIONARY
360
109
102
}
330
2A
100
AcDbVisualStyle
  2
Linepattern
 70
    14
 71
     2
 72
     2
 73
     0
 90
        0
 40
-0.6
 41
-30.0
 62
     5
 63
     7
 74
     1
 91
        4
 64
     7
 65
   257
 75
     7
175
     7
 42
1.0
 92
        8
 66
     7
 43
1.0
 76
     1
 77
     6
 78
     2
 67
     7
 79
     5
170
     0
171
     0
290
     0
174
     0
 93
        1
 44
0.0
173
     0
291
     1
 45
0.0
1001
ACAD
1000
AcDbSavedByObjectVersion
1070
     0
  0
VISUALSTYLE
  5
33
102
{ACAD_REACTORS
330
2A
102
}
102
{ACAD_XDICTIONARY
360
FF
102
}
330
2A
100
AcDbVisualStyle
  2
Realistic
 70
     8
 71
     2
 72
     2
 73
     0
 90
        0
 40
-0.6
 41
-30.0
 62
     5
 63
     7
 74
     1
 91
        0
 64
     7
 65
   257
 75
     1
175
     1
 42
1.0
 92
        8
 66
     8
 43
1.0
 76
     1
 77
     6
 78
     2
 67
     7
 79
     5
170
     0
171
     0
290
     0
174
     0
 93
       13
 44
0.0
173
     0
291
     0
 45
0.0
1001
ACAD
1000
AcDbSavedByObjectVersion
1070
     0
  0
VISUALSTYLE
  5
37
102
{ACAD_REACTORS
330
2A
102
}
102
{ACAD_XDICTIONARY
360
107
102
}
330
2A
100
AcDbVisualStyle
  2
Thicken
 70
    13
 71
     2
 72
     2
 73
     0
 90
        0
 40
-0.6
 41
-30.0
 62
     5
 63
     7
 74
     1
 91
        4
 64
     7
 65
   257
 75
     1
175
     1
 42
1.0
 92
       12
 66
     7
 43
1.0
 76
     1
 77
     6
 78
     2
 67
     7
 79
     5
170
     0
171
     0
290
     0
174
     0
 93
        1
 44
0.0
173
     0
291
     1
 45
0.0
1001
ACAD
1000
AcDbSavedByObjectVersion
1070
     0
  0
DICTIONARYVAR
  5
EC
102
{ACAD_REACTORS
330
E9
102
}
330
E9
100
DictionaryVariables
280
     0
  1
1:1
  0
DICTIONARYVAR
  5
ED
102
{ACAD_REACTORS
330
E9
102
}
330
E9
100
DictionaryVariables
280
     0
  1
2
  0
DICTIONARYVAR
  5
EE
102
{ACAD_REACTORS
330
E9
102
}
330
E9
100
DictionaryVariables
280
     0
  1
1
  0
DICTIONARY
  5
111
330
3D
100
AcDbDictionary
280
     1
281
     1
  3
ACAD_XREC_ROUNDTRIP
360
112
  0
DICTIONARY
  5
10F
330
3C
100
AcDbDictionary
280
     1
281
     1
  3
ACAD_XREC_ROUNDTRIP
360
110
  0
DICTIONARY
  5
113
330
3E
100
AcDbDictionary
280
     1
281
     1
  3
ACAD_XREC_ROUNDTRIP
360
114
  0
DICTIONARY
  5
F7
330
2F
100
AcDbDictionary
280
     1
281
     1
  3
ACAD_XREC_ROUNDTRIP
360
F8
  0
DICTIONARY
  5
FB
330
31
100
AcDbDictionary
280
     1
281
     1
  3
ACAD_XREC_ROUNDTRIP
360
FC
  0
DICTIONARY
  5
F9
330
30
100
AcDbDictionary
280
     1
281
     1
  3
ACAD_XREC_ROUNDTRIP
360
FA
  0
DICTIONARY
  5
FD
330
32
100
AcDbDictionary
280
     1
281
     1
  3
ACAD_XREC_ROUNDTRIP
360
FE
  0
DICTIONARY
  5
105
330
36
100
AcDbDictionary
280
     1
281
     1
  3
ACAD_XREC_ROUNDTRIP
360
106
  0
DICTIONARY
  5
10D
330
3A
100
AcDbDictionary
280
     1
281
     1
  3
ACAD_XREC_ROUNDTRIP
360
10E
  0
DICTIONARY
  5
101
330
34
100
AcDbDictionary
280
     1
281
     1
  3
ACAD_XREC_ROUNDTRIP
360
102
  0
DICTIONARY
  5
103
330
35
100
AcDbDictionary
280
     1
281
     1
  3
ACAD_XREC_ROUNDTRIP
360
104
  0
DICTIONARY
  5
10B
330
39
100
AcDbDictionary
280
     1
281
     1
  3
ACAD_XREC_ROUNDTRIP
360
10C
  0
DICTIONARY
  5
EF
330
2B
100
AcDbDictionary
280
     1
281
     1
  3
ACAD_XREC_ROUNDTRIP
360
F0
  0
DICTIONARY
  5
F1
330
2C
100
AcDbDictionary
280
     1
281
     1
  3
ACAD_XREC_ROUNDTRIP
360
F2
  0
DICTIONARY
  5
F3
330
2D
100
AcDbDictionary
280
     1
281
     1
  3
ACAD_XREC_ROUNDTRIP
360
F4
  0
DICTIONARY
  5
F5
330
2E
100
AcDbDictionary
280
     1
281
     1
  3
ACAD_XREC_ROUNDTRIP
360
F6
  0
DICTIONARY
  5
109
330
38
100
AcDbDictionary
280
     1
281
     1
  3
ACAD_XREC_ROUNDTRIP
360
10A
  0
DICTIONARY
  5
FF
330
33
100
AcDbDictionary
280
     1
281
     1
  3
ACAD_XREC_ROUNDTRIP
360
100
  0
DICTIONARY
  5
107
330
37
100
AcDbDictionary
280
     1
281
     1
  3
ACAD_XREC_ROUNDTRIP
360
108
  0
XRECORD
  5
112
102
{ACAD_REACTORS
330
111
102
}
330
111
100
AcDbXrecord
280
     1
102
MATERIAL
148
0.0
149
0.0
149
0.0
 93
        0
 94
      127
282
     0
 72
     1
 77
     1
171
     1
175
     1
179
     1
273
     0
  0
XRECORD
  5
110
102
{ACAD_REACTORS
330
10F
102
}
330
10F
100
AcDbXrecord
280
     1
102
MATERIAL
148
0.0
149
0.0
149
0.0
 93
        0
 94
      127
282
     0
 72
     1
 77
     1
171
     1
175
     1
179
     1
273
     0
  0
XRECORD
  5
114
102
{ACAD_REACTORS
330
113
102
}
330
113
100
AcDbXrecord
280
     1
102
MATERIAL
148
0.0
149
0.0
149
0.0
 93
        0
 94
      127
282
     0
 72
     1
 77
     1
171
     1
175
     1
179
     1
273
     0
  0
XRECORD
  5
F8
102
{ACAD_REACTORS
330
F7
102
}
330
F7
100
AcDbXrecord
280
     1
102
RTVSPropertyOp0
 70
     1
102
RTVSPropertyOp1
 70
     1
102
RTVSPropertyOp2
 70
     1
102
RTVSPropertyOp3
 70
     1
102
RTVSPropertyOp4
 70
     1
102
RTVSPropertyOp5
 70
     1
102
RTVSPropertyOp6
 70
     1
102
RTVSPropertyOp7
 70
     1
102
RTVSPropertyOp8
 70
     1
102
RTVSPropertyOp9
 70
     1
102
RTVSPropertyOp10
 70
     1
102
RTVSPropertyOp11
 70
     1
102
RTVSPropertyOp12
 70
     1
102
RTVSPropertyOp13
 70
     1
102
RTVSPropertyOp14
 70
     1
102
RTVSPropertyOp15
 70
     1
102
RTVSPropertyOp16
 70
     1
102
RTVSPropertyOp17
 70
     1
102
RTVSPropertyOp18
 70
     1
102
RTVSPropertyOp19
 70
     1
102
RTVSPropertyOp20
 70
     1
102
RTVSPropertyOp21
 70
     1
102
RTVSPropertyOp22
 70
     1
102
RTVSPropertyOp23
 70
     1
102
RTVSPropertyOp24
 70
     1
102
RTVSPropertyOp25
 70
     1
102
RTVSPropertyOp26
 70
     1
102
RTVSPropertyOp27
 70
     1
  0
XRECORD
  5
FC
102
{ACAD_REACTORS
330
FB
102
}
330
FB
100
AcDbXrecord
280
     1
102
RTVSPropertyOp0
 70
     1
102
RTVSPropertyOp1
 70
     1
102
RTVSPropertyOp2
 70
     1
102
RTVSPropertyOp3
 70
     1
102
RTVSPropertyOp4
 70
     1
102
RTVSPropertyOp5
 70
     1
102
RTVSPropertyOp6
 70
     1
102
RTVSPropertyOp7
 70
     1
102
RTVSPropertyOp8
 70
     1
102
RTVSPropertyOp9
 70
     1
102
RTVSPropertyOp10
 70
     1
102
RTVSPropertyOp11
 70
     1
102
RTVSPropertyOp12
 70
     1
102
RTVSPropertyOp13
 70
     1
102
RTVSPropertyOp14
 70
     1
102
RTVSPropertyOp15
 70
     1
102
RTVSPropertyOp16
 70
     1
102
RTVSPropertyOp17
 70
     1
102
RTVSPropertyOp18
 70
     1
102
RTVSPropertyOp19
 70
     1
102
RTVSPropertyOp20
 70
     1
102
RTVSPropertyOp21
 70
     1
102
RTVSPropertyOp22
 70
     1
102
RTVSPropertyOp23
 70
     1
102
RTVSPropertyOp24
 70
     1
102
RTVSPropertyOp25
 70
     1
102
RTVSPropertyOp26
 70
     1
102
RTVSPropertyOp27
 70
     1
  0
XRECORD
  5
FA
102
{ACAD_REACTORS
330
F9
102
}
330
F9
100
AcDbXrecord
280
     1
102
RTVSPropertyOp0
 70
     1
102
RTVSPropertyOp1
 70
     1
102
RTVSPropertyOp2
 70
     1
102
RTVSPropertyOp3
 70
     1
102
RTVSPropertyOp4
 70
     1
102
RTVSPropertyOp5
 70
     1
102
RTVSPropertyOp6
 70
     1
102
RTVSPropertyOp7
 70
     1
102
RTVSPropertyOp8
 70
     1
102
RTVSPropertyOp9
 70
     1
102
RTVSPropertyOp10
 70
     1
102
RTVSPropertyOp11
 70
     1
102
RTVSPropertyOp12
 70
     1
102
RTVSPropertyOp13
 70
     1
102
RTVSPropertyOp14
 70
     1
102
RTVSPropertyOp15
 70
     1
102
RTVSPropertyOp16
 70
     1
102
RTVSPropertyOp17
 70
     1
102
RTVSPropertyOp18
 70
     1
102
RTVSPropertyOp19
 70
     1
102
RTVSPropertyOp20
 70
     1
102
RTVSPropertyOp21
 70
     1
102
RTVSPropertyOp22
 70
     1
102
RTVSPropertyOp23
 70
     1
102
RTVSPropertyOp24
 70
     1
102
RTVSPropertyOp25
 70
     1
102
RTVSPropertyOp26
 70
     1
102
RTVSPropertyOp27
 70
     1
  0
XRECORD
  5
FE
102
{ACAD_REACTORS
330
FD
102
}
330
FD
100
AcDbXrecord
280
     1
102
RTVSPropertyOp0
 70
     1
102
RTVSPropertyOp1
 70
     1
102
RTVSPropertyOp2
 70
     1
102
RTVSPropertyOp3
 70
     1
102
RTVSPropertyOp4
 70
     1
102
RTVSPropertyOp5
 70
     1
102
RTVSPropertyOp6
 70
     1
102
RTVSPropertyOp7
 70
     1
102
RTVSPropertyOp8
 70
     1
102
RTVSPropertyOp9
 70
     1
102
RTVSPropertyOp10
 70
     1
102
RTVSPropertyOp11
 70
     1
102
RTVSPropertyOp12
 70
     1
102
RTVSPropertyOp13
 70
     1
102
RTVSPropertyOp14
 70
     1
102
RTVSPropertyOp15
 70
     1
102
RTVSPropertyOp16
 70
     1
102
RTVSPropertyOp17
 70
     1
102
RTVSPropertyOp18
 70
     1
102
RTVSPropertyOp19
 70
     1
102
RTVSPropertyOp20
 70
     1
102
RTVSPropertyOp21
 70
     1
102
RTVSPropertyOp22
 70
     1
102
RTVSPropertyOp23
 70
     1
102
RTVSPropertyOp24
 70
     1
102
RTVSPropertyOp25
 70
     1
102
RTVSPropertyOp26
 70
     1
102
RTVSPropertyOp27
 70
     1
  0
XRECORD
  5
106
102
{ACAD_REACTORS
330
105
102
}
330
105
100
AcDbXrecord
280
     1
102
RTVSPropertyOp0
 70
     1
102
RTVSPropertyOp1
 70
     1
102
RTVSPropertyOp2
 70
     1
102
RTVSPropertyOp3
 70
     1
102
RTVSPropertyOp4
 70
     1
102
RTVSPropertyOp5
 70
     1
102
RTVSPropertyOp6
 70
     1
102
RTVSPropertyOp7
 70
     1
102
RTVSPropertyOp8
 70
     1
102
RTVSPropertyOp9
 70
     1
102
RTVSPropertyOp10
 70
     1
102
RTVSPropertyOp11
 70
     1
102
RTVSPropertyOp12
 70
     1
102
RTVSPropertyOp13
 70
     1
102
RTVSPropertyOp14
 70
     1
102
RTVSPropertyOp15
 70
     1
102
RTVSPropertyOp16
 70
     1
102
RTVSPropertyOp17
 70
     1
102
RTVSPropertyOp18
 70
     1
102
RTVSPropertyOp19
 70
     1
102
RTVSPropertyOp20
 70
     1
102
RTVSPropertyOp21
 70
     1
102
RTVSPropertyOp22
 70
     1
102
RTVSPropertyOp23
 70
     1
102
RTVSPropertyOp24
 70
     1
102
RTVSPropertyOp25
 70
     1
102
RTVSPropertyOp26
 70
     1
102
RTVSPropertyOp27
 70
     1
  0
XRECORD
  5
10E
102
{ACAD_REACTORS
330
10D
102
}
330
10D
100
AcDbXrecord
280
     1
102
RTVSPropertyOp0
 70
     1
102
RTVSPropertyOp1
 70
     1
102
RTVSPropertyOp2
 70
     1
102
RTVSPropertyOp3
 70
     1
102
RTVSPropertyOp4
 70
     1
102
RTVSPropertyOp5
 70
     1
102
RTVSPropertyOp6
 70
     1
102
RTVSPropertyOp7
 70
     1
102
RTVSPropertyOp8
 70
     1
102
RTVSPropertyOp9
 70
     1
102
RTVSPropertyOp10
 70
     1
102
RTVSPropertyOp11
 70
     1
102
RTVSPropertyOp12
 70
     1
102
RTVSPropertyOp13
 70
     1
102
RTVSPropertyOp14
 70
     1
102
RTVSPropertyOp15
 70
     1
102
RTVSPropertyOp16
 70
     1
102
RTVSPropertyOp17
 70
     1
102
RTVSPropertyOp18
 70
     1
102
RTVSPropertyOp19
 70
     1
102
RTVSPropertyOp20
 70
     1
102
RTVSPropertyOp21
 70
     1
102
RTVSPropertyOp22
 70
     1
102
RTVSPropertyOp23
 70
     1
102
RTVSPropertyOp24
 70
     1
102
RTVSPropertyOp25
 70
     1
102
RTVSPropertyOp26
 70
     1
102
RTVSPropertyOp27
 70
     1
  0
XRECORD
  5
102
102
{ACAD_REACTORS
330
101
102
}
330
101
100
AcDbXrecord
280
     1
102
RTVSPropertyOp0
 70
     1
102
RTVSPropertyOp1
 70
     1
102
RTVSPropertyOp2
 70
     1
102
RTVSPropertyOp3
 70
     1
102
RTVSPropertyOp4
 70
     1
102
RTVSPropertyOp5
 70
     1
102
RTVSPropertyOp6
 70
     1
102
RTVSPropertyOp7
 70
     1
102
RTVSPropertyOp8
 70
     1
102
RTVSPropertyOp9
 70
     1
102
RTVSPropertyOp10
 70
     1
102
RTVSPropertyOp11
 70
     1
102
RTVSPropertyOp12
 70
     1
102
RTVSPropertyOp13
 70
     1
102
RTVSPropertyOp14
 70
     1
102
RTVSPropertyOp15
 70
     1
102
RTVSPropertyOp16
 70
     1
102
RTVSPropertyOp17
 70
     1
102
RTVSPropertyOp18
 70
     1
102
RTVSPropertyOp19
 70
     1
102
RTVSPropertyOp20
 70
     1
102
RTVSPropertyOp21
 70
     1
102
RTVSPropertyOp22
 70
     1
102
RTVSPropertyOp23
 70
     1
102
RTVSPropertyOp24
 70
     1
102
RTVSPropertyOp25
 70
     1
102
RTVSPropertyOp26
 70
     1
102
RTVSPropertyOp27
 70
     1
  0
XRECORD
  5
104
102
{ACAD_REACTORS
330
103
102
}
330
103
100
AcDbXrecord
280
     1
102
RTVSPropertyOp0
 70
     1
102
RTVSPropertyOp1
 70
     1
102
RTVSPropertyOp2
 70
     1
102
RTVSPropertyOp3
 70
     1
102
RTVSPropertyOp4
 70
     1
102
RTVSPropertyOp5
 70
     1
102
RTVSPropertyOp6
 70
     1
102
RTVSPropertyOp7
 70
     1
102
RTVSPropertyOp8
 70
     1
102
RTVSPropertyOp9
 70
     1
102
RTVSPropertyOp10
 70
     1
102
RTVSPropertyOp11
 70
     1
102
RTVSPropertyOp12
 70
     1
102
RTVSPropertyOp13
 70
     1
102
RTVSPropertyOp14
 70
     1
102
RTVSPropertyOp15
 70
     1
102
RTVSPropertyOp16
 70
     1
102
RTVSPropertyOp17
 70
     1
102
RTVSPropertyOp18
 70
     1
102
RTVSPropertyOp19
 70
     1
102
RTVSPropertyOp20
 70
     1
102
RTVSPropertyOp21
 70
     1
102
RTVSPropertyOp22
 70
     1
102
RTVSPropertyOp23
 70
     1
102
RTVSPropertyOp24
 70
     1
102
RTVSPropertyOp25
 70
     1
102
RTVSPropertyOp26
 70
     1
102
RTVSPropertyOp27
 70
     1
  0
XRECORD
  5
10C
102
{ACAD_REACTORS
330
10B
102
}
330
10B
100
AcDbXrecord
280
     1
102
RTVSPropertyOp0
 70
     1
102
RTVSPropertyOp1
 70
     1
102
RTVSPropertyOp2
 70
     1
102
RTVSPropertyOp3
 70
     1
102
RTVSPropertyOp4
 70
     1
102
RTVSPropertyOp5
 70
     1
102
RTVSPropertyOp6
 70
     1
102
RTVSPropertyOp7
 70
     1
102
RTVSPropertyOp8
 70
     1
102
RTVSPropertyOp9
 70
     1
102
RTVSPropertyOp10
 70
     1
102
RTVSPropertyOp11
 70
     1
102
RTVSPropertyOp12
 70
     1
102
RTVSPropertyOp13
 70
     1
102
RTVSPropertyOp14
 70
     1
102
RTVSPropertyOp15
 70
     1
102
RTVSPropertyOp16
 70
     1
102
RTVSPropertyOp17
 70
     1
102
RTVSPropertyOp18
 70
     1
102
RTVSPropertyOp19
 70
     1
102
RTVSPropertyOp20
 70
     1
102
RTVSPropertyOp21
 70
     1
102
RTVSPropertyOp22
 70
     1
102
RTVSPropertyOp23
 70
     1
102
RTVSPropertyOp24
 70
     1
102
RTVSPropertyOp25
 70
     1
102
RTVSPropertyOp26
 70
     1
102
RTVSPropertyOp27
 70
     1
  0
XRECORD
  5
F0
102
{ACAD_REACTORS
330
EF
102
}
330
EF
100
AcDbXrecord
280
     1
102
RTVSPropertyOp0
 70
     1
102
RTVSPropertyOp1
 70
     1
102
RTVSPropertyOp2
 70
     1
102
RTVSPropertyOp3
 70
     1
102
RTVSPropertyOp4
 70
     1
102
RTVSPropertyOp5
 70
     1
102
RTVSPropertyOp6
 70
     1
102
RTVSPropertyOp7
 70
     1
102
RTVSPropertyOp8
 70
     1
102
RTVSPropertyOp9
 70
     1
102
RTVSPropertyOp10
 70
     1
102
RTVSPropertyOp11
 70
     1
102
RTVSPropertyOp12
 70
     1
102
RTVSPropertyOp13
 70
     1
102
RTVSPropertyOp14
 70
     1
102
RTVSPropertyOp15
 70
     1
102
RTVSPropertyOp16
 70
     1
102
RTVSPropertyOp17
 70
     1
102
RTVSPropertyOp18
 70
     1
102
RTVSPropertyOp19
 70
     1
102
RTVSPropertyOp20
 70
     1
102
RTVSPropertyOp21
 70
     1
102
RTVSPropertyOp22
 70
     1
102
RTVSPropertyOp23
 70
     1
102
RTVSPropertyOp24
 70
     1
102
RTVSPropertyOp25
 70
     1
102
RTVSPropertyOp26
 70
     1
102
RTVSPropertyOp27
 70
     1
  0
XRECORD
  5
F2
102
{ACAD_REACTORS
330
F1
102
}
330
F1
100
AcDbXrecord
280
     1
102
RTVSPropertyOp0
 70
     1
102
RTVSPropertyOp1
 70
     1
102
RTVSPropertyOp2
 70
     1
102
RTVSPropertyOp3
 70
     1
102
RTVSPropertyOp4
 70
     1
102
RTVSPropertyOp5
 70
     1
102
RTVSPropertyOp6
 70
     1
102
RTVSPropertyOp7
 70
     1
102
RTVSPropertyOp8
 70
     1
102
RTVSPropertyOp9
 70
     1
102
RTVSPropertyOp10
 70
     1
102
RTVSPropertyOp11
 70
     1
102
RTVSPropertyOp12
 70
     1
102
RTVSPropertyOp13
 70
     1
102
RTVSPropertyOp14
 70
     1
102
RTVSPropertyOp15
 70
     1
102
RTVSPropertyOp16
 70
     1
102
RTVSPropertyOp17
 70
     1
102
RTVSPropertyOp18
 70
     1
102
RTVSPropertyOp19
 70
     1
102
RTVSPropertyOp20
 70
     1
102
RTVSPropertyOp21
 70
     1
102
RTVSPropertyOp22
 70
     1
102
RTVSPropertyOp23
 70
     1
102
RTVSPropertyOp24
 70
     1
102
RTVSPropertyOp25
 70
     1
102
RTVSPropertyOp26
 70
     1
102
RTVSPropertyOp27
 70
     1
  0
XRECORD
  5
F4
102
{ACAD_REACTORS
330
F3
102
}
330
F3
100
AcDbXrecord
280
     1
102
RTVSPropertyOp0
 70
     1
102
RTVSPropertyOp1
 70
     1
102
RTVSPropertyOp2
 70
     1
102
RTVSPropertyOp3
 70
     1
102
RTVSPropertyOp4
 70
     1
102
RTVSPropertyOp5
 70
     1
102
RTVSPropertyOp6
 70
     1
102
RTVSPropertyOp7
 70
     1
102
RTVSPropertyOp8
 70
     1
102
RTVSPropertyOp9
 70
     1
102
RTVSPropertyOp10
 70
     1
102
RTVSPropertyOp11
 70
     1
102
RTVSPropertyOp12
 70
     1
102
RTVSPropertyOp13
 70
     1
102
RTVSPropertyOp14
 70
     1
102
RTVSPropertyOp15
 70
     1
102
RTVSPropertyOp16
 70
     1
102
RTVSPropertyOp17
 70
     1
102
RTVSPropertyOp18
 70
     1
102
RTVSPropertyOp19
 70
     1
102
RTVSPropertyOp20
 70
     1
102
RTVSPropertyOp21
 70
     1
102
RTVSPropertyOp22
 70
     1
102
RTVSPropertyOp23
 70
     1
102
RTVSPropertyOp24
 70
     1
102
RTVSPropertyOp25
 70
     1
102
RTVSPropertyOp26
 70
     1
102
RTVSPropertyOp27
 70
     1
  0
XRECORD
  5
F6
102
{ACAD_REACTORS
330
F5
102
}
330
F5
100
AcDbXrecord
280
     1
102
RTVSPropertyOp0
 70
     1
102
RTVSPropertyOp1
 70
     1
102
RTVSPropertyOp2
 70
     1
102
RTVSPropertyOp3
 70
     1
102
RTVSPropertyOp4
 70
     1
102
RTVSPropertyOp5
 70
     1
102
RTVSPropertyOp6
 70
     1
102
RTVSPropertyOp7
 70
     1
102
RTVSPropertyOp8
 70
     1
102
RTVSPropertyOp9
 70
     1
102
RTVSPropertyOp10
 70
     1
102
RTVSPropertyOp11
 70
     1
102
RTVSPropertyOp12
 70
     1
102
RTVSPropertyOp13
 70
     1
102
RTVSPropertyOp14
 70
     1
102
RTVSPropertyOp15
 70
     1
102
RTVSPropertyOp16
 70
     1
102
RTVSPropertyOp17
 70
     1
102
RTVSPropertyOp18
 70
     1
102
RTVSPropertyOp19
 70
     1
102
RTVSPropertyOp20
 70
     1
102
RTVSPropertyOp21
 70
     1
102
RTVSPropertyOp22
 70
     1
102
RTVSPropertyOp23
 70
     1
102
RTVSPropertyOp24
 70
     1
102
RTVSPropertyOp25
 70
     1
102
RTVSPropertyOp26
 70
     1
102
RTVSPropertyOp27
 70
     1
  0
XRECORD
  5
10A
102
{ACAD_REACTORS
330
109
102
}
330
109
100
AcDbXrecord
280
     1
102
RTVSPropertyOp0
 70
     1
102
RTVSPropertyOp1
 70
     1
102
RTVSPropertyOp2
 70
     1
102
RTVSPropertyOp3
 70
     1
102
RTVSPropertyOp4
 70
     1
102
RTVSPropertyOp5
 70
     1
102
RTVSPropertyOp6
 70
     1
102
RTVSPropertyOp7
 70
     1
102
RTVSPropertyOp8
 70
     1
102
RTVSPropertyOp9
 70
     1
102
RTVSPropertyOp10
 70
     1
102
RTVSPropertyOp11
 70
     1
102
RTVSPropertyOp12
 70
     1
102
RTVSPropertyOp13
 70
     1
102
RTVSPropertyOp14
 70
     1
102
RTVSPropertyOp15
 70
     1
102
RTVSPropertyOp16
 70
     1
102
RTVSPropertyOp17
 70
     1
102
RTVSPropertyOp18
 70
     1
102
RTVSPropertyOp19
 70
     1
102
RTVSPropertyOp20
 70
     1
102
RTVSPropertyOp21
 70
     1
102
RTVSPropertyOp22
 70
     1
102
RTVSPropertyOp23
 70
     1
102
RTVSPropertyOp24
 70
     1
102
RTVSPropertyOp25
 70
     1
102
RTVSPropertyOp26
 70
     1
102
RTVSPropertyOp27
 70
     1
  0
XRECORD
  5
100
102
{ACAD_REACTORS
330
FF
102
}
330
FF
100
AcDbXrecord
280
     1
102
RTVSPropertyOp0
 70
     1
102
RTVSPropertyOp1
 70
     1
102
RTVSPropertyOp2
 70
     1
102
RTVSPropertyOp3
 70
     1
102
RTVSPropertyOp4
 70
     1
102
RTVSPropertyOp5
 70
     1
102
RTVSPropertyOp6
 70
     1
102
RTVSPropertyOp7
 70
     1
102
RTVSPropertyOp8
 70
     1
102
RTVSPropertyOp9
 70
     1
102
RTVSPropertyOp10
 70
     1
102
RTVSPropertyOp11
 70
     1
102
RTVSPropertyOp12
 70
     1
102
RTVSPropertyOp13
 70
     1
102
RTVSPropertyOp14
 70
     1
102
RTVSPropertyOp15
 70
     1
102
RTVSPropertyOp16
 70
     1
102
RTVSPropertyOp17
 70
     1
102
RTVSPropertyOp18
 70
     1
102
RTVSPropertyOp19
 70
     1
102
RTVSPropertyOp20
 70
     1
102
RTVSPropertyOp21
 70
     1
102
RTVSPropertyOp22
 70
     1
102
RTVSPropertyOp23
 70
     1
102
RTVSPropertyOp24
 70
     1
102
RTVSPropertyOp25
 70
     1
102
RTVSPropertyOp26
 70
     1
102
RTVSPropertyOp27
 70
     1
  0
XRECORD
  5
108
102
{ACAD_REACTORS
330
107
102
}
330
107
100
AcDbXrecord
280
     1
102
RTVSPropertyOp0
 70
     1
102
RTVSPropertyOp1
 70
     1
102
RTVSPropertyOp2
 70
     1
102
RTVSPropertyOp3
 70
     1
102
RTVSPropertyOp4
 70
     1
102
RTVSPropertyOp5
 70
     1
102
RTVSPropertyOp6
 70
     1
102
RTVSPropertyOp7
 70
     1
102
RTVSPropertyOp8
 70
     1
102
RTVSPropertyOp9
 70
     1
102
RTVSPropertyOp10
 70
     1
102
RTVSPropertyOp11
 70
     1
102
RTVSPropertyOp12
 70
     1
102
RTVSPropertyOp13
 70
     1
102
RTVSPropertyOp14
 70
     1
102
RTVSPropertyOp15
 70
     1
102
RTVSPropertyOp16
 70
     1
102
RTVSPropertyOp17
 70
     1
102
RTVSPropertyOp18
 70
     1
102
RTVSPropertyOp19
 70
     1
102
RTVSPropertyOp20
 70
     1
102
RTVSPropertyOp21
 70
     1
102
RTVSPropertyOp22
 70
     1
102
RTVSPropertyOp23
 70
     1
102
RTVSPropertyOp24
 70
     1
102
RTVSPropertyOp25
 70
     1
102
RTVSPropertyOp26
 70
     1
102
RTVSPropertyOp27
 70
     1
  0
ENDSEC
  0
EOF
