  0
SECTION
  2
HEADER
  9
$ACADVER
  1
AC1015
  9
$ACADMAINTVER
 70
     6
  9
$DWGCODEPAGE
  3
ANSI_1252
  9
$INSBASE
 10
0.0
 20
0.0
 30
0.0
  9
$EXTMIN
 10
-574.0
 20
-938.0
 30
0.0
  9
$EXTMAX
 10
2426.0
 20
2313.0
 30
0.0
  9
$LIMMIN
 10
0.0
 20
0.0
  9
$LIMMAX
 10
12.0
 20
9.0
  9
$ORTHOMODE
 70
     0
  9
$REGENMODE
 70
     1
  9
$FILLMODE
 70
     1
  9
$QTEXTMODE
 70
     0
  9
$MIRRTEXT
 70
     1
  9
$LTSCALE
 40
1.0
  9
$ATTMODE
 70
     1
  9
$TEXTSIZE
 40
0.2
  9
$TRACEWID
 40
0.05
  9
$TEXTSTYLE
  7
Standard
  9
$CLAYER
  8
0
  9
$CELTYPE
  6
ByLayer
  9
$CECOLOR
 62
   256
  9
$CELTSCALE
 40
1.0
  9
$DISPSILH
 70
     0
  9
$DIMSCALE
 40
1.0
  9
$DIMASZ
 40
0.18
  9
$DIMEXO
 40
0.0625
  9
$DIMDLI
 40
0.38
  9
$DIMRND
 40
0.0
  9
$DIMDLE
 40
0.0
  9
$DIMEXE
 40
0.18
  9
$DIMTP
 40
0.0
  9
$DIMTM
 40
0.0
  9
$DIMTXT
 40
0.18
  9
$DIMCEN
 40
0.09
  9
$DIMTSZ
 40
0.0
  9
$DIMTOL
 70
     0
  9
$DIMLIM
 70
     0
  9
$DIMTIH
 70
     1
  9
$DIMTOH
 70
     1
  9
$DIMSE1
 70
     0
  9
$DIMSE2
 70
     0
  9
$DIMTAD
 70
     0
  9
$DIMZIN
 70
     0
  9
$DIMBLK
  1

  9
$DIMASO
 70
     1
  9
$DIMSHO
 70
     1
  9
$DIMPOST
  1

  9
$DIMAPOST
  1

  9
$DIMALT
 70
     0
  9
$DIMALTD
 70
     2
  9
$DIMALTF
 40
25.4
  9
$DIMLFAC
 40
1.0
  9
$DIMTOFL
 70
     0
  9
$DIMTVP
 40
0.0
  9
$DIMTIX
 70
     0
  9
$DIMSOXD
 70
     0
  9
$DIMSAH
 70
     0
  9
$DIMBLK1
  1

  9
$DIMBLK2
  1

  9
$DIMSTYLE
  2
Standard
  9
$DIMCLRD
 70
     0
  9
$DIMCLRE
 70
     0
  9
$DIMCLRT
 70
     0
  9
$DIMTFAC
 40
1.0
  9
$DIMGAP
 40
0.09
  9
$DIMJUST
 70
     0
  9
$DIMSD1
 70
     0
  9
$DIMSD2
 70
     0
  9
$DIMTOLJ
 70
     1
  9
$DIMTZIN
 70
     0
  9
$DIMALTZ
 70
     0
  9
$DIMALTTZ
 70
     0
  9
$DIMUPT
 70
     0
  9
$DIMDEC
 70
     4
  9
$DIMTDEC
 70
     4
  9
$DIMALTU
 70
     2
  9
$DIMALTTD
 70
     2
  9
$DIMTXSTY
  7
Standard
  9
$DIMAUNIT
 70
     0
  9
$DIMADEC
 70
     0
  9
$DIMALTRND
 40
0.0
  9
$DIMAZIN
 70
     0
  9
$DIMDSEP
 70
    46
  9
$DIMATFIT
 70
     3
  9
$DIMFRAC
 70
     0
  9
$DIMLDRBLK
  1

  9
$DIMLUNIT
 70
     2
  9
$DIMLWD
 70
    -2
  9
$DIMLWE
 70
    -2
  9
$DIMTMOVE
 70
     0
  9
$LUNITS
 70
     2
  9
$LUPREC
 70
     4
  9
$SKETCHINC
 40
0.1
  9
$FILLETRAD
 40
0.5
  9
$AUNITS
 70
     0
  9
$AUPREC
 70
     0
  9
$MENU
  1
.
  9
$ELEVATION
 40
0.0
  9
$PELEVATION
 40
0.0
  9
$THICKNESS
 40
0.0
  9
$LIMCHECK
 70
     0
  9
$CHAMFERA
 40
0.0
  9
$CHAMFERB
 40
0.0
  9
$CHAMFERC
 40
0.0
  9
$CHAMFERD
 40
0.0
  9
$SKPOLY
 70
     0
  9
$TDCREATE
 40
2459356.694003958
  9
$TDUCREATE
 40
2459356.610670625
  9
$TDUPDATE
 40
2459356.694004977
  9
$TDUUPDATE
 40
2459356.610671644
  9
$TDINDWG
 40
0.0000000116
  9
$TDUSRTIMER
 40
0.0000000116
  9
$USRTIMER
 70
     1
  9
$ANGBASE
 50
0.0
  9
$ANGDIR
 70
     0
  9
$PDMODE
 70
     0
  9
$PDSIZE
 40
0.0
  9
$PLINEWID
 40
0.0
  9
$SPLFRAME
 70
     0
  9
$SPLINETYPE
 70
     6
  9
$SPLINESEGS
 70
     8
  9
$HANDSEED
  5
2DE
  9
$SURFTAB1
 70
     6
  9
$SURFTAB2
 70
     6
  9
$SURFTYPE
 70
     6
  9
$SURFU
 70
     6
  9
$SURFV
 70
     6
  9
$UCSBASE
  2

  9
$UCSNAME
  2

  9
$UCSORG
 10
0.0
 20
0.0
 30
0.0
  9
$UCSXDIR
 10
1.0
 20
0.0
 30
0.0
  9
$UCSYDIR
 10
0.0
 20
1.0
 30
0.0
  9
$UCSORTHOREF
  2

  9
$UCSORTHOVIEW
 70
     0
  9
$UCSORGTOP
 10
0.0
 20
0.0
 30
0.0
  9
$UCSORGBOTTOM
 10
0.0
 20
0.0
 30
0.0
  9
$UCSORGLEFT
 10
0.0
 20
0.0
 30
0.0
  9
$UCSORGRIGHT
 10
0.0
 20
0.0
 30
0.0
  9
$UCSORGFRONT
 10
0.0
 20
0.0
 30
0.0
  9
$UCSORGBACK
 10
0.0
 20
0.0
 30
0.0
  9
$PUCSBASE
  2

  9
$PUCSNAME
  2

  9
$PUCSORG
 10
0.0
 20
0.0
 30
0.0
  9
$PUCSXDIR
 10
1.0
 20
0.0
 30
0.0
  9
$PUCSYDIR
 10
0.0
 20
1.0
 30
0.0
  9
$PUCSORTHOREF
  2

  9
$PUCSORTHOVIEW
 70
     0
  9
$PUCSORGTOP
 10
0.0
 20
0.0
 30
0.0
  9
$PUCSORGBOTTOM
 10
0.0
 20
0.0
 30
0.0
  9
$PUCSORGLEFT
 10
0.0
 20
0.0
 30
0.0
  9
$PUCSORGRIGHT
 10
0.0
 20
0.0
 30
0.0
  9
$PUCSORGFRONT
 10
0.0
 20
0.0
 30
0.0
  9
$PUCSORGBACK
 10
0.0
 20
0.0
 30
0.0
  9
$USERI1
 70
     0
  9
$USERI2
 70
     0
  9
$USERI3
 70
     0
  9
$USERI4
 70
     0
  9
$USERI5
 70
     0
  9
$USERR1
 40
19.0
  9
$USERR2
 40
0.0
  9
$USERR3
 40
0.0
  9
$USERR4
 40
0.0
  9
$USERR5
 40
0.0
  9
$WORLDVIEW
 70
     1
  9
$SHADEDGE
 70
     3
  9
$SHADEDIF
 70
    70
  9
$TILEMODE
 70
     1
  9
$MAXACTVP
 70
    64
  9
$PINSBASE
 10
0.0
 20
0.0
 30
0.0
  9
$PLIMCHECK
 70
     0
  9
$PEXTMIN
 10
1.00000000000000E+20
 20
1.00000000000000E+20
 30
1.00000000000000E+20
  9
$PEXTMAX
 10
-1.00000000000000E+20
 20
-1.00000000000000E+20
 30
-1.00000000000000E+20
  9
$PLIMMIN
 10
0.0
 20
0.0
  9
$PLIMMAX
 10
12.0
 20
9.0
  9
$UNITMODE
 70
     0
  9
$VISRETAIN
 70
     1
  9
$PLINEGEN
 70
     0
  9
$PSLTSCALE
 70
     1
  9
$TREEDEPTH
 70
  3020
  9
$CMLSTYLE
  2
Standard
  9
$CMLJUST
 70
     0
  9
$CMLSCALE
 40
1.0
  9
$PROXYGRAPHICS
 70
     1
  9
$MEASUREMENT
 70
     1
  9
$CELWEIGHT
370
    -1
  9
$ENDCAPS
280
     0
  9
$JOINSTYLE
280
     0
  9
$LWDISPLAY
290
     0
  9
$INSUNITS
 70
     4
  9
$HYPERLINKBASE
  1

  9
$STYLESHEET
  1

  9
$XEDIT
290
     1
  9
$CEPSNTYPE
380
     0
  9
$PSTYLEMODE
290
     1
  9
$FINGERPRINTGUID
  2
{0FB67A4D-8B41-49B4-B6CC-2751E234D4FD}
  9
$VERSIONGUID
  2
{FAEB1C32-E019-11D5-929B-00C0DF256EC4}
  9
$EXTNAMES
290
     1
  9
$PSVPSCALE
 40
0.0
  9
$OLESTARTUP
290
     0
  0
ENDSEC
  0
SECTION
  2
CLASSES
  0
CLASS
  1
ACDBDICTIONARYWDFLT
  2
AcDbDictionaryWithDefault
  3
ObjectDBX Classes
 90
        0
280
     0
281
     0
  0
CLASS
  1
VISUALSTYLE
  2
AcDbVisualStyle
  3
ObjectDBX Classes
 90
     4095
280
     0
281
     0
  0
CLASS
  1
MATERIAL
  2
AcDbMaterial
  3
ObjectDBX Classes
 90
     1153
280
     0
281
     0
  0
CLASS
  1
SCALE
  2
AcDbScale
  3
ObjectDBX Classes
 90
     1153
280
     0
281
     0
  0
CLASS
  1
SUN
  2
AcDbSun
  3
SCENEOE
 90
     1153
280
     0
281
     0
  0
CLASS
  1
DICTIONARYVAR
  2
AcDbDictionaryVar
  3
ObjectDBX Classes
 90
        0
280
     0
281
     0
  0
CLASS
  1
ACDBPLACEHOLDER
  2
AcDbPlaceHolder
  3
ObjectDBX Classes
 90
        0
280
     0
281
     0
  0
CLASS
  1
LAYOUT
  2
AcDbLayout
  3
ObjectDBX Classes
 90
        0
280
     0
281
     0
  0
ENDSEC
  0
SECTION
  2
TABLES
  0
TABLE
  2
VPORT
  5
8
330
0
100
AcDbSymbolTable
 70
     1
  0
VPORT
  5
29
330
8
100
AcDbSymbolTableRecord
100
AcDbViewportTableRecord
  2
*Active
 70
     0
 10
0.0
 20
0.0
 11
1.0
 21
1.0
 12
926.0
 22
687.5
 13
0.0
 23
0.0
 14
0.5
 24
0.5
 15
0.5
 25
0.5
 16
0.0
 26
0.0
 36
1.0
 17
0.0
 27
0.0
 37
0.0
 40
3576.1
 41
1.60267857142857
 42
50.0
 43
0.0
 44
0.0
 50
0.0
 51
0.0
 71
     0
 72
   100
 73
     1
 74
     3
 75
     0
 76
     0
 77
     0
 78
     0
281
     0
 65
     1
110
0.0
120
0.0
130
0.0
111
1.0
121
0.0
131
0.0
112
0.0
122
1.0
132
0.0
 79
     0
146
0.0
  0
ENDTAB
  0
TABLE
  2
LTYPE
  5
5
330
0
100
AcDbSymbolTable
 70
     8
  0
LTYPE
  5
14
330
5
100
AcDbSymbolTableRecord
100
AcDbLinetypeTableRecord
  2
ByBlock
 70
     0
  3

 72
    65
 73
     0
 40
0.0
  0
LTYPE
  5
15
330
5
100
AcDbSymbolTableRecord
100
AcDbLinetypeTableRecord
  2
ByLayer
 70
     0
  3

 72
    65
 73
     0
 40
0.0
  0
LTYPE
  5
16
330
5
100
AcDbSymbolTableRecord
100
AcDbLinetypeTableRecord
  2
Continuous
 70
     0
  3
Solid line
 72
    65
 73
     0
 40
0.0
  0
LTYPE
  5
6A
330
5
100
AcDbSymbolTableRecord
100
AcDbLinetypeTableRecord
  2
DASHED
 70
     0
  3
Dashed
 72
    65
 73
     2
 40
15.0
 49
7.0
 74
     0
 49
-8.0
 74
     0
  0
LTYPE
  5
6B
330
5
100
AcDbSymbolTableRecord
100
AcDbLinetypeTableRecord
  2
DOTTED
 70
     0
  3
Dotted
 72
    65
 73
     2
 40
1.0
 49
0.0
 74
     0
 49
-1.0
 74
     0
  0
LTYPE
  5
6C
330
5
100
AcDbSymbolTableRecord
100
AcDbLinetypeTableRecord
  2
DOT_CENTER
 70
     0
  3
Dot_Center
 72
    65
 73
     4
 40
14.0
 49
12.0
 74
     0
 49
-1.0
 74
     0
 49
0.0
 74
     0
 49
-1.0
 74
     0
  0
LTYPE
  5
6D
330
5
100
AcDbSymbolTableRecord
100
AcDbLinetypeTableRecord
  2
LONG_DASHED
 70
     0
  3
Long_Dashed
 72
    65
 73
     2
 40
15.0
 49
10.0
 74
     0
 49
-5.0
 74
     0
  0
LTYPE
  5
6E
330
5
100
AcDbSymbolTableRecord
100
AcDbLinetypeTableRecord
  2
DASH_CENTER
 70
     0
  3
Dash_Center
 72
    65
 73
     4
 40
14.0
 49
11.0
 74
     0
 49
-1.0
 74
     0
 49
1.0
 74
     0
 49
-1.0
 74
     0
  0
LTYPE
  5
6F
330
5
100
AcDbSymbolTableRecord
100
AcDbLinetypeTableRecord
  2
PHANTOM
 70
     0
  3
Phantom
 72
    65
 73
     6
 40
13.0
 49
10.0
 74
     0
 49
-1.0
 74
     0
 49
0.0
 74
     0
 49
-1.0
 74
     0
 49
0.0
 74
     0
 49
-1.0
 74
     0
  0
LTYPE
  5
70
330
5
100
AcDbSymbolTableRecord
100
AcDbLinetypeTableRecord
  2
CENTER_DASH_DASH
 70
     0
  3
Center_Dash_Dash
 72
    65
 73
     6
 40
14.0
 49
9.0
 74
     0
 49
-1.0
 74
     0
 49
1.0
 74
     0
 49
-1.0
 74
     0
 49
1.0
 74
     0
 49
-1.0
 74
     0
  0
ENDTAB
  0
TABLE
  2
LAYER
  5
2
330
0
100
AcDbSymbolTable
 70
     2
  0
LAYER
  5
10
330
2
100
AcDbSymbolTableRecord
100
AcDbLayerTableRecord
  2
0
 70
     0
 62
     7
  6
Continuous
370
    -3
390
F
  0
LAYER
  5
71
330
2
100
AcDbSymbolTableRecord
100
AcDbLayerTableRecord
  2
1
 70
     0
 62
     7
  6
Continuous
370
    -3
390
F
  0
ENDTAB
  0
TABLE
  2
STYLE
  5
3
330
0
100
AcDbSymbolTable
 70
     2
  0
STYLE
  5
11
330
3
100
AcDbSymbolTableRecord
100
AcDbTextStyleTableRecord
  2
Standard
 70
     0
 40
0.0
 41
1.0
 50
0.0
 71
     0
 42
0.2
  3
txt
  4

  0
STYLE
  5
29B
330
3
100
AcDbSymbolTableRecord
100
AcDbTextStyleTableRecord
  2
CONVERTER_11
 70
     0
 40
0.0
 41
0.9
 50
0.0
 71
     0
 42
0.2
  3
txt.shx
  4

  0
ENDTAB
  0
TABLE
  2
VIEW
  5
6
330
0
100
AcDbSymbolTable
 70
     0
  0
ENDTAB
  0
TABLE
  2
UCS
  5
7
330
0
100
AcDbSymbolTable
 70
     0
  0
ENDTAB
  0
TABLE
  2
APPID
  5
9
330
0
100
AcDbSymbolTable
 70
     1
  0
APPID
  5
12
330
9
100
AcDbSymbolTableRecord
100
AcDbRegAppTableRecord
  2
ACAD
 70
     0
  0
ENDTAB
  0
TABLE
  2
DIMSTYLE
  5
A
330
0
100
AcDbSymbolTable
 70
     1
100
AcDbDimStyleTable
  0
DIMSTYLE
105
27
330
A
100
AcDbSymbolTableRecord
100
AcDbDimStyleTableRecord
  2
Standard
 70
     0
178
     0
340
11
  0
ENDTAB
  0
TABLE
  2
BLOCK_RECORD
  5
1
330
0
100
AcDbSymbolTable
 70
     1
  0
BLOCK_RECORD
  5
1F
330
1
100
AcDbSymbolTableRecord
100
AcDbBlockTableRecord
  2
*Model_Space
340
22
  0
BLOCK_RECORD
  5
1B
330
1
100
AcDbSymbolTableRecord
100
AcDbBlockTableRecord
  2
*Paper_Space
340
1E
  0
BLOCK_RECORD
  5
23
330
1
100
AcDbSymbolTableRecord
100
AcDbBlockTableRecord
  2
*Paper_Space0
340
26
  0
ENDTAB
  0
ENDSEC
  0
SECTION
  2
BLOCKS
  0
BLOCK
  5
20
330
1F
100
AcDbEntity
  8
0
100
AcDbBlockBegin
  2
*Model_Space
 70
     0
 10
0.0
 20
0.0
 30
0.0
  3
*Model_Space
  1
*Model_Space
  0
ENDBLK
  5
21
330
1F
100
AcDbEntity
  8
0
100
AcDbBlockEnd
  0
BLOCK
  5
1C
330
1B
100
AcDbEntity
 67
     1
  8
0
100
AcDbBlockBegin
  2
*Paper_Space
 70
     0
 10
0.0
 20
0.0
 30
0.0
  3
*Paper_Space
  1
*Paper_Space
  0
ENDBLK
  5
1D
330
1B
100
AcDbEntity
 67
     1
  8
0
100
AcDbBlockEnd
  0
BLOCK
  5
24
330
23
100
AcDbEntity
  8
0
100
AcDbBlockBegin
  2
*Paper_Space0
 70
     0
 10
0.0
 20
0.0
 30
0.0
  3
*Paper_Space0
  1
*Paper_Space0
  0
ENDBLK
  5
25
330
23
100
AcDbEntity
  8
0
100
AcDbBlockEnd
  0
ENDSEC
  0
SECTION
  2
ENTITIES
  0
LINE
  5
72
330
1F
100
AcDbEntity
  8
1
  6
Continuous
 62
     2
100
AcDbLine
 10
2426.0
 20
2313.0
 30
0.0
 11
2426.0
 21
-938.0
 31
0.0
  0
LINE
  5
73
330
1F
100
AcDbEntity
  8
1
  6
Continuous
 62
     2
100
AcDbLine
 10
1426.0
 20
-938.0
 30
0.0
 11
1426.0
 21
2313.0
 31
0.0
  0
LINE
  5
74
330
1F
100
AcDbEntity
  8
1
  6
Continuous
 62
     2
100
AcDbLine
 10
2426.0
 20
-938.0
 30
0.0
 11
1426.0
 21
-938.0
 31
0.0
  0
LINE
  5
75
330
1F
100
AcDbEntity
  8
1
  6
Continuous
 62
     2
100
AcDbLine
 10
2426.0
 20
2313.0
 30
0.0
 11
2426.0
 21
-938.0
 31
0.0
  0
LINE
  5
76
330
1F
100
AcDbEntity
  8
1
  6
Continuous
 62
     2
100
AcDbLine
 10
1426.0
 20
2313.0
 30
0.0
 11
2426.0
 21
2313.0
 31
0.0
  0
LINE
  5
77
330
1F
100
AcDbEntity
  8
1
  6
Continuous
 62
     2
100
AcDbLine
 10
426.0
 20
2313.0
 30
0.0
 11
426.0
 21
-938.0
 31
0.0
  0
LINE
  5
78
330
1F
100
AcDbEntity
  8
1
  6
Continuous
 62
     2
100
AcDbLine
 10
1426.0
 20
2313.0
 30
0.0
 11
426.0
 21
2313.0
 31
0.0
  0
LINE
  5
79
330
1F
100
AcDbEntity
  8
1
  6
Continuous
 62
     2
100
AcDbLine
 10
1426.0
 20
-938.0
 30
0.0
 11
1426.0
 21
2313.0
 31
0.0
  0
LINE
  5
7A
330
1F
100
AcDbEntity
  8
1
  6
Continuous
 62
     2
100
AcDbLine
 10
426.0
 20
-938.0
 30
0.0
 11
1426.0
 21
-938.0
 31
0.0
  0
LINE
  5
7B
330
1F
100
AcDbEntity
  8
1
  6
Continuous
 62
     2
100
AcDbLine
 10
426.0
 20
-938.0
 30
0.0
 11
426.0
 21
2313.0
 31
0.0
  0
LINE
  5
7C
330
1F
100
AcDbEntity
  8
1
  6
Continuous
 62
     2
100
AcDbLine
 10
426.0
 20
2313.0
 30
0.0
 11
426.0
 21
-938.0
 31
0.0
  0
LINE
  5
7D
330
1F
100
AcDbEntity
  8
1
  6
Continuous
 62
     2
100
AcDbLine
 10
-574.0
 20
2313.0
 30
0.0
 11
-574.0
 21
-938.0
 31
0.0
  0
LINE
  5
7E
330
1F
100
AcDbEntity
  8
1
  6
Continuous
 62
     2
100
AcDbLine
 10
426.0
 20
2313.0
 30
0.0
 11
-574.0
 21
2313.0
 31
0.0
  0
LINE
  5
7F
330
1F
100
AcDbEntity
  8
1
  6
Continuous
 62
     2
100
AcDbLine
 10
426.0
 20
-938.0
 30
0.0
 11
426.0
 21
2313.0
 31
0.0
  0
LINE
  5
80
330
1F
100
AcDbEntity
  8
1
  6
Continuous
 62
     2
100
AcDbLine
 10
-574.0
 20
-938.0
 30
0.0
 11
426.0
 21
-938.0
 31
0.0
  0
LINE
  5
81
330
1F
100
AcDbEntity
  8
1
  6
Continuous
 62
     2
100
AcDbLine
 10
-574.0
 20
2313.0
 30
0.0
 11
-574.0
 21
-938.0
 31
0.0
  0
LINE
  5
82
330
1F
100
AcDbEntity
  8
0
  6
Continuous
 62
     7
100
AcDbLine
 10
901.9738812619269
 20
1748.420956583052
 30
0.0
 11
898.395076703579
 21
1452.0
 31
0.0
  0
LINE
  5
83
330
1F
100
AcDbEntity
  8
0
  6
Continuous
 62
     7
100
AcDbLine
 10
915.576633261348
 20
1747.657195551334
 30
0.0
 11
911.9918972840967
 21
1450.744958476673
 31
0.0
  0
LINE
  5
84
330
1F
100
AcDbEntity
  8
0
  6
Continuous
 62
     7
100
AcDbLine
 10
915.323723869848
 20
1455.235177884575
 30
0.0
 11
918.8520272391268
 21
1747.473282196153
 31
0.0
  0
LINE
  5
85
330
1F
100
AcDbEntity
  8
0
  6
Continuous
 62
     7
100
AcDbLine
 10
1170.126572165778
 20
1409.926630599872
 30
0.0
 11
1169.967193046778
 21
1396.72576697496
 31
0.0
  0
LINE
  5
86
330
1F
100
AcDbEntity
  8
0
  6
Continuous
 62
     7
100
AcDbLine
 10
1169.967193046778
 20
1396.72576697496
 30
0.0
 11
1173.299019632528
 21
1401.21598638286
 31
0.0
  0
LINE
  5
87
330
1F
100
AcDbEntity
  8
0
  6
Continuous
 62
     7
100
AcDbLine
 10
1170.126572165778
 20
1409.926630599872
 30
0.0
 11
1173.458398751538
 21
1414.416850007776
 31
0.0
  0
LINE
  5
88
330
1F
100
AcDbEntity
  8
0
  6
Continuous
 62
     7
100
AcDbLine
 10
1173.458398751538
 20
1414.416850007776
 30
0.0
 11
1173.299019632528
 21
1401.21598638286
 31
0.0
  0
LINE
  5
89
330
1F
100
AcDbEntity
  8
0
  6
Continuous
 62
     7
100
AcDbLine
 10
929.2686077346168
 20
1432.158794714645
 30
0.0
 11
1170.126572165778
 21
1409.926630599872
 31
0.0
  0
LINE
  5
8A
330
1F
100
AcDbEntity
  8
0
  6
Continuous
 62
     7
100
AcDbLine
 10
929.1092286156068
 20
1418.95793108973
 30
0.0
 11
1169.967193046778
 21
1396.72576697496
 31
0.0
  0
LINE
  5
8B
330
1F
100
AcDbEntity
  8
0
  6
Continuous
 62
     7
100
AcDbLine
 10
1173.458398751538
 20
1414.416850007776
 30
0.0
 11
932.6004343203679
 21
1436.649014122548
 31
0.0
  0
LINE
  5
8C
330
1F
100
AcDbEntity
  8
0
  6
Continuous
 62
     7
100
AcDbLine
 10
898.395076703579
 20
1452.0
 30
0.0
 11
901.9738811241766
 21
1748.420945173977
 31
0.0
  0
LINE
  5
8D
330
1F
100
AcDbEntity
  8
0
  6
Continuous
 62
     7
100
AcDbLine
 10
882.1932991950578
 20
1749.531601197637
 30
0.0
 11
878.6019412084877
 21
1452.070884231811
 31
0.0
  0
LINE
  5
8E
330
1F
100
AcDbEntity
  8
0
  6
Continuous
 62
     7
100
AcDbLine
 10
694.4037469605971
 20
1373.137002349824
 30
0.0
 11
694.2443678415864
 21
1359.936138724908
 31
0.0
  0
LINE
  5
8F
330
1F
100
AcDbEntity
  8
0
  6
Continuous
 62
     7
100
AcDbLine
 10
694.2443678415864
 20
1359.936138724908
 30
0.0
 11
704.3536465821378
 21
1356.604131178949
 31
0.0
  0
LINE
  5
90
330
1F
100
AcDbEntity
  8
0
  6
Continuous
 62
     7
100
AcDbLine
 10
694.4037469605971
 20
1373.137002349824
 30
0.0
 11
704.5130257011476
 21
1369.804994803864
 31
0.0
  0
LINE
  5
91
330
1F
100
AcDbEntity
  8
0
  6
Continuous
 62
     7
100
AcDbLine
 10
704.5130257011476
 20
1369.804994803864
 30
0.0
 11
704.3536465821378
 21
1356.604131178949
 31
0.0
  0
LINE
  5
92
330
1F
100
AcDbEntity
  8
0
  6
Continuous
 62
     7
100
AcDbLine
 10
888.7112199490471
 20
1448.738876685853
 30
0.0
 11
892.3359310352769
 21
1748.96212442107
 31
0.0
  0
LINE
  5
93
330
1F
100
AcDbEntity
  8
0
  6
Continuous
 62
     7
100
AcDbLine
 10
865.9463522282388
 20
1430.905472453016
 30
0.0
 11
694.4037469605971
 21
1373.137002349824
 31
0.0
  0
LINE
  5
94
330
1F
100
AcDbEntity
  8
0
  6
Continuous
 62
     7
100
AcDbLine
 10
704.5130257011476
 20
1369.804994803864
 30
0.0
 11
876.0556309687868
 21
1427.57346490706
 31
0.0
  0
LINE
  5
95
330
1F
100
AcDbEntity
  8
0
  6
Continuous
 62
     7
100
AcDbLine
 10
704.3536465821378
 20
1356.604131178949
 30
0.0
 11
875.8962518497767
 21
1414.372601282144
 31
0.0
  0
LINE
  5
96
330
1F
100
AcDbEntity
  8
0
  6
Continuous
 62
     7
100
AcDbLine
 10
809.821605472798
 20
1528.682765303258
 30
0.0
 11
809.6622263537884
 21
1515.481901678342
 31
0.0
  0
LINE
  5
97
330
1F
100
AcDbEntity
  8
0
  6
Continuous
 62
     7
100
AcDbLine
 10
823.2627107990966
 20
1529.840977165206
 30
0.0
 11
809.821605472798
 21
1528.682765303258
 31
0.0
  0
LINE
  5
98
330
1F
100
AcDbEntity
  8
0
  6
Continuous
 62
     7
100
AcDbLine
 10
898.8497548303578
 20
1438.177967273492
 30
0.0
 11
900.1248801495988
 21
1442.858822727032
 31
0.0
  0
LINE
  5
99
330
1F
100
AcDbEntity
  8
0
  6
Continuous
 62
     7
100
AcDbLine
 10
809.6622263537884
 20
1515.481901678342
 30
0.0
 11
875.2275559438881
 21
1439.80938099583
 31
0.0
  0
LINE
  5
9A
330
1F
100
AcDbEntity
  8
0
  6
Continuous
 62
     7
100
AcDbLine
 10
878.7675270679479
 20
1465.779843280236
 30
0.0
 11
823.2627107990966
 21
1529.840977165206
 31
0.0
  0
LINE
  5
9B
330
1F
100
AcDbEntity
  8
0
  6
Continuous
 62
     7
100
AcDbLine
 10
809.821605472798
 20
1528.682765303258
 30
0.0
 11
878.2464449899069
 21
1449.709928349226
 31
0.0
  0
LINE
  5
9C
330
1F
100
AcDbEntity
  8
0
  6
Continuous
 62
     7
100
AcDbLine
 10
895.5301944972377
 20
1434.93102427343
 30
0.0
 11
894.3926329475469
 21
1434.833006772678
 31
0.0
  0
LINE
  5
9D
330
1F
100
AcDbEntity
  8
0
  6
Continuous
 62
     7
100
AcDbLine
 10
-176.7372892009
 20
1529.840977165202
 30
0.0
 11
-190.1783945272009
 21
1528.68276530326
 31
0.0
  0
LINE
  5
9E
330
1F
100
AcDbEntity
  8
0
  6
Continuous
 62
     7
100
AcDbLine
 10
-190.1783945272009
 20
1528.68276530326
 30
0.0
 11
-190.337773646211
 21
1515.481901678344
 31
0.0
  0
LINE
  5
9F
330
1F
100
AcDbEntity
  8
0
  6
Continuous
 62
     7
100
AcDbLine
 10
-101.150314376001
 20
1438.177819681963
 30
0.0
 11
-99.87521300310004
 21
1442.858895577592
 31
0.0
  0
LINE
  5
A0
330
1F
100
AcDbEntity
  8
0
  6
Continuous
 62
     7
100
AcDbLine
 10
-121.23255866103
 20
1465.77994222473
 30
0.0
 11
-176.7372892009
 21
1529.840977165202
 31
0.0
  0
LINE
  5
A1
330
1F
100
AcDbEntity
  8
0
  6
Continuous
 62
     7
100
AcDbLine
 10
-190.1783945272009
 20
1528.68276530326
 30
0.0
 11
-121.7536211143699
 21
1449.710004643774
 31
0.0
  0
LINE
  5
A2
330
1F
100
AcDbEntity
  8
0
  6
Continuous
 62
     7
100
AcDbLine
 10
-190.337773646211
 20
1515.481901678344
 30
0.0
 11
-124.7724440561101
 21
1439.809380995828
 31
0.0
  0
LINE
  5
A3
330
1F
100
AcDbEntity
  8
0
  6
Continuous
 62
     7
100
AcDbLine
 10
-104.4697979578291
 20
1434.931024923475
 30
0.0
 11
-105.607360967321
 21
1434.832989841863
 31
0.0
  0
LINE
  5
A4
330
1F
100
AcDbEntity
  8
0
  6
Continuous
 62
     7
100
AcDbLine
 10
-101.604923296421
 20
1452.0
 30
0.0
 11
-98.28146418300003
 21
1727.271508545222
 31
0.0
  0
LINE
  5
A5
330
1F
100
AcDbEntity
  8
0
  6
Continuous
 62
     7
100
AcDbLine
 10
-118.0620459055001
 20
1728.382181682495
 30
0.0
 11
-121.3980587915
 21
1452.070884231809
 31
0.0
  0
LINE
  5
A6
330
1F
100
AcDbEntity
  8
0
  6
Continuous
 62
     7
100
AcDbLine
 10
-305.5962530393999
 20
1373.137002349824
 30
0.0
 11
-305.75563215841
 21
1359.936138724905
 31
0.0
  0
LINE
  5
A7
330
1F
100
AcDbEntity
  8
0
  6
Continuous
 62
     7
100
AcDbLine
 10
-305.75563215841
 20
1359.936138724905
 30
0.0
 11
-295.6463534178499
 21
1356.60413117895
 31
0.0
  0
LINE
  5
A8
330
1F
100
AcDbEntity
  8
0
  6
Continuous
 62
     7
100
AcDbLine
 10
-305.5962530393999
 20
1373.137002349824
 30
0.0
 11
-295.486974298851
 21
1369.804994803864
 31
0.0
  0
LINE
  5
A9
330
1F
100
AcDbEntity
  8
0
  6
Continuous
 62
     7
100
AcDbLine
 10
-295.486974298851
 20
1369.804994803864
 30
0.0
 11
-295.6463534178499
 21
1356.60413117895
 31
0.0
  0
LINE
  5
AA
330
1F
100
AcDbEntity
  8
0
  6
Continuous
 62
     7
100
AcDbLine
 10
-111.28878005095
 20
1448.738876685851
 30
0.0
 11
-107.9194142719
 21
1727.812687792315
 31
0.0
  0
LINE
  5
AB
330
1F
100
AcDbEntity
  8
0
  6
Continuous
 62
     7
100
AcDbLine
 10
-134.053647771761
 20
1430.905472453018
 30
0.0
 11
-305.5962530393999
 21
1373.137002349824
 31
0.0
  0
LINE
  5
AC
330
1F
100
AcDbEntity
  8
0
  6
Continuous
 62
     7
100
AcDbLine
 10
-295.486974298851
 20
1369.804994803864
 30
0.0
 11
-123.944369031211
 21
1427.573464907058
 31
0.0
  0
LINE
  5
AD
330
1F
100
AcDbEntity
  8
0
  6
Continuous
 62
     7
100
AcDbLine
 10
-295.6463534178499
 20
1356.60413117895
 30
0.0
 11
-124.1037481502201
 21
1414.372601282143
 31
0.0
  0
LINE
  5
AE
330
1F
100
AcDbEntity
  8
0
  6
Continuous
 62
     7
100
AcDbLine
 10
-98.28146418300003
 20
1727.271508545222
 30
0.0
 11
-101.604923296421
 21
1452.0
 31
0.0
  0
LINE
  5
AF
330
1F
100
AcDbEntity
  8
0
  6
Continuous
 62
     7
100
AcDbLine
 10
-84.67871225244994
 20
1726.507741808962
 30
0.0
 11
-88.00810271589899
 21
1450.744958476673
 31
0.0
  0
LINE
  5
B0
330
1F
100
AcDbEntity
  8
0
  6
Continuous
 62
     7
100
AcDbLine
 10
-84.6762761301411
 20
1455.235177884573
 30
0.0
 11
-81.40331779256007
 21
1726.323868385549
 31
0.0
  0
LINE
  5
B1
330
1F
100
AcDbEntity
  8
0
  6
Continuous
 62
     7
100
AcDbLine
 10
173.4583987515389
 20
1414.416850007776
 30
0.0
 11
173.29901963254
 21
1401.21598638286
 31
0.0
  0
LINE
  5
B2
330
1F
100
AcDbEntity
  8
0
  6
Continuous
 62
     7
100
AcDbLine
 10
170.1265721657901
 20
1409.926630599872
 30
0.0
 11
173.4583987515389
 21
1414.416850007776
 31
0.0
  0
LINE
  5
B3
330
1F
100
AcDbEntity
  8
0
  6
Continuous
 62
     7
100
AcDbLine
 10
169.9671930467803
 20
1396.725766974954
 30
0.0
 11
173.29901963254
 21
1401.21598638286
 31
0.0
  0
LINE
  5
B4
330
1F
100
AcDbEntity
  8
0
  6
Continuous
 62
     7
100
AcDbLine
 10
170.1265721657901
 20
1409.926630599872
 30
0.0
 11
169.9671930467803
 21
1396.725766974954
 31
0.0
  0
LINE
  5
B5
330
1F
100
AcDbEntity
  8
0
  6
Continuous
 62
     7
100
AcDbLine
 10
-70.73139226538001
 20
1432.158794714645
 30
0.0
 11
170.1265721657901
 21
1409.926630599872
 31
0.0
  0
LINE
  5
B6
330
1F
100
AcDbEntity
  8
0
  6
Continuous
 62
     7
100
AcDbLine
 10
-70.89077138439006
 20
1418.95793108973
 30
0.0
 11
169.9671930467803
 21
1396.725766974954
 31
0.0
  0
LINE
  5
B7
330
1F
100
AcDbEntity
  8
0
  6
Continuous
 62
     7
100
AcDbLine
 10
173.4583987515389
 20
1414.416850007776
 30
0.0
 11
-67.39956567963009
 21
1436.649014122548
 31
0.0
  0
LINE
  5
B8
330
1F
100
AcDbEntity
  8
0
  6
Continuous
 62
     7
100
AcDbLine
 10
1898.849787090709
 20
1438.178036074416
 30
0.0
 11
1900.124930045269
 21
1442.858813762388
 31
0.0
  0
LINE
  5
B9
330
1F
100
AcDbEntity
  8
0
  6
Continuous
 62
     7
100
AcDbLine
 10
1834.137880677169
 20
1500.618026670385
 30
0.0
 11
1833.97850155816
 21
1487.417163045469
 31
0.0
  0
LINE
  5
BA
330
1F
100
AcDbEntity
  8
0
  6
Continuous
 62
     7
100
AcDbLine
 10
1847.57898600348
 20
1501.776238532331
 30
0.0
 11
1834.137880677169
 21
1500.618026670385
 31
0.0
  0
LINE
  5
BB
330
1F
100
AcDbEntity
  8
0
  6
Continuous
 62
     7
100
AcDbLine
 10
1834.137880677169
 20
1500.618026670385
 30
0.0
 11
1878.246516192219
 21
1449.709846170757
 31
0.0
  0
LINE
  5
BC
330
1F
100
AcDbEntity
  8
0
  6
Continuous
 62
     7
100
AcDbLine
 10
1833.97850155816
 20
1487.417163045469
 30
0.0
 11
1875.22740257913
 21
1439.809558002462
 31
0.0
  0
LINE
  5
BD
330
1F
100
AcDbEntity
  8
0
  6
Continuous
 62
     7
100
AcDbLine
 10
1878.76727735699
 20
1465.780131485271
 30
0.0
 11
1847.57898600348
 21
1501.776238532331
 31
0.0
  0
LINE
  5
BE
330
1F
100
AcDbEntity
  8
0
  6
Continuous
 62
     7
100
AcDbLine
 10
1895.530008491499
 20
1434.931008255675
 30
0.0
 11
1894.392709474559
 21
1434.833059054301
 31
0.0
  0
LINE
  5
BF
330
1F
100
AcDbEntity
  8
0
  6
Continuous
 62
     7
100
AcDbLine
 10
1915.323723869848
 20
1455.235177884575
 30
0.0
 11
1920.107278698469
 21
1851.441753305209
 31
0.0
  0
LINE
  5
C0
330
1F
100
AcDbEntity
  8
0
  6
Continuous
 62
     7
100
AcDbLine
 10
1903.22913235757
 20
1852.38939756794
 30
0.0
 11
1898.395076703579
 21
1452.0
 31
0.0
  0
LINE
  5
C1
330
1F
100
AcDbEntity
  8
0
  6
Continuous
 62
     7
100
AcDbLine
 10
1916.831884628748
 20
1851.625659045292
 30
0.0
 11
1911.991897284098
 21
1450.744958476671
 31
0.0
  0
LINE
  5
C2
330
1F
100
AcDbEntity
  8
0
  6
Continuous
 62
     7
100
AcDbLine
 10
2085.47266515354
 20
1404.524953584207
 30
0.0
 11
2088.804491739299
 21
1409.015172992113
 31
0.0
  0
LINE
  5
C3
330
1F
100
AcDbEntity
  8
0
  6
Continuous
 62
     7
100
AcDbLine
 10
2085.632044272549
 20
1417.725817209122
 30
0.0
 11
2085.47266515354
 21
1404.524953584207
 31
0.0
  0
LINE
  5
C4
330
1F
100
AcDbEntity
  8
0
  6
Continuous
 62
     7
100
AcDbLine
 10
2085.632044272549
 20
1417.725817209122
 30
0.0
 11
2088.963870858309
 21
1422.216036617027
 31
0.0
  0
LINE
  5
C5
330
1F
100
AcDbEntity
  8
0
  6
Continuous
 62
     7
100
AcDbLine
 10
2088.963870858309
 20
1422.216036617027
 30
0.0
 11
2088.804491739299
 21
1409.015172992113
 31
0.0
  0
LINE
  5
C6
330
1F
100
AcDbEntity
  8
0
  6
Continuous
 62
     7
100
AcDbLine
 10
2088.963870858309
 20
1422.216036617027
 30
0.0
 11
1932.600434320369
 21
1436.64901412255
 31
0.0
  0
LINE
  5
C7
330
1F
100
AcDbEntity
  8
0
  6
Continuous
 62
     7
100
AcDbLine
 10
1929.268607734618
 20
1432.158794714645
 30
0.0
 11
2085.632044272549
 21
1417.725817209122
 31
0.0
  0
LINE
  5
C8
330
1F
100
AcDbEntity
  8
0
  6
Continuous
 62
     7
100
AcDbLine
 10
1929.109228615609
 20
1418.95793108973
 30
0.0
 11
2085.47266515354
 21
1404.524953584207
 31
0.0
  0
LINE
  5
C9
330
1F
100
AcDbEntity
  8
0
  6
Continuous
 62
     7
100
AcDbLine
 10
1764.691278390018
 20
1390.070546827488
 30
0.0
 11
1764.531899271008
 21
1376.869683202576
 31
0.0
  0
LINE
  5
CA
330
1F
100
AcDbEntity
  8
0
  6
Continuous
 62
     7
100
AcDbLine
 10
1754.581999649459
 20
1393.402554373446
 30
0.0
 11
1764.691278390018
 21
1390.070546827488
 31
0.0
  0
LINE
  5
CB
330
1F
100
AcDbEntity
  8
0
  6
Continuous
 62
     7
100
AcDbLine
 10
1754.581999649459
 20
1393.402554373446
 30
0.0
 11
1754.422620530459
 21
1380.20169074853
 31
0.0
  0
LINE
  5
CC
330
1F
100
AcDbEntity
  8
0
  6
Continuous
 62
     7
100
AcDbLine
 10
1754.422620530459
 20
1380.20169074853
 30
0.0
 11
1764.531899271008
 21
1376.869683202576
 31
0.0
  0
LINE
  5
CD
330
1F
100
AcDbEntity
  8
0
  6
Continuous
 62
     7
100
AcDbLine
 10
1888.711219949048
 20
1448.738876685855
 30
0.0
 11
1893.591182641198
 21
1852.93060767038
 31
0.0
  0
LINE
  5
CE
330
1F
100
AcDbEntity
  8
0
  6
Continuous
 62
     7
100
AcDbLine
 10
1898.395076703579
 20
1452.0
 30
0.0
 11
1903.229132192678
 21
1852.38938391077
 31
0.0
  0
LINE
  5
CF
330
1F
100
AcDbEntity
  8
0
  6
Continuous
 62
     7
100
AcDbLine
 10
1883.44855091954
 20
1853.500094268115
 30
0.0
 11
1878.601941208498
 21
1452.070884231811
 31
0.0
  0
LINE
  5
D0
330
1F
100
AcDbEntity
  8
0
  6
Continuous
 62
     7
100
AcDbLine
 10
1764.691278390018
 20
1390.070546827488
 30
0.0
 11
1876.055630968788
 21
1427.57346490706
 31
0.0
  0
LINE
  5
D1
330
1F
100
AcDbEntity
  8
0
  6
Continuous
 62
     7
100
AcDbLine
 10
1764.531899271008
 20
1376.869683202576
 30
0.0
 11
1875.896251849779
 21
1414.372601282144
 31
0.0
  0
LINE
  5
D2
330
1F
100
AcDbEntity
  8
0
  6
Continuous
 62
     7
100
AcDbLine
 10
1865.946352228239
 20
1430.905472453018
 30
0.0
 11
1754.581999649459
 21
1393.402554373446
 31
0.0
  0
LINE
  5
D3
330
1F
100
AcDbEntity
  8
0
  6
Continuous
 62
     7
100
AcDbLine
 10
582.8526242203968
 20
1896.783122013052
 30
0.0
 11
584.4418392306577
 21
1890.720160415873
 31
0.0
  0
LINE
  5
D4
330
1F
100
AcDbEntity
  8
0
  6
Continuous
 62
     7
100
AcDbLine
 10
582.7957581401968
 20
1892.068507303789
 30
0.0
 11
584.3849181167168
 21
1886.005566264117
 31
0.0
  0
LINE
  5
D5
330
1F
100
AcDbEntity
  8
0
  6
Continuous
 62
     7
100
AcDbLine
 10
635.5452001414667
 20
1925.409226841635
 30
0.0
 11
886.4547383232068
 21
1967.557584454346
 31
0.0
  0
LINE
  5
D6
330
1F
100
AcDbEntity
  8
0
  6
Continuous
 62
     7
100
AcDbLine
 10
635.0262026419875
 20
1796.88737763959
 30
0.0
 11
584.4418392306577
 21
1890.720160415873
 31
0.0
  0
LINE
  5
D7
330
1F
100
AcDbEntity
  8
0
  6
Continuous
 62
     7
100
AcDbLine
 10
634.9692815280575
 20
1792.172783487835
 30
0.0
 11
584.3849181167168
 21
1886.005566264117
 31
0.0
  0
LINE
  5
D8
330
1F
100
AcDbEntity
  8
0
  6
Continuous
 62
     7
100
AcDbLine
 10
1002.085524639928
 20
1753.065244865558
 30
0.0
 11
719.9131305707067
 21
1768.908736267578
 31
0.0
  0
LINE
  5
D9
330
1F
100
AcDbEntity
  8
0
  6
Continuous
 62
     7
100
AcDbLine
 10
1004.583922530488
 20
1742.659576030577
 30
0.0
 11
722.4115284612669
 21
1758.503067432595
 31
0.0
  0
LINE
  5
DA
330
1F
100
AcDbEntity
  8
0
  6
Continuous
 62
     7
100
AcDbLine
 10
1002.028603525998
 20
1748.350650713803
 30
0.0
 11
719.8562094567767
 21
1764.194142115823
 31
0.0
  0
LINE
  5
DB
330
1F
100
AcDbEntity
  8
0
  6
Continuous
 62
     7
100
AcDbLine
 10
1229.402737907698
 20
1849.788932401983
 30
0.0
 11
1105.594971097318
 21
1765.747965812614
 31
0.0
  0
LINE
  5
DC
330
1F
100
AcDbEntity
  8
0
  6
Continuous
 62
     7
100
AcDbLine
 10
1229.459659021628
 20
1854.503526553737
 30
0.0
 11
1105.651892211248
 21
1770.46255996437
 31
0.0
  0
LINE
  5
DD
330
1F
100
AcDbEntity
  8
0
  6
Continuous
 62
     7
100
AcDbLine
 10
1002.925280234158
 20
1961.017965171453
 30
0.0
 11
1208.580266343348
 21
1893.234299969812
 31
0.0
  0
LINE
  5
DE
330
1F
100
AcDbEntity
  8
0
  6
Continuous
 62
     7
100
AcDbLine
 10
1239.345652669237
 20
1864.018747488186
 30
0.0
 11
1239.402573660798
 21
1868.73333150267
 31
0.0
  0
LINE
  5
DF
330
1F
100
AcDbEntity
  8
0
  6
Continuous
 62
     7
100
AcDbLine
 10
1099.294053652087
 20
1762.099945931053
 30
0.0
 11
1082.396322391247
 21
1753.659032065607
 31
0.0
  0
LINE
  5
E0
330
1F
100
AcDbEntity
  8
0
  6
Continuous
 62
     7
100
AcDbLine
 10
649.1875344553971
 20
1779.970971122686
 30
0.0
 11
665.8765891966375
 21
1771.124530247702
 31
0.0
  0
LINE
  5
E1
330
1F
100
AcDbEntity
  8
0
  6
Continuous
 62
     7
100
AcDbLine
 10
582.7957581401968
 20
1892.068507303789
 30
0.0
 11
582.8526242203968
 21
1896.783122013052
 31
0.0
  0
LINE
  5
E2
330
1F
100
AcDbEntity
  8
0
  6
Continuous
 62
     7
100
AcDbLine
 10
-434.578633074821
 20
1937.430398715756
 30
0.0
 11
-103.01960047752
 21
1993.126442703979
 31
0.0
  0
LINE
  5
E3
330
1F
100
AcDbEntity
  8
0
  6
Continuous
 62
     7
100
AcDbLine
 10
-418.8383709063701
 20
1778.748012192767
 30
0.0
 11
-485.68199398564
 21
1902.741332289994
 31
0.0
  0
LINE
  5
E4
330
1F
100
AcDbEntity
  8
0
  6
Continuous
 62
     7
100
AcDbLine
 10
-418.8952920203001
 20
1774.03341804101
 30
0.0
 11
-485.73891509957
 21
1898.026738138238
 31
0.0
  0
LINE
  5
E5
330
1F
100
AcDbEntity
  8
0
  6
Continuous
 62
     7
100
AcDbLine
 10
38.86229949989138
 20
1725.118734459185
 30
0.0
 11
-334.00836409159
 21
1746.054776668994
 31
0.0
  0
LINE
  5
E6
330
1F
100
AcDbEntity
  8
0
  6
Continuous
 62
     7
100
AcDbLine
 10
38.91922061382138
 20
1729.833328610941
 30
0.0
 11
-333.95144297766
 21
1750.76937082075
 31
0.0
  0
LINE
  5
E7
330
1F
100
AcDbEntity
  8
0
  6
Continuous
 62
     7
100
AcDbLine
 10
41.41761850437888
 20
1719.42765977596
 30
0.0
 11
-331.4530450871
 21
1740.363701985771
 31
0.0
  0
LINE
  5
E8
330
1F
100
AcDbEntity
  8
0
  6
Continuous
 62
     7
100
AcDbLine
 10
136.1277911124989
 20
1738.868050400166
 30
0.0
 11
142.428667071209
 21
1742.516049557997
 31
0.0
  0
LINE
  5
E9
330
1F
100
AcDbEntity
  8
0
  6
Continuous
 62
     7
100
AcDbLine
 10
306.0887086131293
 20
1858.284778131416
 30
0.0
 11
142.485588185139
 21
1747.230643709752
 31
0.0
  0
LINE
  5
EA
330
1F
100
AcDbEntity
  8
0
  6
Continuous
 62
     7
100
AcDbLine
 10
306.0317874991988
 20
1853.57018397966
 30
0.0
 11
142.428667071209
 21
1742.516049557997
 31
0.0
  0
LINE
  5
EB
330
1F
100
AcDbEntity
  8
0
  6
Continuous
 62
     7
100
AcDbLine
 10
13.45094143342885
 20
1986.586823421088
 30
0.0
 11
285.2093159348601
 21
1897.015551547489
 31
0.0
  0
LINE
  5
EC
330
1F
100
AcDbEntity
  8
0
  6
Continuous
 62
     7
100
AcDbLine
 10
315.9747016970591
 20
1867.799952374386
 30
0.0
 11
316.0316231511893
 21
1872.514574703841
 31
0.0
  0
LINE
  5
ED
330
1F
100
AcDbEntity
  8
0
  6
Continuous
 62
     7
100
AcDbLine
 10
136.1277911124989
 20
1738.868050400166
 30
0.0
 11
119.2299681744489
 21
1730.427090739275
 31
0.0
  0
LINE
  5
EE
330
1F
100
AcDbEntity
  8
0
  6
Continuous
 62
     7
100
AcDbLine
 10
-487.32813014357
 20
1904.089696940462
 30
0.0
 11
-487.27120915202
 21
1908.804280954942
 31
0.0
  0
LINE
  5
EF
330
1F
100
AcDbEntity
  8
0
  6
Continuous
 62
     7
100
AcDbLine
 10
-404.67705307139
 20
1761.831613085456
 30
0.0
 11
-387.98799833013
 21
1752.985172210469
 31
0.0
  0
LINE
  5
F0
330
1F
100
AcDbEntity
  8
0
  6
Continuous
 62
     7
100
AcDbLine
 10
1731.06745897047
 20
1984.623691852257
 30
0.0
 11
1873.164187226459
 21
2008.493424990067
 31
0.0
  0
LINE
  5
F1
330
1F
100
AcDbEntity
  8
0
  6
Continuous
 62
     7
100
AcDbLine
 10
1708.554443979699
 20
1892.080036947356
 30
0.0
 11
1679.907176945729
 21
1945.220031274739
 31
0.0
  0
LINE
  5
F2
330
1F
100
AcDbEntity
  8
0
  6
Continuous
 62
     7
100
AcDbLine
 10
1708.611365093629
 20
1896.79463109911
 30
0.0
 11
1679.964098059659
 21
1949.934625426495
 31
0.0
  0
LINE
  5
F3
330
1F
100
AcDbEntity
  8
0
  6
Continuous
 62
     7
100
AcDbLine
 10
1955.798403880678
 20
1849.437731373622
 30
0.0
 11
1795.996690912899
 21
1858.410320892112
 31
0.0
  0
LINE
  5
F4
330
1F
100
AcDbEntity
  8
0
  6
Continuous
 62
     7
100
AcDbLine
 10
1953.300005990118
 20
1859.843400208603
 30
0.0
 11
1793.498293022339
 21
1868.815989727093
 31
0.0
  0
LINE
  5
F5
330
1F
100
AcDbEntity
  8
0
  6
Continuous
 62
     7
100
AcDbLine
 10
1953.243084876188
 20
1855.128806056848
 30
0.0
 11
1793.441371908409
 21
1864.101395575337
 31
0.0
  0
LINE
  5
F6
330
1F
100
AcDbEntity
  8
0
  6
Continuous
 62
     7
100
AcDbLine
 10
2126.925075488079
 20
1920.120750193519
 30
0.0
 11
2056.809452447508
 21
1872.526121155663
 31
0.0
  0
LINE
  5
F7
330
1F
100
AcDbEntity
  8
0
  6
Continuous
 62
     7
100
AcDbLine
 10
2126.981996602009
 20
1924.835344345274
 30
0.0
 11
2056.866373561439
 21
1877.240715307418
 31
0.0
  0
LINE
  5
F8
330
1F
100
AcDbEntity
  8
0
  6
Continuous
 62
     7
100
AcDbLine
 10
1989.634729137409
 20
2001.953805707173
 30
0.0
 11
2106.102603923739
 21
1963.566117761346
 31
0.0
  0
LINE
  5
F9
330
1F
100
AcDbEntity
  8
0
  6
Continuous
 62
     7
100
AcDbLine
 10
2136.867989718698
 20
1934.350521302031
 30
0.0
 11
2136.924911072779
 21
1939.065135343959
 31
0.0
  0
LINE
  5
FA
330
1F
100
AcDbEntity
  8
0
  6
Continuous
 62
     7
100
AcDbLine
 10
2050.508555512939
 20
1868.878111519771
 30
0.0
 11
2033.610801589629
 21
1860.437186333764
 31
0.0
  0
LINE
  5
FB
330
1F
100
AcDbEntity
  8
0
  6
Continuous
 62
     7
100
AcDbLine
 10
1678.317961479869
 20
1951.282955130877
 30
0.0
 11
1678.37488283389
 21
1955.997569172852
 31
0.0
  0
LINE
  5
FC
330
1F
100
AcDbEntity
  8
0
  6
Continuous
 62
     7
100
AcDbLine
 10
1722.772698066929
 20
1879.878223967373
 30
0.0
 11
1739.461843105039
 21
1871.0317352285
 31
0.0
  0
LINE
  5
FD
330
1F
100
AcDbEntity
  8
0
  6
Continuous
 62
     7
100
AcDbLine
 10
-73.89211037531993
 20
422.1435964427494
 30
0.0
 11
140.8821896401157
 21
422.1435964427494
 31
0.0
  0
LINE
  5
FE
330
1F
100
AcDbEntity
  8
0
  6
Continuous
 62
     7
100
AcDbLine
 10
140.8821896401157
 20
436.1435964427494
 30
0.0
 11
140.8821896401157
 21
422.1435964427494
 31
0.0
  0
LINE
  5
FF
330
1F
100
AcDbEntity
  8
0
  6
Continuous
 62
     7
100
AcDbLine
 10
140.8821896401157
 20
422.1435964427494
 30
0.0
 11
147.8821896401159
 21
422.1435964427494
 31
0.0
  0
LINE
  5
100
330
1F
100
AcDbEntity
  8
0
  6
Continuous
 62
     7
100
AcDbLine
 10
147.8821896401159
 20
436.1435964427494
 30
0.0
 11
147.8821896401159
 21
422.1435964427494
 31
0.0
  0
LINE
  5
101
330
1F
100
AcDbEntity
  8
0
  6
Continuous
 62
     7
100
AcDbLine
 10
-101.604923296421
 20
454.1435964427492
 30
0.0
 11
-101.604923296421
 21
860.1435962725393
 31
0.0
  0
LINE
  5
102
330
1F
100
AcDbEntity
  8
0
  6
Continuous
 62
     7
100
AcDbLine
 10
-89.48056764344005
 20
860.1435962725393
 30
0.0
 11
-94.60492329642307
 21
860.1435962725393
 31
0.0
  0
LINE
  5
103
330
1F
100
AcDbEntity
  8
0
  6
Continuous
 62
     7
100
AcDbLine
 10
-82.48056764344005
 20
454.1435964427492
 30
0.0
 11
-82.48056764344096
 21
860.1435962725393
 31
0.0
  0
LINE
  5
104
330
1F
100
AcDbEntity
  8
0
  6
Continuous
 62
     7
100
AcDbLine
 10
-101.604923296421
 20
860.1435962725393
 30
0.0
 11
-94.60492329642307
 21
860.1435962725393
 31
0.0
  0
LINE
  5
105
330
1F
100
AcDbEntity
  8
0
  6
Continuous
 62
     7
100
AcDbLine
 10
-89.48056764344005
 20
860.1435962725393
 30
0.0
 11
-89.48056764344005
 21
454.1435964427492
 31
0.0
  0
LINE
  5
106
330
1F
100
AcDbEntity
  8
0
  6
Continuous
 62
     7
100
AcDbLine
 10
-82.48056764344096
 20
860.1435962725393
 30
0.0
 11
-89.48056764344005
 21
860.1435962725393
 31
0.0
  0
LINE
  5
107
330
1F
100
AcDbEntity
  8
0
  6
Continuous
 62
     7
100
AcDbLine
 10
-73.89211037531993
 20
436.1435964427494
 30
0.0
 11
-66.89211037531993
 21
436.1435964427494
 31
0.0
  0
LINE
  5
108
330
1F
100
AcDbEntity
  8
0
  6
Continuous
 62
     7
100
AcDbLine
 10
-66.89211037531993
 20
436.1435964427494
 30
0.0
 11
140.8821896401157
 21
436.1435964427494
 31
0.0
  0
LINE
  5
109
330
1F
100
AcDbEntity
  8
0
  6
Continuous
 62
     7
100
AcDbLine
 10
140.8821896401157
 20
436.1435964427494
 30
0.0
 11
147.8821896401159
 21
436.1435964427494
 31
0.0
  0
LINE
  5
10A
330
1F
100
AcDbEntity
  8
0
  6
Continuous
 62
     7
100
AcDbLine
 10
-344.09203623296
 20
422.1435964427494
 30
0.0
 11
-129.317736217524
 21
422.1435964427494
 31
0.0
  0
LINE
  5
10B
330
1F
100
AcDbEntity
  8
0
  6
Continuous
 62
     7
100
AcDbLine
 10
-344.09203623296
 20
436.1435964427494
 30
0.0
 11
-344.09203623296
 21
422.1435964427494
 31
0.0
  0
LINE
  5
10C
330
1F
100
AcDbEntity
  8
0
  6
Continuous
 62
     7
100
AcDbLine
 10
-344.09203623296
 20
436.1435964427494
 30
0.0
 11
-136.317736217523
 21
436.1435964427494
 31
0.0
  0
LINE
  5
10D
330
1F
100
AcDbEntity
  8
0
  6
Continuous
 62
     7
100
AcDbLine
 10
-351.09203623296
 20
422.1435964427494
 30
0.0
 11
-344.09203623296
 21
422.1435964427494
 31
0.0
  0
LINE
  5
10E
330
1F
100
AcDbEntity
  8
0
  6
Continuous
 62
     7
100
AcDbLine
 10
-351.09203623296
 20
436.1435964427494
 30
0.0
 11
-344.09203623296
 21
436.1435964427494
 31
0.0
  0
LINE
  5
10F
330
1F
100
AcDbEntity
  8
0
  6
Continuous
 62
     7
100
AcDbLine
 10
-351.09203623296
 20
436.1435964427494
 30
0.0
 11
-351.09203623296
 21
422.1435964427494
 31
0.0
  0
LINE
  5
110
330
1F
100
AcDbEntity
  8
0
  6
Continuous
 62
     7
100
AcDbLine
 10
-120.7292789494029
 20
860.1435962725393
 30
0.0
 11
-120.7292789494031
 21
454.1435964427492
 31
0.0
  0
LINE
  5
111
330
1F
100
AcDbEntity
  8
0
  6
Continuous
 62
     7
100
AcDbLine
 10
-113.729278949403
 20
454.1435964427492
 30
0.0
 11
-113.7292789494029
 21
860.1435962725393
 31
0.0
  0
LINE
  5
112
330
1F
100
AcDbEntity
  8
0
  6
Continuous
 62
     7
100
AcDbLine
 10
-101.604923296421
 20
454.1435964427492
 30
0.0
 11
-101.604923296421
 21
860.1435962725393
 31
0.0
  0
LINE
  5
113
330
1F
100
AcDbEntity
  8
0
  6
Continuous
 62
     7
100
AcDbLine
 10
-108.6049232964219
 20
860.1435962725393
 30
0.0
 11
-101.604923296421
 21
860.1435962725393
 31
0.0
  0
LINE
  5
114
330
1F
100
AcDbEntity
  8
0
  6
Continuous
 62
     7
100
AcDbLine
 10
-113.7292789494029
 20
860.1435962725393
 30
0.0
 11
-120.7292789494029
 21
860.1435962725393
 31
0.0
  0
LINE
  5
115
330
1F
100
AcDbEntity
  8
0
  6
Continuous
 62
     7
100
AcDbLine
 10
-113.7292789494029
 20
860.1435962725393
 30
0.0
 11
-108.6049232964219
 21
860.1435962725393
 31
0.0
  0
LINE
  5
116
330
1F
100
AcDbEntity
  8
0
  6
Continuous
 62
     7
100
AcDbLine
 10
-136.317736217523
 20
436.1435964427494
 30
0.0
 11
-129.317736217524
 21
436.1435964427494
 31
0.0
  0
LINE
  5
117
330
1F
100
AcDbEntity
  8
0
  6
Continuous
 62
     7
100
AcDbLine
 10
-94.60492329642307
 20
422.1435964427494
 30
0.0
 11
-108.6049232964219
 21
422.1435964427494
 31
0.0
  0
LINE
  5
118
330
1F
100
AcDbEntity
  8
0
  6
Continuous
 62
     7
100
AcDbLine
 10
-94.60492329642307
 20
422.1435964427494
 30
0.0
 11
-94.60492329642307
 21
432.8839513878429
 31
0.0
  0
LINE
  5
119
330
1F
100
AcDbEntity
  8
0
  6
Continuous
 62
     7
100
AcDbLine
 10
-108.6049232964219
 20
422.1435964427494
 30
0.0
 11
-108.6049232964219
 21
432.8839513878429
 31
0.0
  0
LINE
  5
11A
330
1F
100
AcDbEntity
  8
0
  6
Continuous
 62
     7
100
AcDbLine
 10
-108.6049232964219
 20
860.1435962725393
 30
0.0
 11
-101.604923296421
 21
860.1435962725393
 31
0.0
  0
LINE
  5
11B
330
1F
100
AcDbEntity
  8
0
  6
Continuous
 62
     7
100
AcDbLine
 10
-101.604923296421
 20
860.1435962725393
 30
0.0
 11
-94.60492329642307
 21
860.1435962725393
 31
0.0
  0
LINE
  5
11C
330
1F
100
AcDbEntity
  8
0
  6
Continuous
 62
     7
100
AcDbLine
 10
-226.604923296421
 20
860.1435962725393
 30
0.0
 11
-226.604923296421
 21
864.1435962725393
 31
0.0
  0
LINE
  5
11D
330
1F
100
AcDbEntity
  8
0
  6
Continuous
 62
     7
100
AcDbLine
 10
-226.604923296421
 20
860.1435962725393
 30
0.0
 11
-120.7292789494029
 21
860.1435962725393
 31
0.0
  0
LINE
  5
11E
330
1F
100
AcDbEntity
  8
0
  6
Continuous
 62
     7
100
AcDbLine
 10
23.39507670357898
 20
864.1435962725393
 30
0.0
 11
-226.604923296421
 21
864.1435962725393
 31
0.0
  0
LINE
  5
11F
330
1F
100
AcDbEntity
  8
0
  6
Continuous
 62
     7
100
AcDbLine
 10
-82.48056764344096
 20
860.1435962725393
 30
0.0
 11
23.39507670357898
 21
860.1435962725393
 31
0.0
  0
LINE
  5
120
330
1F
100
AcDbEntity
  8
0
  6
Continuous
 62
     7
100
AcDbLine
 10
-89.48056764344005
 20
860.1435962725393
 30
0.0
 11
-94.60492329642307
 21
860.1435962725393
 31
0.0
  0
LINE
  5
121
330
1F
100
AcDbEntity
  8
0
  6
Continuous
 62
     7
100
AcDbLine
 10
-108.6049232964219
 20
860.1435962725393
 30
0.0
 11
-101.604923296421
 21
860.1435962725393
 31
0.0
  0
LINE
  5
122
330
1F
100
AcDbEntity
  8
0
  6
Continuous
 62
     7
100
AcDbLine
 10
-101.604923296421
 20
860.1435962725393
 30
0.0
 11
-94.60492329642307
 21
860.1435962725393
 31
0.0
  0
LINE
  5
123
330
1F
100
AcDbEntity
  8
0
  6
Continuous
 62
     7
100
AcDbLine
 10
23.39507670357898
 20
860.1435962725393
 30
0.0
 11
23.39507670357898
 21
864.1435962725393
 31
0.0
  0
LINE
  5
124
330
1F
100
AcDbEntity
  8
0
  6
Continuous
 62
     7
100
AcDbLine
 10
-82.48056764344096
 20
860.1435962725393
 30
0.0
 11
-89.48056764344005
 21
860.1435962725393
 31
0.0
  0
LINE
  5
125
330
1F
100
AcDbEntity
  8
0
  6
Continuous
 62
     7
100
AcDbLine
 10
-113.7292789494029
 20
860.1435962725393
 30
0.0
 11
-120.7292789494029
 21
860.1435962725393
 31
0.0
  0
LINE
  5
126
330
1F
100
AcDbEntity
  8
0
  6
Continuous
 62
     7
100
AcDbLine
 10
-113.7292789494029
 20
860.1435962725393
 30
0.0
 11
-108.6049232964219
 21
860.1435962725393
 31
0.0
  0
LINE
  5
127
330
1F
100
AcDbEntity
  8
0
  6
Continuous
 62
     7
100
AcDbLine
 10
1140.882189640117
 20
422.1435964427494
 30
0.0
 11
1147.882189640117
 21
422.1435964427494
 31
0.0
  0
LINE
  5
128
330
1F
100
AcDbEntity
  8
0
  6
Continuous
 62
     7
100
AcDbLine
 10
910.5194323565611
 20
860.1435962725393
 30
0.0
 11
910.5194323565611
 21
454.1435964427492
 31
0.0
  0
LINE
  5
129
330
1F
100
AcDbEntity
  8
0
  6
Continuous
 62
     7
100
AcDbLine
 10
917.5194323565611
 20
454.1435964427492
 30
0.0
 11
917.5194323565611
 21
860.1435962725393
 31
0.0
  0
LINE
  5
12A
330
1F
100
AcDbEntity
  8
0
  6
Continuous
 62
     7
100
AcDbLine
 10
898.395076703579
 20
454.1435964427492
 30
0.0
 11
898.395076703579
 21
860.1435962725393
 31
0.0
  0
LINE
  5
12B
330
1F
100
AcDbEntity
  8
0
  6
Continuous
 62
     7
100
AcDbLine
 10
1140.882189640117
 20
436.1435964427494
 30
0.0
 11
1147.882189640117
 21
436.1435964427494
 31
0.0
  0
LINE
  5
12C
330
1F
100
AcDbEntity
  8
0
  6
Continuous
 62
     7
100
AcDbLine
 10
1147.882189640117
 20
436.1435964427494
 30
0.0
 11
1147.882189640117
 21
422.1435964427494
 31
0.0
  0
LINE
  5
12D
330
1F
100
AcDbEntity
  8
0
  6
Continuous
 62
     7
100
AcDbLine
 10
933.1078896246811
 20
436.1435964427494
 30
0.0
 11
1140.882189640117
 21
436.1435964427494
 31
0.0
  0
LINE
  5
12E
330
1F
100
AcDbEntity
  8
0
  6
Continuous
 62
     7
100
AcDbLine
 10
926.1078896246811
 20
422.1435964427494
 30
0.0
 11
1140.882189640117
 21
422.1435964427494
 31
0.0
  0
LINE
  5
12F
330
1F
100
AcDbEntity
  8
0
  6
Continuous
 62
     7
100
AcDbLine
 10
1140.882189640117
 20
436.1435964427494
 30
0.0
 11
1140.882189640117
 21
422.1435964427494
 31
0.0
  0
LINE
  5
130
330
1F
100
AcDbEntity
  8
0
  6
Continuous
 62
     7
100
AcDbLine
 10
926.1078896246811
 20
436.1435964427494
 30
0.0
 11
933.1078896246811
 21
436.1435964427494
 31
0.0
  0
LINE
  5
131
330
1F
100
AcDbEntity
  8
0
  6
Continuous
 62
     7
100
AcDbLine
 10
898.395076703579
 20
860.1435962725393
 30
0.0
 11
905.395076703579
 21
860.1435962725393
 31
0.0
  0
LINE
  5
132
330
1F
100
AcDbEntity
  8
0
  6
Continuous
 62
     7
100
AcDbLine
 10
910.5194323565611
 20
860.1435962725393
 30
0.0
 11
905.395076703579
 21
860.1435962725393
 31
0.0
  0
LINE
  5
133
330
1F
100
AcDbEntity
  8
0
  6
Continuous
 62
     7
100
AcDbLine
 10
917.5194323565611
 20
860.1435962725393
 30
0.0
 11
910.5194323565611
 21
860.1435962725393
 31
0.0
  0
LINE
  5
134
330
1F
100
AcDbEntity
  8
0
  6
Continuous
 62
     7
100
AcDbLine
 10
898.395076703579
 20
454.1435964427492
 30
0.0
 11
898.395076703579
 21
860.1435962725393
 31
0.0
  0
LINE
  5
135
330
1F
100
AcDbEntity
  8
0
  6
Continuous
 62
     7
100
AcDbLine
 10
879.2707210505971
 20
860.1435962725393
 30
0.0
 11
879.2707210505971
 21
454.1435964427492
 31
0.0
  0
LINE
  5
136
330
1F
100
AcDbEntity
  8
0
  6
Continuous
 62
     7
100
AcDbLine
 10
886.2707210505971
 20
454.1435964427492
 30
0.0
 11
886.2707210505971
 21
860.1435962725393
 31
0.0
  0
LINE
  5
137
330
1F
100
AcDbEntity
  8
0
  6
Continuous
 62
     7
100
AcDbLine
 10
863.6822637824771
 20
436.1435964427494
 30
0.0
 11
870.6822637824771
 21
436.1435964427494
 31
0.0
  0
LINE
  5
138
330
1F
100
AcDbEntity
  8
0
  6
Continuous
 62
     7
100
AcDbLine
 10
648.907963767041
 20
436.1435964427494
 30
0.0
 11
648.907963767041
 21
422.1435964427494
 31
0.0
  0
LINE
  5
139
330
1F
100
AcDbEntity
  8
0
  6
Continuous
 62
     7
100
AcDbLine
 10
655.9079637670411
 20
422.1435964427494
 30
0.0
 11
870.6822637824771
 21
422.1435964427494
 31
0.0
  0
LINE
  5
13A
330
1F
100
AcDbEntity
  8
0
  6
Continuous
 62
     7
100
AcDbLine
 10
655.9079637670411
 20
436.1435964427494
 30
0.0
 11
655.9079637670411
 21
422.1435964427494
 31
0.0
  0
LINE
  5
13B
330
1F
100
AcDbEntity
  8
0
  6
Continuous
 62
     7
100
AcDbLine
 10
655.9079637670411
 20
436.1435964427494
 30
0.0
 11
863.6822637824771
 21
436.1435964427494
 31
0.0
  0
LINE
  5
13C
330
1F
100
AcDbEntity
  8
0
  6
Continuous
 62
     7
100
AcDbLine
 10
648.907963767041
 20
422.1435964427494
 30
0.0
 11
655.9079637670411
 21
422.1435964427494
 31
0.0
  0
LINE
  5
13D
330
1F
100
AcDbEntity
  8
0
  6
Continuous
 62
     7
100
AcDbLine
 10
648.907963767041
 20
436.1435964427494
 30
0.0
 11
655.9079637670411
 21
436.1435964427494
 31
0.0
  0
LINE
  5
13E
330
1F
100
AcDbEntity
  8
0
  6
Continuous
 62
     7
100
AcDbLine
 10
891.395076703579
 20
860.1435962725393
 30
0.0
 11
898.395076703579
 21
860.1435962725393
 31
0.0
  0
LINE
  5
13F
330
1F
100
AcDbEntity
  8
0
  6
Continuous
 62
     7
100
AcDbLine
 10
886.2707210505971
 20
860.1435962725393
 30
0.0
 11
879.2707210505971
 21
860.1435962725393
 31
0.0
  0
LINE
  5
140
330
1F
100
AcDbEntity
  8
0
  6
Continuous
 62
     7
100
AcDbLine
 10
886.2707210505971
 20
860.1435962725393
 30
0.0
 11
891.395076703579
 21
860.1435962725393
 31
0.0
  0
LINE
  5
141
330
1F
100
AcDbEntity
  8
0
  6
Continuous
 62
     7
100
AcDbLine
 10
905.395076703579
 20
422.1435964427494
 30
0.0
 11
891.395076703579
 21
422.1435964427494
 31
0.0
  0
LINE
  5
142
330
1F
100
AcDbEntity
  8
0
  6
Continuous
 62
     7
100
AcDbLine
 10
905.395076703579
 20
422.1435964427494
 30
0.0
 11
905.3950767035781
 21
432.883951387845
 31
0.0
  0
LINE
  5
143
330
1F
100
AcDbEntity
  8
0
  6
Continuous
 62
     7
100
AcDbLine
 10
891.395076703579
 20
422.1435964427494
 30
0.0
 11
891.3950767035781
 21
432.8839513878429
 31
0.0
  0
LINE
  5
144
330
1F
100
AcDbEntity
  8
0
  6
Continuous
 62
     7
100
AcDbLine
 10
898.395076703579
 20
860.1435962725393
 30
0.0
 11
905.395076703579
 21
860.1435962725393
 31
0.0
  0
LINE
  5
145
330
1F
100
AcDbEntity
  8
0
  6
Continuous
 62
     7
100
AcDbLine
 10
891.395076703579
 20
860.1435962725393
 30
0.0
 11
898.395076703579
 21
860.1435962725393
 31
0.0
  0
LINE
  5
146
330
1F
100
AcDbEntity
  8
0
  6
Continuous
 62
     7
100
AcDbLine
 10
1023.395076703579
 20
864.1435962725393
 30
0.0
 11
773.395076703579
 21
864.1435962725393
 31
0.0
  0
LINE
  5
147
330
1F
100
AcDbEntity
  8
0
  6
Continuous
 62
     7
100
AcDbLine
 10
773.395076703579
 20
860.1435962725393
 30
0.0
 11
879.2707210505971
 21
860.1435962725393
 31
0.0
  0
LINE
  5
148
330
1F
100
AcDbEntity
  8
0
  6
Continuous
 62
     7
100
AcDbLine
 10
773.395076703579
 20
860.1435962725393
 30
0.0
 11
773.395076703579
 21
864.1435962725393
 31
0.0
  0
LINE
  5
149
330
1F
100
AcDbEntity
  8
0
  6
Continuous
 62
     7
100
AcDbLine
 10
898.395076703579
 20
860.1435962725393
 30
0.0
 11
905.395076703579
 21
860.1435962725393
 31
0.0
  0
LINE
  5
14A
330
1F
100
AcDbEntity
  8
0
  6
Continuous
 62
     7
100
AcDbLine
 10
891.395076703579
 20
860.1435962725393
 30
0.0
 11
898.395076703579
 21
860.1435962725393
 31
0.0
  0
LINE
  5
14B
330
1F
100
AcDbEntity
  8
0
  6
Continuous
 62
     7
100
AcDbLine
 10
886.2707210505971
 20
860.1435962725393
 30
0.0
 11
879.2707210505971
 21
860.1435962725393
 31
0.0
  0
LINE
  5
14C
330
1F
100
AcDbEntity
  8
0
  6
Continuous
 62
     7
100
AcDbLine
 10
886.2707210505971
 20
860.1435962725393
 30
0.0
 11
891.395076703579
 21
860.1435962725393
 31
0.0
  0
LINE
  5
14D
330
1F
100
AcDbEntity
  8
0
  6
Continuous
 62
     7
100
AcDbLine
 10
910.5194323565611
 20
860.1435962725393
 30
0.0
 11
905.395076703579
 21
860.1435962725393
 31
0.0
  0
LINE
  5
14E
330
1F
100
AcDbEntity
  8
0
  6
Continuous
 62
     7
100
AcDbLine
 10
1023.395076703579
 20
860.1435962725393
 30
0.0
 11
1023.395076703579
 21
864.1435962725393
 31
0.0
  0
LINE
  5
14F
330
1F
100
AcDbEntity
  8
0
  6
Continuous
 62
     7
100
AcDbLine
 10
917.5194323565611
 20
860.1435962725393
 30
0.0
 11
1023.395076703579
 21
860.1435962725393
 31
0.0
  0
LINE
  5
150
330
1F
100
AcDbEntity
  8
0
  6
Continuous
 62
     7
100
AcDbLine
 10
917.5194323565611
 20
860.1435962725393
 30
0.0
 11
910.5194323565611
 21
860.1435962725393
 31
0.0
  0
LINE
  5
151
330
1F
100
AcDbEntity
  8
0
  6
Continuous
 62
     7
100
AcDbLine
 10
1926.10788962468
 20
422.1435964427494
 30
0.0
 11
2065.53797951087
 21
422.1435964427494
 31
0.0
  0
LINE
  5
152
330
1F
100
AcDbEntity
  8
0
  6
Continuous
 62
     7
100
AcDbLine
 10
2065.53797951087
 20
422.1435964427494
 30
0.0
 11
2072.53797951087
 21
422.1435964427494
 31
0.0
  0
LINE
  5
153
330
1F
100
AcDbEntity
  8
0
  6
Continuous
 62
     7
100
AcDbLine
 10
2072.53797951087
 20
436.1435964427494
 30
0.0
 11
2072.53797951087
 21
422.1435964427494
 31
0.0
  0
LINE
  5
154
330
1F
100
AcDbEntity
  8
0
  6
Continuous
 62
     7
100
AcDbLine
 10
1933.10788962468
 20
436.1435964427494
 30
0.0
 11
2065.53797951087
 21
436.1435964427494
 31
0.0
  0
LINE
  5
155
330
1F
100
AcDbEntity
  8
0
  6
Continuous
 62
     7
100
AcDbLine
 10
2065.53797951087
 20
436.1435964427494
 30
0.0
 11
2065.53797951087
 21
422.1435964427494
 31
0.0
  0
LINE
  5
156
330
1F
100
AcDbEntity
  8
0
  6
Continuous
 62
     7
100
AcDbLine
 10
1926.10788962468
 20
436.1435964427494
 30
0.0
 11
1933.10788962468
 21
436.1435964427494
 31
0.0
  0
LINE
  5
157
330
1F
100
AcDbEntity
  8
0
  6
Continuous
 62
     7
100
AcDbLine
 10
2065.53797951087
 20
436.1435964427494
 30
0.0
 11
2072.53797951087
 21
436.1435964427494
 31
0.0
  0
LINE
  5
158
330
1F
100
AcDbEntity
  8
0
  6
Continuous
 62
     7
100
AcDbLine
 10
1917.519432356561
 20
454.1435964427492
 30
0.0
 11
1917.519432356561
 21
940.1435962725393
 31
0.0
  0
LINE
  5
159
330
1F
100
AcDbEntity
  8
0
  6
Continuous
 62
     7
100
AcDbLine
 10
1910.519432356562
 20
940.1435962725393
 30
0.0
 11
1910.519432356562
 21
454.1435964427492
 31
0.0
  0
LINE
  5
15A
330
1F
100
AcDbEntity
  8
0
  6
Continuous
 62
     7
100
AcDbLine
 10
1898.395076703579
 20
454.1435964427492
 30
0.0
 11
1898.395076703578
 21
940.1435962725393
 31
0.0
  0
LINE
  5
15B
330
1F
100
AcDbEntity
  8
0
  6
Continuous
 62
     7
100
AcDbLine
 10
1917.519432356561
 20
940.1435962725393
 30
0.0
 11
1910.519432356562
 21
940.1435962725393
 31
0.0
  0
LINE
  5
15C
330
1F
100
AcDbEntity
  8
0
  6
Continuous
 62
     7
100
AcDbLine
 10
1898.395076703578
 20
940.1435962725393
 30
0.0
 11
1905.395076703579
 21
940.1435962725393
 31
0.0
  0
LINE
  5
15D
330
1F
100
AcDbEntity
  8
0
  6
Continuous
 62
     7
100
AcDbLine
 10
1910.519432356562
 20
940.1435962725393
 30
0.0
 11
1905.395076703579
 21
940.1435962725393
 31
0.0
  0
LINE
  5
15E
330
1F
100
AcDbEntity
  8
0
  6
Continuous
 62
     7
100
AcDbLine
 10
1879.270721050596
 20
940.1435962725393
 30
0.0
 11
1879.270721050597
 21
454.1435964427492
 31
0.0
  0
LINE
  5
15F
330
1F
100
AcDbEntity
  8
0
  6
Continuous
 62
     7
100
AcDbLine
 10
1898.395076703579
 20
454.1435964427492
 30
0.0
 11
1898.395076703578
 21
940.1435962725393
 31
0.0
  0
LINE
  5
160
330
1F
100
AcDbEntity
  8
0
  6
Continuous
 62
     7
100
AcDbLine
 10
1886.270721050596
 20
454.1435964427492
 30
0.0
 11
1886.270721050596
 21
940.1435962725393
 31
0.0
  0
LINE
  5
161
330
1F
100
AcDbEntity
  8
0
  6
Continuous
 62
     7
100
AcDbLine
 10
1863.682263782477
 20
436.1435964427494
 30
0.0
 11
1870.682263782477
 21
436.1435964427494
 31
0.0
  0
LINE
  5
162
330
1F
100
AcDbEntity
  8
0
  6
Continuous
 62
     7
100
AcDbLine
 10
1731.252173896286
 20
436.1435964427494
 30
0.0
 11
1731.252173896286
 21
422.1435964427494
 31
0.0
  0
LINE
  5
163
330
1F
100
AcDbEntity
  8
0
  6
Continuous
 62
     7
100
AcDbLine
 10
1731.252173896286
 20
422.1435964427494
 30
0.0
 11
1870.682263782477
 21
422.1435964427494
 31
0.0
  0
LINE
  5
164
330
1F
100
AcDbEntity
  8
0
  6
Continuous
 62
     7
100
AcDbLine
 10
1731.252173896286
 20
436.1435964427494
 30
0.0
 11
1863.682263782477
 21
436.1435964427494
 31
0.0
  0
LINE
  5
165
330
1F
100
AcDbEntity
  8
0
  6
Continuous
 62
     7
100
AcDbLine
 10
1724.252173896286
 20
422.1435964427494
 30
0.0
 11
1731.252173896286
 21
422.1435964427494
 31
0.0
  0
LINE
  5
166
330
1F
100
AcDbEntity
  8
0
  6
Continuous
 62
     7
100
AcDbLine
 10
1724.252173896286
 20
436.1435964427494
 30
0.0
 11
1731.252173896286
 21
436.1435964427494
 31
0.0
  0
LINE
  5
167
330
1F
100
AcDbEntity
  8
0
  6
Continuous
 62
     7
100
AcDbLine
 10
1724.252173896286
 20
436.1435964427494
 30
0.0
 11
1724.252173896286
 21
422.1435964427494
 31
0.0
  0
LINE
  5
168
330
1F
100
AcDbEntity
  8
0
  6
Continuous
 62
     7
100
AcDbLine
 10
1886.270721050596
 20
940.1435962725393
 30
0.0
 11
1879.270721050596
 21
940.1435962725393
 31
0.0
  0
LINE
  5
169
330
1F
100
AcDbEntity
  8
0
  6
Continuous
 62
     7
100
AcDbLine
 10
1891.395076703579
 20
940.1435962725393
 30
0.0
 11
1898.395076703578
 21
940.1435962725393
 31
0.0
  0
LINE
  5
16A
330
1F
100
AcDbEntity
  8
0
  6
Continuous
 62
     7
100
AcDbLine
 10
1886.270721050596
 20
940.1435962725393
 30
0.0
 11
1891.395076703579
 21
940.1435962725393
 31
0.0
  0
LINE
  5
16B
330
1F
100
AcDbEntity
  8
0
  6
Continuous
 62
     7
100
AcDbLine
 10
1905.395076703579
 20
422.1435964427494
 30
0.0
 11
1905.395076703575
 21
432.8839513878484
 31
0.0
  0
LINE
  5
16C
330
1F
100
AcDbEntity
  8
0
  6
Continuous
 62
     7
100
AcDbLine
 10
1891.395076703579
 20
422.1435964427494
 30
0.0
 11
1891.395076703575
 21
432.8839513878377
 31
0.0
  0
LINE
  5
16D
330
1F
100
AcDbEntity
  8
0
  6
Continuous
 62
     7
100
AcDbLine
 10
1905.395076703579
 20
422.1435964427494
 30
0.0
 11
1891.395076703579
 21
422.1435964427494
 31
0.0
  0
LINE
  5
16E
330
1F
100
AcDbEntity
  8
0
  6
Continuous
 62
     7
100
AcDbLine
 10
1891.395076703579
 20
940.1435962725393
 30
0.0
 11
1898.395076703578
 21
940.1435962725393
 31
0.0
  0
LINE
  5
16F
330
1F
100
AcDbEntity
  8
0
  6
Continuous
 62
     7
100
AcDbLine
 10
1898.395076703578
 20
940.1435962725393
 30
0.0
 11
1905.395076703579
 21
940.1435962725393
 31
0.0
  0
LINE
  5
170
330
1F
100
AcDbEntity
  8
0
  6
Continuous
 62
     7
100
AcDbLine
 10
1979.041297312173
 20
944.1435962725393
 30
0.0
 11
1817.748856094983
 21
944.1435962725393
 31
0.0
  0
LINE
  5
171
330
1F
100
AcDbEntity
  8
0
  6
Continuous
 62
     7
100
AcDbLine
 10
1917.519432356561
 20
940.1435962725393
 30
0.0
 11
2023.395076703578
 21
940.1435962725393
 31
0.0
  0
LINE
  5
172
330
1F
100
AcDbEntity
  8
0
  6
Continuous
 62
     7
100
AcDbLine
 10
1917.519432356561
 20
940.1435962725393
 30
0.0
 11
1910.519432356562
 21
940.1435962725393
 31
0.0
  0
LINE
  5
173
330
1F
100
AcDbEntity
  8
0
  6
Continuous
 62
     7
100
AcDbLine
 10
1886.270721050596
 20
940.1435962725393
 30
0.0
 11
1879.270721050596
 21
940.1435962725393
 31
0.0
  0
LINE
  5
174
330
1F
100
AcDbEntity
  8
0
  6
Continuous
 62
     7
100
AcDbLine
 10
1891.395076703579
 20
940.1435962725393
 30
0.0
 11
1898.395076703578
 21
940.1435962725393
 31
0.0
  0
LINE
  5
175
330
1F
100
AcDbEntity
  8
0
  6
Continuous
 62
     7
100
AcDbLine
 10
1886.270721050596
 20
940.1435962725393
 30
0.0
 11
1891.395076703579
 21
940.1435962725393
 31
0.0
  0
LINE
  5
176
330
1F
100
AcDbEntity
  8
0
  6
Continuous
 62
     7
100
AcDbLine
 10
1898.395076703578
 20
940.1435962725393
 30
0.0
 11
1905.395076703579
 21
940.1435962725393
 31
0.0
  0
LINE
  5
177
330
1F
100
AcDbEntity
  8
0
  6
Continuous
 62
     7
100
AcDbLine
 10
1910.519432356562
 20
940.1435962725393
 30
0.0
 11
1905.395076703579
 21
940.1435962725393
 31
0.0
  0
LINE
  5
178
330
1F
100
AcDbEntity
  8
0
  6
Continuous
 62
     7
100
AcDbLine
 10
1979.041297312173
 20
944.1435962725393
 30
0.0
 11
2023.395076703578
 21
944.1435962725393
 31
0.0
  0
LINE
  5
179
330
1F
100
AcDbEntity
  8
0
  6
Continuous
 62
     7
100
AcDbLine
 10
2023.395076703578
 20
940.1435962725393
 30
0.0
 11
2023.395076703578
 21
944.1435962725393
 31
0.0
  0
LINE
  5
17A
330
1F
100
AcDbEntity
  8
0
  6
Continuous
 62
     7
100
AcDbLine
 10
1773.395076703578
 20
944.1435962725393
 30
0.0
 11
1817.748856094983
 21
944.1435962725393
 31
0.0
  0
LINE
  5
17B
330
1F
100
AcDbEntity
  8
0
  6
Continuous
 62
     7
100
AcDbLine
 10
1773.395076703578
 20
940.1435962725393
 30
0.0
 11
1773.395076703578
 21
944.1435962725393
 31
0.0
  0
LINE
  5
17C
330
1F
100
AcDbEntity
  8
0
  6
Continuous
 62
     7
100
AcDbLine
 10
1773.395076703578
 20
940.1435962725393
 30
0.0
 11
1879.270721050596
 21
940.1435962725393
 31
0.0
  0
LINE
  5
17D
330
1F
100
AcDbEntity
  8
0
  6
Continuous
 62
     7
100
AcDbLine
 10
86.56959145696692
 20
882.1435962725393
 30
0.0
 11
-289.779438049811
 21
882.1435962725393
 31
0.0
  0
LINE
  5
17E
330
1F
100
AcDbEntity
  8
0
  6
Continuous
 62
     7
100
AcDbLine
 10
-486.0776839839241
 20
864.1435962725393
 30
0.0
 11
-506.0776839839241
 21
877.1435962725393
 31
0.0
  0
LINE
  5
17F
330
1F
100
AcDbEntity
  8
0
  6
Continuous
 62
     7
100
AcDbLine
 10
282.8678373910789
 20
864.1435962725393
 30
0.0
 11
302.8678373910789
 21
877.1435962725393
 31
0.0
  0
LINE
  5
180
330
1F
100
AcDbEntity
  8
0
  6
Continuous
 62
     7
100
AcDbLine
 10
278.9523586946914
 20
864.1435962725393
 30
0.0
 11
162.6541127605785
 21
864.1435962725393
 31
0.0
  0
LINE
  5
181
330
1F
100
AcDbEntity
  8
0
  6
Continuous
 62
     7
100
AcDbLine
 10
297.9734890205948
 20
877.1435962725393
 30
0.0
 11
181.6752430864817
 21
877.1435962725393
 31
0.0
  0
LINE
  5
182
330
1F
100
AcDbEntity
  8
0
  6
Continuous
 62
     7
100
AcDbLine
 10
297.9734890205948
 20
877.1435962725393
 30
0.0
 11
302.8678373910789
 21
877.1435962725393
 31
0.0
  0
LINE
  5
183
330
1F
100
AcDbEntity
  8
0
  6
Continuous
 62
     7
100
AcDbLine
 10
278.9523586946914
 20
864.1435962725393
 30
0.0
 11
282.8678373910789
 21
864.1435962725393
 31
0.0
  0
LINE
  5
184
330
1F
100
AcDbEntity
  8
0
  6
Continuous
 62
     7
100
AcDbLine
 10
-365.863959353424
 20
864.1435962725393
 30
0.0
 11
-482.1622052875359
 21
864.1435962725393
 31
0.0
  0
LINE
  5
185
330
1F
100
AcDbEntity
  8
0
  6
Continuous
 62
     7
100
AcDbLine
 10
23.39507670357898
 20
864.1435962725393
 30
0.0
 11
-226.604923296421
 21
864.1435962725393
 31
0.0
  0
LINE
  5
186
330
1F
100
AcDbEntity
  8
0
  6
Continuous
 62
     7
100
AcDbLine
 10
-226.604923296421
 20
864.1435962725393
 30
0.0
 11
-289.779438049811
 21
864.1435962725393
 31
0.0
  0
LINE
  5
187
330
1F
100
AcDbEntity
  8
0
  6
Continuous
 62
     7
100
AcDbLine
 10
86.56959145696692
 20
864.1435962725393
 30
0.0
 11
23.39507670357898
 21
864.1435962725393
 31
0.0
  0
LINE
  5
188
330
1F
100
AcDbEntity
  8
0
  6
Continuous
 62
     7
100
AcDbLine
 10
86.56959145696692
 20
877.1435962725393
 30
0.0
 11
-289.779438049811
 21
877.1435962725393
 31
0.0
  0
LINE
  5
189
330
1F
100
AcDbEntity
  8
0
  6
Continuous
 62
     7
100
AcDbLine
 10
-365.863959353424
 20
864.1435962725393
 30
0.0
 11
-289.779438049811
 21
864.1435962725393
 31
0.0
  0
LINE
  5
18A
330
1F
100
AcDbEntity
  8
0
  6
Continuous
 62
     7
100
AcDbLine
 10
-384.8850896793269
 20
877.1435962725393
 30
0.0
 11
-289.779438049811
 21
877.1435962725393
 31
0.0
  0
LINE
  5
18B
330
1F
100
AcDbEntity
  8
0
  6
Continuous
 62
     7
100
AcDbLine
 10
86.56959145696692
 20
864.1435962725393
 30
0.0
 11
162.6541127605785
 21
864.1435962725393
 31
0.0
  0
LINE
  5
18C
330
1F
100
AcDbEntity
  8
0
  6
Continuous
 62
     7
100
AcDbLine
 10
86.56959145696692
 20
877.1435962725393
 30
0.0
 11
181.6752430864817
 21
877.1435962725393
 31
0.0
  0
LINE
  5
18D
330
1F
100
AcDbEntity
  8
0
  6
Continuous
 62
     7
100
AcDbLine
 10
-384.8850896793269
 20
877.1435962725393
 30
0.0
 11
-501.183335613438
 21
877.1435962725393
 31
0.0
  0
LINE
  5
18E
330
1F
100
AcDbEntity
  8
0
  6
Continuous
 62
     7
100
AcDbLine
 10
-486.0776839839241
 20
864.1435962725393
 30
0.0
 11
-482.1622052875359
 21
864.1435962725393
 31
0.0
  0
LINE
  5
18F
330
1F
100
AcDbEntity
  8
0
  6
Continuous
 62
     7
100
AcDbLine
 10
-506.0776839839241
 20
877.1435962725393
 30
0.0
 11
-501.183335613438
 21
877.1435962725393
 31
0.0
  0
LINE
  5
190
330
1F
100
AcDbEntity
  8
0
  6
Continuous
 62
     7
100
AcDbLine
 10
-506.0776839839241
 20
882.1435962725393
 30
0.0
 11
-501.183335613438
 21
882.1435962725393
 31
0.0
  0
LINE
  5
191
330
1F
100
AcDbEntity
  8
0
  6
Continuous
 62
     7
100
AcDbLine
 10
-384.8850896793269
 20
882.1435962725393
 30
0.0
 11
-501.183335613438
 21
882.1435962725393
 31
0.0
  0
LINE
  5
192
330
1F
100
AcDbEntity
  8
0
  6
Continuous
 62
     7
100
AcDbLine
 10
-384.8850896793269
 20
882.1435962725393
 30
0.0
 11
-289.779438049811
 21
882.1435962725393
 31
0.0
  0
LINE
  5
193
330
1F
100
AcDbEntity
  8
0
  6
Continuous
 62
     7
100
AcDbLine
 10
297.9734890205948
 20
882.1435962725393
 30
0.0
 11
181.6752430864817
 21
882.1435962725393
 31
0.0
  0
LINE
  5
194
330
1F
100
AcDbEntity
  8
0
  6
Continuous
 62
     7
100
AcDbLine
 10
86.56959145696692
 20
882.1435962725393
 30
0.0
 11
181.6752430864817
 21
882.1435962725393
 31
0.0
  0
LINE
  5
195
330
1F
100
AcDbEntity
  8
0
  6
Continuous
 62
     7
100
AcDbLine
 10
-506.0776839839241
 20
877.1435962725393
 30
0.0
 11
-506.0776839839241
 21
882.1435962725393
 31
0.0
  0
LINE
  5
196
330
1F
100
AcDbEntity
  8
0
  6
Continuous
 62
     7
100
AcDbLine
 10
302.8678373910789
 20
877.1435962725393
 30
0.0
 11
302.8678373910789
 21
882.1435962725393
 31
0.0
  0
LINE
  5
197
330
1F
100
AcDbEntity
  8
0
  6
Continuous
 62
     7
100
AcDbLine
 10
297.9734890205948
 20
882.1435962725393
 30
0.0
 11
302.8678373910789
 21
882.1435962725393
 31
0.0
  0
LINE
  5
198
330
1F
100
AcDbEntity
  8
0
  6
Continuous
 62
     7
100
AcDbLine
 10
1040.79741219263
 20
882.1435962725393
 30
0.0
 11
755.9927412145289
 21
882.1435962725393
 31
0.0
  0
LINE
  5
199
330
1F
100
AcDbEntity
  8
0
  6
Continuous
 62
     7
100
AcDbLine
 10
1040.79741219263
 20
877.1435962725393
 30
0.0
 11
755.9927412145289
 21
877.1435962725393
 31
0.0
  0
LINE
  5
19A
330
1F
100
AcDbEntity
  8
0
  6
Continuous
 62
     7
100
AcDbLine
 10
660.887089585013
 20
877.1435962725393
 30
0.0
 11
755.9927412145289
 21
877.1435962725393
 31
0.0
  0
LINE
  5
19B
330
1F
100
AcDbEntity
  8
0
  6
Continuous
 62
     7
100
AcDbLine
 10
660.887089585013
 20
877.1435962725393
 30
0.0
 11
572.8776061754148
 21
877.1435962725393
 31
0.0
  0
LINE
  5
19C
330
1F
100
AcDbEntity
  8
0
  6
Continuous
 62
     7
100
AcDbLine
 10
567.9832578049298
 20
877.1435962725393
 30
0.0
 11
572.8776061754148
 21
877.1435962725393
 31
0.0
  0
LINE
  5
19D
330
1F
100
AcDbEntity
  8
0
  6
Continuous
 62
     7
100
AcDbLine
 10
1040.79741219263
 20
877.1435962725393
 30
0.0
 11
1135.903063822145
 21
877.1435962725393
 31
0.0
  0
LINE
  5
19E
330
1F
100
AcDbEntity
  8
0
  6
Continuous
 62
     7
100
AcDbLine
 10
1223.912547231744
 20
877.1435962725393
 30
0.0
 11
1228.806895602229
 21
877.1435962725393
 31
0.0
  0
LINE
  5
19F
330
1F
100
AcDbEntity
  8
0
  6
Continuous
 62
     7
100
AcDbLine
 10
1040.79741219263
 20
882.1435962725393
 30
0.0
 11
1135.903063822145
 21
882.1435962725393
 31
0.0
  0
LINE
  5
1A0
330
1F
100
AcDbEntity
  8
0
  6
Continuous
 62
     7
100
AcDbLine
 10
660.887089585013
 20
882.1435962725393
 30
0.0
 11
755.9927412145289
 21
882.1435962725393
 31
0.0
  0
LINE
  5
1A1
330
1F
100
AcDbEntity
  8
0
  6
Continuous
 62
     7
100
AcDbLine
 10
567.9832578049298
 20
882.1435962725393
 30
0.0
 11
572.8776061754148
 21
882.1435962725393
 31
0.0
  0
LINE
  5
1A2
330
1F
100
AcDbEntity
  8
0
  6
Continuous
 62
     7
100
AcDbLine
 10
1228.806895602229
 20
877.1435962725393
 30
0.0
 11
1228.806895602229
 21
882.1435962725393
 31
0.0
  0
LINE
  5
1A3
330
1F
100
AcDbEntity
  8
0
  6
Continuous
 62
     7
100
AcDbLine
 10
567.9832578049298
 20
877.1435962725393
 30
0.0
 11
567.9832578049298
 21
882.1435962725393
 31
0.0
  0
LINE
  5
1A4
330
1F
100
AcDbEntity
  8
0
  6
Continuous
 62
     7
100
AcDbLine
 10
660.887089585013
 20
882.1435962725393
 30
0.0
 11
572.8776061754148
 21
882.1435962725393
 31
0.0
  0
LINE
  5
1A5
330
1F
100
AcDbEntity
  8
0
  6
Continuous
 62
     7
100
AcDbLine
 10
1223.912547231744
 20
882.1435962725393
 30
0.0
 11
1228.806895602229
 21
882.1435962725393
 31
0.0
  0
LINE
  5
1A6
330
1F
100
AcDbEntity
  8
0
  6
Continuous
 62
     7
100
AcDbLine
 10
1223.912547231744
 20
882.1435962725393
 30
0.0
 11
1135.903063822145
 21
882.1435962725393
 31
0.0
  0
LINE
  5
1A7
330
1F
100
AcDbEntity
  8
0
  6
Continuous
 62
     7
100
AcDbLine
 10
587.9832578049298
 20
864.1435962725393
 30
0.0
 11
567.9832578049298
 21
877.1435962725393
 31
0.0
  0
LINE
  5
1A8
330
1F
100
AcDbEntity
  8
0
  6
Continuous
 62
     7
100
AcDbLine
 10
1208.806895602229
 20
864.1435962725393
 30
0.0
 11
1228.806895602229
 21
877.1435962725393
 31
0.0
  0
LINE
  5
1A9
330
1F
100
AcDbEntity
  8
0
  6
Continuous
 62
     7
100
AcDbLine
 10
1204.891416905841
 20
864.1435962725393
 30
0.0
 11
1116.881933496242
 21
864.1435962725393
 31
0.0
  0
LINE
  5
1AA
330
1F
100
AcDbEntity
  8
0
  6
Continuous
 62
     7
100
AcDbLine
 10
1223.912547231744
 20
877.1435962725393
 30
0.0
 11
1135.903063822145
 21
877.1435962725393
 31
0.0
  0
LINE
  5
1AB
330
1F
100
AcDbEntity
  8
0
  6
Continuous
 62
     7
100
AcDbLine
 10
1023.395076703579
 20
864.1435962725393
 30
0.0
 11
773.395076703579
 21
864.1435962725393
 31
0.0
  0
LINE
  5
1AC
330
1F
100
AcDbEntity
  8
0
  6
Continuous
 62
     7
100
AcDbLine
 10
773.395076703579
 20
864.1435962725393
 30
0.0
 11
755.9927412145289
 21
864.1435962725393
 31
0.0
  0
LINE
  5
1AD
330
1F
100
AcDbEntity
  8
0
  6
Continuous
 62
     7
100
AcDbLine
 10
1040.79741219263
 20
864.1435962725393
 30
0.0
 11
1023.395076703579
 21
864.1435962725393
 31
0.0
  0
LINE
  5
1AE
330
1F
100
AcDbEntity
  8
0
  6
Continuous
 62
     7
100
AcDbLine
 10
679.9082199109158
 20
864.1435962725393
 30
0.0
 11
591.8987365013178
 21
864.1435962725393
 31
0.0
  0
LINE
  5
1AF
330
1F
100
AcDbEntity
  8
0
  6
Continuous
 62
     7
100
AcDbLine
 10
587.9832578049298
 20
864.1435962725393
 30
0.0
 11
591.8987365013178
 21
864.1435962725393
 31
0.0
  0
LINE
  5
1B0
330
1F
100
AcDbEntity
  8
0
  6
Continuous
 62
     7
100
AcDbLine
 10
679.9082199109158
 20
864.1435962725393
 30
0.0
 11
755.9927412145289
 21
864.1435962725393
 31
0.0
  0
LINE
  5
1B1
330
1F
100
AcDbEntity
  8
0
  6
Continuous
 62
     7
100
AcDbLine
 10
1040.79741219263
 20
864.1435962725393
 30
0.0
 11
1116.881933496242
 21
864.1435962725393
 31
0.0
  0
LINE
  5
1B2
330
1F
100
AcDbEntity
  8
0
  6
Continuous
 62
     7
100
AcDbLine
 10
1204.891416905841
 20
864.1435962725393
 30
0.0
 11
1208.806895602229
 21
864.1435962725393
 31
0.0
  0
LINE
  5
1B3
330
1F
100
AcDbEntity
  8
0
  6
Continuous
 62
     7
100
AcDbLine
 10
1979.041297312173
 20
962.1435962725393
 30
0.0
 11
1817.748856094983
 21
962.1435962725393
 31
0.0
  0
LINE
  5
1B4
330
1F
100
AcDbEntity
  8
0
  6
Continuous
 62
     7
100
AcDbLine
 10
1687.906750694649
 20
944.1435962725393
 30
0.0
 11
1667.906750694649
 21
957.1435962725393
 31
0.0
  0
LINE
  5
1B5
330
1F
100
AcDbEntity
  8
0
  6
Continuous
 62
     7
100
AcDbLine
 10
2108.883402712507
 20
944.1435962725393
 30
0.0
 11
2128.883402712507
 21
957.1435962725393
 31
0.0
  0
LINE
  5
1B6
330
1F
100
AcDbEntity
  8
0
  6
Continuous
 62
     7
100
AcDbLine
 10
1979.041297312173
 20
957.1435962725393
 30
0.0
 11
1817.748856094983
 21
957.1435962725393
 31
0.0
  0
LINE
  5
1B7
330
1F
100
AcDbEntity
  8
0
  6
Continuous
 62
     7
100
AcDbLine
 10
1979.041297312173
 20
944.1435962725393
 30
0.0
 11
1817.748856094983
 21
944.1435962725393
 31
0.0
  0
LINE
  5
1B8
330
1F
100
AcDbEntity
  8
0
  6
Continuous
 62
     7
100
AcDbLine
 10
2104.96792401612
 20
944.1435962725393
 30
0.0
 11
2055.125818615785
 21
944.1435962725393
 31
0.0
  0
LINE
  5
1B9
330
1F
100
AcDbEntity
  8
0
  6
Continuous
 62
     7
100
AcDbLine
 10
2104.96792401612
 20
944.1435962725393
 30
0.0
 11
2108.883402712507
 21
944.1435962725393
 31
0.0
  0
LINE
  5
1BA
330
1F
100
AcDbEntity
  8
0
  6
Continuous
 62
     7
100
AcDbLine
 10
2023.395076703578
 20
944.1435962725393
 30
0.0
 11
2055.125818615785
 21
944.1435962725393
 31
0.0
  0
LINE
  5
1BB
330
1F
100
AcDbEntity
  8
0
  6
Continuous
 62
     7
100
AcDbLine
 10
1979.041297312173
 20
944.1435962725393
 30
0.0
 11
2023.395076703578
 21
944.1435962725393
 31
0.0
  0
LINE
  5
1BC
330
1F
100
AcDbEntity
  8
0
  6
Continuous
 62
     7
100
AcDbLine
 10
2123.989054342022
 20
957.1435962725393
 30
0.0
 11
2074.146948941688
 21
957.1435962725393
 31
0.0
  0
LINE
  5
1BD
330
1F
100
AcDbEntity
  8
0
  6
Continuous
 62
     7
100
AcDbLine
 10
1979.041297312173
 20
957.1435962725393
 30
0.0
 11
2074.146948941688
 21
957.1435962725393
 31
0.0
  0
LINE
  5
1BE
330
1F
100
AcDbEntity
  8
0
  6
Continuous
 62
     7
100
AcDbLine
 10
2123.989054342022
 20
957.1435962725393
 30
0.0
 11
2128.883402712507
 21
957.1435962725393
 31
0.0
  0
LINE
  5
1BF
330
1F
100
AcDbEntity
  8
0
  6
Continuous
 62
     7
100
AcDbLine
 10
1741.66433479137
 20
944.1435962725393
 30
0.0
 11
1691.822229391036
 21
944.1435962725393
 31
0.0
  0
LINE
  5
1C0
330
1F
100
AcDbEntity
  8
0
  6
Continuous
 62
     7
100
AcDbLine
 10
1773.395076703578
 20
944.1435962725393
 30
0.0
 11
1817.748856094983
 21
944.1435962725393
 31
0.0
  0
LINE
  5
1C1
330
1F
100
AcDbEntity
  8
0
  6
Continuous
 62
     7
100
AcDbLine
 10
1741.66433479137
 20
944.1435962725393
 30
0.0
 11
1773.395076703578
 21
944.1435962725393
 31
0.0
  0
LINE
  5
1C2
330
1F
100
AcDbEntity
  8
0
  6
Continuous
 62
     7
100
AcDbLine
 10
1722.643204465467
 20
957.1435962725393
 30
0.0
 11
1817.748856094983
 21
957.1435962725393
 31
0.0
  0
LINE
  5
1C3
330
1F
100
AcDbEntity
  8
0
  6
Continuous
 62
     7
100
AcDbLine
 10
1687.906750694649
 20
944.1435962725393
 30
0.0
 11
1691.822229391036
 21
944.1435962725393
 31
0.0
  0
LINE
  5
1C4
330
1F
100
AcDbEntity
  8
0
  6
Continuous
 62
     7
100
AcDbLine
 10
1722.643204465467
 20
957.1435962725393
 30
0.0
 11
1672.801099065133
 21
957.1435962725393
 31
0.0
  0
LINE
  5
1C5
330
1F
100
AcDbEntity
  8
0
  6
Continuous
 62
     7
100
AcDbLine
 10
1667.906750694649
 20
957.1435962725393
 30
0.0
 11
1672.801099065133
 21
957.1435962725393
 31
0.0
  0
LINE
  5
1C6
330
1F
100
AcDbEntity
  8
0
  6
Continuous
 62
     7
100
AcDbLine
 10
1667.906750694649
 20
962.1435962725393
 30
0.0
 11
1672.801099065133
 21
962.1435962725393
 31
0.0
  0
LINE
  5
1C7
330
1F
100
AcDbEntity
  8
0
  6
Continuous
 62
     7
100
AcDbLine
 10
1722.643204465467
 20
962.1435962725393
 30
0.0
 11
1672.801099065133
 21
962.1435962725393
 31
0.0
  0
LINE
  5
1C8
330
1F
100
AcDbEntity
  8
0
  6
Continuous
 62
     7
100
AcDbLine
 10
2123.989054342022
 20
962.1435962725393
 30
0.0
 11
2074.146948941688
 21
962.1435962725393
 31
0.0
  0
LINE
  5
1C9
330
1F
100
AcDbEntity
  8
0
  6
Continuous
 62
     7
100
AcDbLine
 10
1979.041297312173
 20
962.1435962725393
 30
0.0
 11
2074.146948941688
 21
962.1435962725393
 31
0.0
  0
LINE
  5
1CA
330
1F
100
AcDbEntity
  8
0
  6
Continuous
 62
     7
100
AcDbLine
 10
1722.643204465467
 20
962.1435962725393
 30
0.0
 11
1817.748856094983
 21
962.1435962725393
 31
0.0
  0
LINE
  5
1CB
330
1F
100
AcDbEntity
  8
0
  6
Continuous
 62
     7
100
AcDbLine
 10
1667.906750694649
 20
957.1435962725393
 30
0.0
 11
1667.906750694649
 21
962.1435962725393
 31
0.0
  0
LINE
  5
1CC
330
1F
100
AcDbEntity
  8
0
  6
Continuous
 62
     7
100
AcDbLine
 10
2128.883402712507
 20
957.1435962725393
 30
0.0
 11
2128.883402712507
 21
962.1435962725393
 31
0.0
  0
LINE
  5
1CD
330
1F
100
AcDbEntity
  8
0
  6
Continuous
 62
     7
100
AcDbLine
 10
2123.989054342022
 20
962.1435962725393
 30
0.0
 11
2128.883402712507
 21
962.1435962725393
 31
0.0
  0
LINE
  5
1CE
330
1F
100
AcDbEntity
  8
0
  6
Continuous
 62
     7
100
AcDbLine
 10
-464.856209213167
 20
-50.16910364872729
 30
0.0
 11
-160.3834485256659
 21
171.0433056099409
 31
0.0
  0
LINE
  5
1CF
330
1F
100
AcDbEntity
  8
0
  6
Continuous
 62
     7
100
AcDbLine
 10
-42.82639806717111
 20
171.0433056099409
 30
0.0
 11
261.6463626203297
 21
-50.16910364872729
 31
0.0
  0
LINE
  5
1D0
330
1F
100
AcDbEntity
  8
0
  6
Continuous
 62
     7
100
AcDbLine
 10
86.56959145696942
 20
-589.0
 30
0.0
 11
-289.779438049809
 21
-589.0
 31
0.0
  0
LINE
  5
1D1
330
1F
100
AcDbEntity
  8
0
  6
Continuous
 62
     7
100
AcDbLine
 10
297.9734890205968
 20
-161.9725025237167
 30
0.0
 11
181.6752430864849
 21
-519.9016994374942
 31
0.0
  0
LINE
  5
1D2
330
1F
100
AcDbEntity
  8
0
  6
Continuous
 62
     7
100
AcDbLine
 10
-384.8850896793219
 20
-519.9016994374942
 30
0.0
 11
-501.1833356134359
 21
-161.9725025237176
 31
0.0
  0
LINE
  5
1D3
330
1F
100
AcDbEntity
  8
0
  6
Continuous
 62
     7
100
AcDbLine
 10
957.1736019328289
 20
30.17102302745434
 30
0.0
 11
1187.585420831479
 21
-137.2329623574838
 31
0.0
  0
LINE
  5
1D4
330
1F
100
AcDbEntity
  8
0
  6
Continuous
 62
     7
100
AcDbLine
 10
1040.797412192633
 20
-589.0
 30
0.0
 11
755.9927412145321
 21
-589.0
 31
0.0
  0
LINE
  5
1D5
330
1F
100
AcDbEntity
  8
0
  6
Continuous
 62
     7
100
AcDbLine
 10
1223.912547231748
 20
-249.0363612324736
 30
0.0
 11
1135.903063822148
 21
-519.9016994374938
 31
0.0
  0
LINE
  5
1D6
330
1F
100
AcDbEntity
  8
0
  6
Continuous
 62
     7
100
AcDbLine
 10
660.8870895850158
 20
-519.9016994374938
 30
0.0
 11
572.877606175417
 21
-249.0363612324736
 31
0.0
  0
LINE
  5
1D7
330
1F
100
AcDbEntity
  8
0
  6
Continuous
 62
     7
100
AcDbLine
 10
609.2047325756859
 20
-137.2329623574838
 30
0.0
 11
839.616551474335
 21
30.17102302745434
 31
0.0
  0
LINE
  5
1D8
330
1F
100
AcDbEntity
  8
0
  6
Continuous
 62
     7
100
AcDbLine
 10
1957.173601932828
 20
-159.8947550600296
 30
0.0
 11
2087.661927941758
 21
-254.7000733137447
 31
0.0
  0
LINE
  5
1D9
330
1F
100
AcDbEntity
  8
0
  6
Continuous
 62
     7
100
AcDbLine
 10
1722.643204465471
 20
-519.9016994374961
 30
0.0
 11
1672.801099065137
 21
-366.5034721887341
 31
0.0
  0
LINE
  5
1DA
330
1F
100
AcDbEntity
  8
0
  6
Continuous
 62
     7
100
AcDbLine
 10
1709.128225465405
 20
-254.7000733137447
 30
0.0
 11
1839.616551474334
 21
-159.8947550600296
 31
0.0
  0
LINE
  5
1DB
330
1F
100
AcDbEntity
  8
0
  6
Continuous
 62
     7
100
AcDbLine
 10
1979.041297312176
 20
-589.0
 30
0.0
 11
1817.748856094986
 21
-589.0
 31
0.0
  0
LINE
  5
1DC
330
1F
100
AcDbEntity
  8
0
  6
Continuous
 62
     7
100
AcDbLine
 10
2123.989054342025
 20
-366.5034721887341
 30
0.0
 11
2074.146948941691
 21
-519.9016994374961
 31
0.0
  0
LINE
  5
1DD
330
1F
100
AcDbEntity
  8
0
  6
DASHED
 62
     2
100
AcDbLine
 10
655.9079637670452
 20
-441.0829036975811
 30
0.0
 11
870.6822637824812
 21
-317.0829037686526
 31
0.0
  0
LINE
  5
1DE
330
1F
100
AcDbEntity
  8
0
  6
DASHED
 62
     2
100
AcDbLine
 10
863.6822637824812
 20
-304.9585481156719
 30
0.0
 11
648.9079637670452
 21
-428.9585480445967
 31
0.0
  0
LINE
  5
1DF
330
1F
100
AcDbEntity
  8
0
  6
DASHED
 62
     2
100
AcDbLine
 10
648.9079637670452
 20
-428.9585480445967
 30
0.0
 11
655.9079637670452
 21
-441.0829036975811
 31
0.0
  0
LINE
  5
1E0
330
1F
100
AcDbEntity
  8
0
  6
DASHED
 62
     2
100
AcDbLine
 10
886.2707210506005
 20
-308.0829037686526
 30
0.0
 11
870.6822637824812
 21
-317.0829037686526
 31
0.0
  0
LINE
  5
1E1
330
1F
100
AcDbEntity
  8
0
  6
DASHED
 62
     2
100
AcDbLine
 10
886.2707210506005
 20
-308.0829037686526
 30
0.0
 11
898.3950767035831
 21
-301.0829037686526
 31
0.0
  0
LINE
  5
1E2
330
1F
100
AcDbEntity
  8
0
  6
DASHED
 62
     2
100
AcDbLine
 10
879.2707210506005
 20
-295.9585481156719
 30
0.0
 11
891.3950767035831
 21
-288.9585481156719
 31
0.0
  0
LINE
  5
1E3
330
1F
100
AcDbEntity
  8
0
  6
DASHED
 62
     2
100
AcDbLine
 10
879.2707210506005
 20
-295.9585481156719
 30
0.0
 11
863.6822637824812
 21
-304.9585481156719
 31
0.0
  0
LINE
  5
1E4
330
1F
100
AcDbEntity
  8
1
  6
DOT_CENTER
 62
     2
100
AcDbLine
 10
667.9162940162423
 20
-428.5207258710871
 30
0.0
 11
659.4162940162423
 21
-428.5207258710871
 31
0.0
  0
LINE
  5
1E5
330
1F
100
AcDbEntity
  8
1
  6
DOT_CENTER
 62
     2
100
AcDbLine
 10
663.6662940162423
 20
-424.2707258710871
 30
0.0
 11
663.6662940162423
 21
-432.7707258710871
 31
0.0
  0
LINE
  5
1E6
330
1F
100
AcDbEntity
  8
0
  6
DASHED
 62
     2
100
AcDbLine
 10
891.3950767035831
 20
-274.9585481156719
 30
0.0
 11
891.3950767035831
 21
-256.9585481156719
 31
0.0
  0
LINE
  5
1E7
330
1F
100
AcDbEntity
  8
0
  6
DASHED
 62
     2
100
AcDbLine
 10
891.3950767035831
 20
-274.9585481156719
 30
0.0
 11
891.3950767035831
 21
-288.9585481156719
 31
0.0
  0
LINE
  5
1E8
330
1F
100
AcDbEntity
  8
0
  6
DASHED
 62
     2
100
AcDbLine
 10
905.3950767035831
 20
-274.9585481156719
 30
0.0
 11
905.3950767035831
 21
-256.9585481156719
 31
0.0
  0
LINE
  5
1E9
330
1F
100
AcDbEntity
  8
0
  6
DASHED
 62
     2
100
AcDbLine
 10
905.3950767035831
 20
-274.9585481156719
 30
0.0
 11
905.3950767035831
 21
-288.9585481156719
 31
0.0
  0
LINE
  5
1EA
330
1F
100
AcDbEntity
  8
0
  6
DASHED
 62
     2
100
AcDbLine
 10
905.3950767035831
 20
-256.9585481156719
 30
0.0
 11
905.3950767035831
 21
-8.95854825782226
 31
0.0
  0
LINE
  5
1EB
330
1F
100
AcDbEntity
  8
0
  6
DASHED
 62
     2
100
AcDbLine
 10
891.3950767035831
 20
-8.95854825782226
 30
0.0
 11
891.3950767035831
 21
-256.9585481156719
 31
0.0
  0
LINE
  5
1EC
330
1F
100
AcDbEntity
  8
0
  6
DASHED
 62
     2
100
AcDbLine
 10
905.3950767035831
 20
-8.95854825782226
 30
0.0
 11
891.3950767035831
 21
-8.95854825782226
 31
0.0
  0
LINE
  5
1ED
330
1F
100
AcDbEntity
  8
1
  6
DOT_CENTER
 62
     2
100
AcDbLine
 10
902.6450767035831
 20
-21.95854825782226
 30
0.0
 11
894.1450767035831
 21
-21.95854825782226
 31
0.0
  0
LINE
  5
1EE
330
1F
100
AcDbEntity
  8
1
  6
DOT_CENTER
 62
     2
100
AcDbLine
 10
898.3950767035831
 20
-17.70854825782226
 30
0.0
 11
898.3950767035831
 21
-26.20854825782226
 31
0.0
  0
LINE
  5
1EF
330
1F
100
AcDbEntity
  8
0
  6
DASHED
 62
     2
100
AcDbLine
 10
926.1078896246845
 20
-317.0829037686526
 30
0.0
 11
1140.882189640121
 21
-441.0829036975774
 31
0.0
  0
LINE
  5
1F0
330
1F
100
AcDbEntity
  8
0
  6
DASHED
 62
     2
100
AcDbLine
 10
910.5194323565643
 20
-308.0829037686526
 30
0.0
 11
926.1078896246845
 21
-317.0829037686526
 31
0.0
  0
LINE
  5
1F1
330
1F
100
AcDbEntity
  8
0
  6
DASHED
 62
     2
100
AcDbLine
 10
917.5194323565643
 20
-295.9585481156719
 30
0.0
 11
905.3950767035831
 21
-288.9585481156719
 31
0.0
  0
LINE
  5
1F2
330
1F
100
AcDbEntity
  8
0
  6
DASHED
 62
     2
100
AcDbLine
 10
910.5194323565643
 20
-308.0829037686526
 30
0.0
 11
898.3950767035831
 21
-301.0829037686526
 31
0.0
  0
LINE
  5
1F3
330
1F
100
AcDbEntity
  8
0
  6
DASHED
 62
     2
100
AcDbLine
 10
917.5194323565643
 20
-295.9585481156719
 30
0.0
 11
933.1078896246845
 21
-304.9585481156719
 31
0.0
  0
LINE
  5
1F4
330
1F
100
AcDbEntity
  8
0
  6
DASHED
 62
     2
100
AcDbLine
 10
1147.882189640121
 20
-428.9585480445967
 30
0.0
 11
933.1078896246845
 21
-304.9585481156719
 31
0.0
  0
LINE
  5
1F5
330
1F
100
AcDbEntity
  8
0
  6
DASHED
 62
     2
100
AcDbLine
 10
1140.882189640121
 20
-441.0829036975774
 30
0.0
 11
1147.882189640121
 21
-428.9585480445967
 31
0.0
  0
LINE
  5
1F6
330
1F
100
AcDbEntity
  8
1
  6
DOT_CENTER
 62
     2
100
AcDbLine
 10
1137.373859390923
 20
-428.5207258710871
 30
0.0
 11
1128.873859390923
 21
-428.5207258710871
 31
0.0
  0
LINE
  5
1F7
330
1F
100
AcDbEntity
  8
1
  6
DOT_CENTER
 62
     2
100
AcDbLine
 10
1133.123859390923
 20
-424.2707258710871
 30
0.0
 11
1133.123859390923
 21
-432.7707258710907
 31
0.0
  0
LINE
  5
1F8
330
1F
100
AcDbEntity
  8
0
  6
DASHED
 62
     2
100
AcDbLine
 10
1886.270721050599
 20
-393.0829037686563
 30
0.0
 11
1898.395076703581
 21
-386.0829037686563
 31
0.0
  0
LINE
  5
1F9
330
1F
100
AcDbEntity
  8
0
  6
DASHED
 62
     2
100
AcDbLine
 10
1879.270721050598
 20
-380.9585481156719
 30
0.0
 11
1891.395076703581
 21
-373.9585481156719
 31
0.0
  0
LINE
  5
1FA
330
1F
100
AcDbEntity
  8
0
  6
DASHED
 62
     2
100
AcDbLine
 10
1879.270721050598
 20
-380.9585481156719
 30
0.0
 11
1863.682263782479
 21
-389.9585481156719
 31
0.0
  0
LINE
  5
1FB
330
1F
100
AcDbEntity
  8
0
  6
DASHED
 62
     2
100
AcDbLine
 10
1886.270721050599
 20
-393.0829037686563
 30
0.0
 11
1870.682263782479
 21
-402.0829037686563
 31
0.0
  0
LINE
  5
1FC
330
1F
100
AcDbEntity
  8
0
  6
DASHED
 62
     2
100
AcDbLine
 10
1731.25217389629
 20
-482.5829036975774
 30
0.0
 11
1870.682263782479
 21
-402.0829037686563
 31
0.0
  0
LINE
  5
1FD
330
1F
100
AcDbEntity
  8
0
  6
DASHED
 62
     2
100
AcDbLine
 10
1863.682263782479
 20
-389.9585481156719
 30
0.0
 11
1724.252173896289
 21
-470.4585480445967
 31
0.0
  0
LINE
  5
1FE
330
1F
100
AcDbEntity
  8
0
  6
DASHED
 62
     2
100
AcDbLine
 10
1724.252173896289
 20
-470.4585480445967
 30
0.0
 11
1731.25217389629
 21
-482.5829036975774
 31
0.0
  0
LINE
  5
1FF
330
1F
100
AcDbEntity
  8
1
  6
DOT_CENTER
 62
     2
100
AcDbLine
 10
1743.260504145485
 20
-470.0207258710871
 30
0.0
 11
1734.760504145486
 21
-470.0207258710871
 31
0.0
  0
LINE
  5
200
330
1F
100
AcDbEntity
  8
1
  6
DOT_CENTER
 62
     2
100
AcDbLine
 10
1739.010504145486
 20
-465.7707258710871
 30
0.0
 11
1739.010504145486
 21
-474.2707258710871
 31
0.0
  0
LINE
  5
201
330
1F
100
AcDbEntity
  8
0
  6
DASHED
 62
     2
100
AcDbLine
 10
1905.39507670358
 20
-341.9585481156719
 30
0.0
 11
1905.39507670358
 21
-180.9585482578223
 31
0.0
  0
LINE
  5
202
330
1F
100
AcDbEntity
  8
0
  6
DASHED
 62
     2
100
AcDbLine
 10
1891.39507670358
 20
-180.9585482578223
 30
0.0
 11
1891.39507670358
 21
-341.9585481156719
 31
0.0
  0
LINE
  5
203
330
1F
100
AcDbEntity
  8
0
  6
DASHED
 62
     2
100
AcDbLine
 10
1905.39507670358
 20
-359.9585481156719
 30
0.0
 11
1905.39507670358
 21
-341.9585481156719
 31
0.0
  0
LINE
  5
204
330
1F
100
AcDbEntity
  8
0
  6
DASHED
 62
     2
100
AcDbLine
 10
1905.39507670358
 20
-359.9585481156719
 30
0.0
 11
1905.39507670358
 21
-373.9585481156719
 31
0.0
  0
LINE
  5
205
330
1F
100
AcDbEntity
  8
0
  6
DASHED
 62
     2
100
AcDbLine
 10
1891.39507670358
 20
-359.9585481156719
 30
0.0
 11
1891.39507670358
 21
-341.9585481156719
 31
0.0
  0
LINE
  5
206
330
1F
100
AcDbEntity
  8
0
  6
DASHED
 62
     2
100
AcDbLine
 10
1891.39507670358
 20
-359.9585481156719
 30
0.0
 11
1891.395076703581
 21
-373.9585481156719
 31
0.0
  0
LINE
  5
207
330
1F
100
AcDbEntity
  8
0
  6
DASHED
 62
     2
100
AcDbLine
 10
1905.39507670358
 20
-180.9585482578223
 30
0.0
 11
1891.39507670358
 21
-180.9585482578223
 31
0.0
  0
LINE
  5
208
330
1F
100
AcDbEntity
  8
1
  6
DOT_CENTER
 62
     2
100
AcDbLine
 10
1902.645076703581
 20
-193.9585482578223
 30
0.0
 11
1894.145076703581
 21
-193.9585482578223
 31
0.0
  0
LINE
  5
209
330
1F
100
AcDbEntity
  8
1
  6
DOT_CENTER
 62
     2
100
AcDbLine
 10
1898.395076703581
 20
-189.7085482578223
 30
0.0
 11
1898.395076703581
 21
-198.2085482578223
 31
0.0
  0
LINE
  5
20A
330
1F
100
AcDbEntity
  8
0
  6
DASHED
 62
     2
100
AcDbLine
 10
1917.519432356562
 20
-380.9585481156719
 30
0.0
 11
1905.39507670358
 21
-373.9585481156719
 31
0.0
  0
LINE
  5
20B
330
1F
100
AcDbEntity
  8
0
  6
DASHED
 62
     2
100
AcDbLine
 10
1917.519432356562
 20
-380.9585481156719
 30
0.0
 11
1933.107889624683
 21
-389.9585481156719
 31
0.0
  0
LINE
  5
20C
330
1F
100
AcDbEntity
  8
0
  6
DASHED
 62
     2
100
AcDbLine
 10
1910.519432356562
 20
-393.0829037686526
 30
0.0
 11
1926.107889624682
 21
-402.0829037686526
 31
0.0
  0
LINE
  5
20D
330
1F
100
AcDbEntity
  8
0
  6
DASHED
 62
     2
100
AcDbLine
 10
1910.519432356562
 20
-393.0829037686526
 30
0.0
 11
1898.395076703581
 21
-386.0829037686563
 31
0.0
  0
LINE
  5
20E
330
1F
100
AcDbEntity
  8
0
  6
DASHED
 62
     2
100
AcDbLine
 10
1926.107889624682
 20
-402.0829037686526
 30
0.0
 11
2065.537979510873
 21
-482.5829036975774
 31
0.0
  0
LINE
  5
20F
330
1F
100
AcDbEntity
  8
0
  6
DASHED
 62
     2
100
AcDbLine
 10
2072.537979510872
 20
-470.4585480445967
 30
0.0
 11
1933.107889624683
 21
-389.9585481156719
 31
0.0
  0
LINE
  5
210
330
1F
100
AcDbEntity
  8
0
  6
DASHED
 62
     2
100
AcDbLine
 10
2065.537979510873
 20
-482.5829036975774
 30
0.0
 11
2072.537979510872
 21
-470.4585480445967
 31
0.0
  0
LINE
  5
211
330
1F
100
AcDbEntity
  8
1
  6
DOT_CENTER
 62
     2
100
AcDbLine
 10
2062.029649261674
 20
-470.0207258710871
 30
0.0
 11
2053.529649261674
 21
-470.0207258710871
 31
0.0
  0
LINE
  5
212
330
1F
100
AcDbEntity
  8
1
  6
DOT_CENTER
 62
     2
100
AcDbLine
 10
2057.779649261674
 20
-465.7707258710871
 30
0.0
 11
2057.779649261674
 21
-474.2707258710871
 31
0.0
  0
LINE
  5
213
330
1F
100
AcDbEntity
  8
0
  6
DASHED
 62
     2
100
AcDbLine
 10
147.8821896401191
 20
-365.9585480445967
 30
0.0
 11
-66.89211037531709
 21
-241.9585481156701
 31
0.0
  0
LINE
  5
214
330
1F
100
AcDbEntity
  8
0
  6
DASHED
 62
     2
100
AcDbLine
 10
-89.48056764343801
 20
-245.0829037686544
 30
0.0
 11
-101.6049232964181
 21
-238.0829037686544
 31
0.0
  0
LINE
  5
215
330
1F
100
AcDbEntity
  8
0
  6
DASHED
 62
     2
100
AcDbLine
 10
-82.48056764343801
 20
-232.9585481156701
 30
0.0
 11
-94.60492329641897
 21
-225.9585481156701
 31
0.0
  0
LINE
  5
216
330
1F
100
AcDbEntity
  8
0
  6
DASHED
 62
     2
100
AcDbLine
 10
-82.48056764343801
 20
-232.9585481156701
 30
0.0
 11
-66.89211037531709
 21
-241.9585481156701
 31
0.0
  0
LINE
  5
217
330
1F
100
AcDbEntity
  8
0
  6
DASHED
 62
     2
100
AcDbLine
 10
-89.48056764343801
 20
-245.0829037686544
 30
0.0
 11
-73.89211037531709
 21
-254.0829037686544
 31
0.0
  0
LINE
  5
218
330
1F
100
AcDbEntity
  8
0
  6
DASHED
 62
     2
100
AcDbLine
 10
-73.89211037531709
 20
-254.0829037686544
 30
0.0
 11
140.8821896401191
 21
-378.0829036975811
 31
0.0
  0
LINE
  5
219
330
1F
100
AcDbEntity
  8
0
  6
DASHED
 62
     2
100
AcDbLine
 10
140.8821896401191
 20
-378.0829036975811
 30
0.0
 11
147.8821896401191
 21
-365.9585480445967
 31
0.0
  0
LINE
  5
21A
330
1F
100
AcDbEntity
  8
1
  6
DOT_CENTER
 62
     2
100
AcDbLine
 10
137.3738593909202
 20
-365.5207258710871
 30
0.0
 11
128.8738593909211
 21
-365.5207258710871
 31
0.0
  0
LINE
  5
21B
330
1F
100
AcDbEntity
  8
1
  6
DOT_CENTER
 62
     2
100
AcDbLine
 10
133.1238593909211
 20
-361.2707258710871
 30
0.0
 11
133.1238593909211
 21
-369.7707258710889
 31
0.0
  0
LINE
  5
21C
330
1F
100
AcDbEntity
  8
0
  6
DASHED
 62
     2
100
AcDbLine
 10
-136.317736217522
 20
-241.9585481156701
 30
0.0
 11
-351.092036232958
 21
-365.9585480445967
 31
0.0
  0
LINE
  5
21D
330
1F
100
AcDbEntity
  8
0
  6
DASHED
 62
     2
100
AcDbLine
 10
-344.092036232958
 20
-378.0829036975811
 30
0.0
 11
-129.317736217522
 21
-254.0829037686544
 31
0.0
  0
LINE
  5
21E
330
1F
100
AcDbEntity
  8
0
  6
DASHED
 62
     2
100
AcDbLine
 10
-120.7292789494011
 20
-232.9585481156701
 30
0.0
 11
-108.604923296419
 21
-225.9585481156701
 31
0.0
  0
LINE
  5
21F
330
1F
100
AcDbEntity
  8
0
  6
DASHED
 62
     2
100
AcDbLine
 10
-113.7292789494011
 20
-245.0829037686544
 30
0.0
 11
-101.6049232964181
 21
-238.0829037686544
 31
0.0
  0
LINE
  5
220
330
1F
100
AcDbEntity
  8
0
  6
DASHED
 62
     2
100
AcDbLine
 10
-113.7292789494011
 20
-245.0829037686544
 30
0.0
 11
-129.317736217522
 21
-254.0829037686544
 31
0.0
  0
LINE
  5
221
330
1F
100
AcDbEntity
  8
0
  6
DASHED
 62
     2
100
AcDbLine
 10
-120.7292789494011
 20
-232.9585481156701
 30
0.0
 11
-136.317736217522
 21
-241.9585481156701
 31
0.0
  0
LINE
  5
222
330
1F
100
AcDbEntity
  8
0
  6
DASHED
 62
     2
100
AcDbLine
 10
-351.092036232958
 20
-365.9585480445967
 30
0.0
 11
-344.092036232958
 21
-378.0829036975811
 31
0.0
  0
LINE
  5
223
330
1F
100
AcDbEntity
  8
1
  6
DOT_CENTER
 62
     2
100
AcDbLine
 10
-332.08370598376
 20
-365.5207258710871
 30
0.0
 11
-340.5837059837591
 21
-365.5207258710871
 31
0.0
  0
LINE
  5
224
330
1F
100
AcDbEntity
  8
1
  6
DOT_CENTER
 62
     2
100
AcDbLine
 10
-336.33370598376
 20
-361.2707258710871
 30
0.0
 11
-336.33370598376
 21
-369.7707258710889
 31
0.0
  0
LINE
  5
225
330
1F
100
AcDbEntity
  8
0
  6
DASHED
 62
     2
100
AcDbLine
 10
-94.60492329641806
 20
-193.9585481156701
 30
0.0
 11
-94.60492329641806
 21
54.04145174217956
 31
0.0
  0
LINE
  5
226
330
1F
100
AcDbEntity
  8
0
  6
DASHED
 62
     2
100
AcDbLine
 10
-94.60492329641806
 20
54.04145174217956
 30
0.0
 11
-108.6049232964181
 21
54.04145174217956
 31
0.0
  0
LINE
  5
227
330
1F
100
AcDbEntity
  8
0
  6
DASHED
 62
     2
100
AcDbLine
 10
-94.60492329641897
 20
-211.9585481156701
 30
0.0
 11
-94.60492329641806
 21
-193.9585481156701
 31
0.0
  0
LINE
  5
228
330
1F
100
AcDbEntity
  8
0
  6
DASHED
 62
     2
100
AcDbLine
 10
-94.60492329641897
 20
-211.9585481156701
 30
0.0
 11
-94.60492329641897
 21
-225.9585481156701
 31
0.0
  0
LINE
  5
229
330
1F
100
AcDbEntity
  8
0
  6
DASHED
 62
     2
100
AcDbLine
 10
-108.604923296419
 20
-211.9585481156701
 30
0.0
 11
-108.604923296419
 21
-225.9585481156701
 31
0.0
  0
LINE
  5
22A
330
1F
100
AcDbEntity
  8
0
  6
DASHED
 62
     2
100
AcDbLine
 10
-108.604923296419
 20
-211.9585481156701
 30
0.0
 11
-108.6049232964181
 21
-193.9585481156701
 31
0.0
  0
LINE
  5
22B
330
1F
100
AcDbEntity
  8
0
  6
DASHED
 62
     2
100
AcDbLine
 10
-108.6049232964181
 20
54.04145174217956
 30
0.0
 11
-108.6049232964181
 21
-193.9585481156701
 31
0.0
  0
LINE
  5
22C
330
1F
100
AcDbEntity
  8
1
  6
DOT_CENTER
 62
     2
100
AcDbLine
 10
-97.35492329641806
 20
41.04145174217956
 30
0.0
 11
-105.8549232964181
 21
41.04145174217956
 31
0.0
  0
LINE
  5
22D
330
1F
100
AcDbEntity
  8
1
  6
DOT_CENTER
 62
     2
100
AcDbLine
 10
-101.6049232964181
 20
45.29145174217956
 30
0.0
 11
-101.6049232964181
 21
36.79145174217956
 31
0.0
  0
ARC
  5
22E
330
1F
100
AcDbEntity
  8
0
  6
Continuous
 62
     7
100
AcDbCircle
 10
86.56959145696942
 20
-489.0
 30
0.0
 40
100.0
100
AcDbArc
 50
270.0
 51
342.0000000000003
  0
ARC
  5
22F
330
1F
100
AcDbEntity
  8
0
  6
Continuous
 62
     7
100
AcDbCircle
 10
-101.604923296419
 20
90.14160617244579
 30
0.0
 40
100.0000000000006
100
AcDbArc
 50
53.99999999999986
 51
125.9999999999997
  0
ARC
  5
230
330
1F
100
AcDbEntity
  8
0
  6
Continuous
 62
     7
100
AcDbCircle
 10
-289.7794380498081
 20
-489.0
 30
0.0
 40
99.99999999999834
100
AcDbArc
 50
198.0
 51
269.9999999999995
  0
ARC
  5
231
330
1F
100
AcDbEntity
  8
0
  6
Continuous
 62
     7
100
AcDbCircle
 10
202.8678373910821
 20
-131.0708030862224
 30
0.0
 40
99.99999999999922
100
AcDbArc
 50
342.0000000000001
 51
54.00000000000001
  0
ARC
  5
232
330
1F
100
AcDbEntity
  8
0
  6
Continuous
 62
     7
100
AcDbCircle
 10
-406.0776839839209
 20
-131.0708030862224
 30
0.0
 40
99.9999999999996
100
AcDbArc
 50
125.9999999999993
 51
198.0000000000003
  0
ARC
  5
233
330
1F
100
AcDbEntity
  8
0
  6
Continuous
 62
     7
100
AcDbCircle
 10
1040.797412192633
 20
-489.0
 30
0.0
 40
100.0
100
AcDbArc
 50
270.0
 51
342.0000000000005
  0
ARC
  5
234
330
1F
100
AcDbEntity
  8
0
  6
Continuous
 62
     7
100
AcDbCircle
 10
1128.806895602232
 20
-218.1346617949803
 30
0.0
 40
100.0000000000001
100
AcDbArc
 50
342.0000000000009
 51
54.00000000000076
  0
ARC
  5
235
330
1F
100
AcDbEntity
  8
0
  6
Continuous
 62
     7
100
AcDbCircle
 10
898.3950767035819
 20
-50.73067641004082
 30
0.0
 40
100.0000000000001
100
AcDbArc
 50
54.00000000000031
 51
125.9999999999997
  0
ARC
  5
236
330
1F
100
AcDbEntity
  8
0
  6
Continuous
 62
     7
100
AcDbCircle
 10
755.9927412145321
 20
-489.0
 30
0.0
 40
100.0000000000006
100
AcDbArc
 50
197.9999999999993
 51
270.0
  0
ARC
  5
237
330
1F
100
AcDbEntity
  8
0
  6
Continuous
 62
     7
100
AcDbCircle
 10
667.9832578049329
 20
-218.1346617949789
 30
0.0
 40
100.0000000000001
100
AcDbArc
 50
125.9999999999998
 51
197.9999999999999
  0
ARC
  5
238
330
1F
100
AcDbEntity
  8
0
  6
Continuous
 62
     7
100
AcDbCircle
 10
2028.883402712509
 20
-335.601772751239
 30
0.0
 40
100.0000000000009
100
AcDbArc
 50
341.9999999999999
 51
53.99999999999898
  0
ARC
  5
239
330
1F
100
AcDbEntity
  8
0
  6
Continuous
 62
     7
100
AcDbCircle
 10
1898.395076703581
 20
-240.7964544975239
 30
0.0
 40
99.99999999999943
100
AcDbArc
 50
54.00000000000002
 51
126.0
  0
ARC
  5
23A
330
1F
100
AcDbEntity
  8
0
  6
Continuous
 62
     7
100
AcDbCircle
 10
1979.041297312176
 20
-489.0
 30
0.0
 40
100.0
100
AcDbArc
 50
270.0
 51
341.9999999999992
  0
ARC
  5
23B
330
1F
100
AcDbEntity
  8
0
  6
Continuous
 62
     7
100
AcDbCircle
 10
1817.748856094986
 20
-489.0
 30
0.0
 40
100.0000000000001
100
AcDbArc
 50
198.0000000000008
 51
270.0
  0
ARC
  5
23C
330
1F
100
AcDbEntity
  8
0
  6
Continuous
 62
     7
100
AcDbCircle
 10
1767.906750694652
 20
-335.601772751239
 30
0.0
 40
99.99999999999946
100
AcDbArc
 50
126.0
 51
198.0000000000003
  0
CIRCLE
  5
23D
330
1F
100
AcDbEntity
  8
0
  6
DASHED
 62
     2
100
AcDbCircle
 10
663.6662940162423
 20
-428.5207258710871
 30
0.0
 40
2.250000000002006
  0
CIRCLE
  5
23E
330
1F
100
AcDbEntity
  8
0
  6
DASHED
 62
     2
100
AcDbCircle
 10
898.3950767035831
 20
-21.95854825782226
 30
0.0
 40
2.25
  0
CIRCLE
  5
23F
330
1F
100
AcDbEntity
  8
0
  6
DASHED
 62
     2
100
AcDbCircle
 10
1133.123859390923
 20
-428.5207258710871
 30
0.0
 40
2.249999999999003
  0
CIRCLE
  5
240
330
1F
100
AcDbEntity
  8
0
  6
DASHED
 62
     2
100
AcDbCircle
 10
1739.010504145486
 20
-470.0207258710871
 30
0.0
 40
2.250000000002006
  0
CIRCLE
  5
241
330
1F
100
AcDbEntity
  8
0
  6
DASHED
 62
     2
100
AcDbCircle
 10
1898.395076703581
 20
-193.9585482578223
 30
0.0
 40
2.25
  0
CIRCLE
  5
242
330
1F
100
AcDbEntity
  8
0
  6
DASHED
 62
     2
100
AcDbCircle
 10
2057.779649261674
 20
-470.0207258710871
 30
0.0
 40
2.249999999999003
  0
CIRCLE
  5
243
330
1F
100
AcDbEntity
  8
0
  6
DASHED
 62
     2
100
AcDbCircle
 10
133.1238593909211
 20
-365.5207258710871
 30
0.0
 40
2.24999999999733
  0
CIRCLE
  5
244
330
1F
100
AcDbEntity
  8
0
  6
DASHED
 62
     2
100
AcDbCircle
 10
-336.33370598376
 20
-365.5207258710871
 30
0.0
 40
2.250000000000431
  0
CIRCLE
  5
245
330
1F
100
AcDbEntity
  8
0
  6
DASHED
 62
     2
100
AcDbCircle
 10
-101.6049232964181
 20
41.04145174217956
 30
0.0
 40
2.25
  0
SPLINE
  5
246
330
1F
100
AcDbEntity
  8
0
  6
Continuous
 62
     7
100
AcDbSpline
210
0.0
220
0.0
230
1.0
 70
    24
 71
     3
 72
     8
 73
     4
 74
     2
 42
0.000000001
 43
0.0000000001
 44
0.00000001
 40
0.0
 40
0.0
 40
0.0
 40
0.0
 40
0.0000053098337958
 40
0.0000053098337958
 40
0.0000053098337958
 40
0.0000053098337958
 10
-101.6049232964231
 20
454.1435911329154
 30
0.0
 10
-101.6049232964224
 20
454.1435929028601
 30
0.0
 10
-101.6049232964217
 20
454.1435946728046
 30
0.0
 10
-101.604923296421
 20
454.1435964427492
 30
0.0
 11
-101.6049232964231
 21
454.1435911329154
 31
0.0
 11
-101.604923296421
 21
454.1435964427492
 31
0.0
  0
SPLINE
  5
247
330
1F
100
AcDbEntity
  8
0
  6
Continuous
 62
     7
100
AcDbSpline
210
0.0
220
0.0
230
1.0
 70
     8
 71
     3
 72
    15
 73
    11
 74
     9
 42
0.000000001
 43
0.0000000001
 44
0.00000001
 40
0.0
 40
0.0
 40
0.0
 40
0.0
 40
3.524376813489384
 40
7.015628556879403
 40
10.44483109522998
 40
13.79122964874715
 40
17.04562785583432
 40
20.2126549979307
 40
23.31114692603701
 40
26.37190811369998
 40
26.37190811369998
 40
26.37190811369998
 40
26.37190811369998
 10
-113.729278949403
 20
454.1435964427492
 30
0.0
 10
-113.7868767693683
 20
452.9673679742833
 30
0.0
 10
-113.9015310708314
 20
450.6259662272142
 30
0.0
 10
-114.8198810631621
 20
447.2407409473221
 30
0.0
 10
-116.2503762436637
 20
444.1152641766931
 30
0.0
 10
-118.1939684768071
 20
441.369780656277
 30
0.0
 10
-120.565995170355
 20
439.1052905404107
 30
0.0
 10
-123.2820958891832
 20
437.4299221918125
 30
0.0
 10
-126.2379874849704
 20
436.3473562188362
 30
0.0
 10
-128.295354355286
 20
436.2112384171089
 30
0.0
 10
-129.317736217524
 20
436.1435964427494
 30
0.0
 11
-113.729278949403
 21
454.1435964427492
 31
0.0
 11
-114.0288075099199
 21
450.6319708130175
 31
0.0
 11
-114.9158796040805
 21
447.2552946601774
 31
0.0
 11
-116.3564083111692
 21
444.1433327227154
 31
0.0
 11
-118.295032374999
 21
441.415674381392
 31
0.0
 11
-120.6572537914299
 21
439.1771441311721
 31
0.0
 11
-123.3522918848825
 21
437.5137648575457
 31
0.0
 11
-126.2765792135955
 21
436.4894622328379
 31
0.0
 11
-129.317736217524
 21
436.1435964427494
 31
0.0
  0
SPLINE
  5
248
330
1F
100
AcDbEntity
  8
0
  6
Continuous
 62
     7
100
AcDbSpline
210
0.0
220
0.0
230
1.0
 70
     8
 71
     3
 72
    15
 73
    11
 74
     9
 42
0.000000001
 43
0.0000000001
 44
0.00000001
 40
0.0
 40
0.0
 40
0.0
 40
0.0
 40
3.52437681348938
 40
7.015628556879385
 40
10.44483109522996
 40
13.79122964874713
 40
17.04562785583427
 40
20.21265499793065
 40
23.31114692603689
 40
26.37190811369899
 40
26.37190811369899
 40
26.37190811369899
 40
26.37190811369899
 10
-120.7292789494031
 20
454.1435964427492
 30
0.0
 10
-120.7868767693684
 20
452.9673679742833
 30
0.0
 10
-120.9015310708315
 20
450.6259662272143
 30
0.0
 10
-121.8198810631621
 20
447.2407409473221
 30
0.0
 10
-123.2503762436638
 20
444.1152641766931
 30
0.0
 10
-125.193968476807
 20
441.3697806562769
 30
0.0
 10
-127.565995170355
 20
439.1052905404109
 30
0.0
 10
-130.2820958891832
 20
437.4299221918126
 30
0.0
 10
-133.23798748497
 20
436.3473562188364
 30
0.0
 10
-135.2953543552853
 20
436.211238417109
 30
0.0
 10
-136.317736217523
 20
436.1435964427494
 30
0.0
 11
-120.7292789494031
 21
454.1435964427492
 31
0.0
 11
-121.02880750992
 21
450.6319708130175
 31
0.0
 11
-121.9158796040805
 21
447.2552946601774
 31
0.0
 11
-123.3564083111692
 21
444.1433327227154
 31
0.0
 11
-125.295032374999
 21
441.415674381392
 31
0.0
 11
-127.6572537914298
 21
439.1771441311721
 31
0.0
 11
-130.3522918848824
 21
437.5137648575457
 31
0.0
 11
-133.2765792135953
 21
436.4894622328379
 31
0.0
 11
-136.317736217523
 21
436.1435964427494
 31
0.0
  0
SPLINE
  5
249
330
1F
100
AcDbEntity
  8
0
  6
Continuous
 62
     7
100
AcDbSpline
210
0.0
220
0.0
230
1.0
 70
     8
 71
     3
 72
    17
 73
    13
 74
    11
 42
0.000000001
 43
0.0000000001
 44
0.00000001
 40
0.0
 40
0.0
 40
0.0
 40
0.0
 40
4.353103301996652
 40
8.74106731797093
 40
13.19458738233751
 40
17.73679036145224
 40
22.38108159726427
 40
27.13034841633749
 40
31.97734424863401
 40
36.90594808010403
 40
41.89300620538283
 40
46.91052241459512
 40
46.91052241459512
 40
46.91052241459512
 40
46.91052241459512
 10
-129.317736217524
 20
422.1435964427494
 30
0.0
 10
-127.8647459756887
 20
422.2202012898628
 30
0.0
 10
-124.9471295927614
 20
422.3740244685241
 30
0.0
 10
-120.687449703681
 20
423.6053603593122
 30
0.0
 10
-116.6456983619857
 20
425.5337252117603
 30
0.0
 10
-112.9218799696799
 20
428.1822569490873
 30
0.0
 10
-109.6063071261368
 20
431.4629126125182
 30
0.0
 10
-106.7797138728218
 20
435.2989236931418
 30
0.0
 10
-104.5053128082806
 20
439.5938383709528
 30
0.0
 10
-102.8530966995318
 20
444.2427996288662
 30
0.0
 10
-101.8014108388239
 20
449.132337071406
 30
0.0
 10
-101.6705519353319
 20
452.4697862511036
 30
0.0
 10
-101.6049232964231
 20
454.1435911329154
 30
0.0
 11
-129.317736217524
 21
422.1435964427494
 31
0.0
 11
-124.9824976615275
 21
422.537569853546
 31
0.0
 11
-120.7540069376464
 21
423.7097875931388
 31
0.0
 11
-116.7363838158619
 21
425.6313872999816
 31
0.0
 11
-113.0285549710499
 21
428.2550513743346
 31
0.0
 11
-109.721820144659
 21
431.5161778487594
 31
0.0
 11
-106.8976012241596
 21
435.3344657919433
 31
0.0
 11
-104.6254408695254
 21
439.6158973199149
 31
0.0
 11
-102.9612860408409
 21
444.2550485827888
 31
0.0
 11
-101.9461149979432
 21
449.1376889036767
 31
0.0
 11
-101.6049232964231
 21
454.1435911329154
 31
0.0
  0
SPLINE
  5
24A
330
1F
100
AcDbEntity
  8
0
  6
Continuous
 62
     7
100
AcDbSpline
210
0.0
220
0.0
230
1.0
 70
    24
 71
     3
 72
     8
 73
     4
 74
     2
 42
0.000000001
 43
0.0000000001
 44
0.00000001
 40
0.0
 40
0.0
 40
0.0
 40
0.0
 40
0.0000052452085129
 40
0.0000052452085129
 40
0.0000052452085129
 40
0.0000052452085129
 10
-101.6049232964231
 20
454.1435911975407
 30
0.0
 10
-101.6049232964224
 20
454.1435929459436
 30
0.0
 10
-101.6049232964217
 20
454.1435946943464
 30
0.0
 10
-101.604923296421
 20
454.1435964427492
 30
0.0
 11
-101.6049232964231
 21
454.1435911975407
 31
0.0
 11
-101.604923296421
 21
454.1435964427492
 31
0.0
  0
SPLINE
  5
24B
330
1F
100
AcDbEntity
  8
0
  6
Continuous
 62
     7
100
AcDbSpline
210
0.0
220
0.0
230
1.0
 70
     8
 71
     3
 72
    15
 73
    11
 74
     9
 42
0.000000001
 43
0.0000000001
 44
0.00000001
 40
0.0
 40
0.0
 40
0.0
 40
0.0
 40
3.524376813489381
 40
7.0156285568793
 40
10.44483109522986
 40
13.79122964874729
 40
17.04562785583408
 40
20.2126549979297
 40
23.31114692603612
 40
26.37190811369953
 40
26.37190811369953
 40
26.37190811369953
 40
26.37190811369953
 10
-89.48056764344005
 20
454.1435964427492
 30
0.0
 10
-89.42296982347473
 20
452.9673679742833
 30
0.0
 10
-89.30831552201157
 20
450.6259662272142
 30
0.0
 10
-88.38996552968149
 20
447.2407409473221
 30
0.0
 10
-86.95947034917981
 20
444.1152641766929
 30
0.0
 10
-85.01587811603599
 20
441.3697806562772
 30
0.0
 10
-82.64385142248868
 20
439.1052905404109
 30
0.0
 10
-79.92775070366106
 20
437.4299221918124
 30
0.0
 10
-76.97185910787388
 20
436.3473562188361
 30
0.0
 10
-74.91449223755805
 20
436.2112384171089
 30
0.0
 10
-73.89211037531993
 20
436.1435964427494
 30
0.0
 11
-89.48056764344005
 21
454.1435964427492
 31
0.0
 11
-89.18103908292314
 21
450.6319708130175
 31
0.0
 11
-88.29396698876297
 21
447.2552946601774
 31
0.0
 11
-86.85343828167427
 21
444.1433327227154
 31
0.0
 11
-84.91481421784403
 21
441.415674381392
 31
0.0
 11
-82.55259280141372
 21
439.1771441311721
 31
0.0
 11
-79.85755470796198
 21
437.5137648575457
 31
0.0
 11
-76.93326737924889
 21
436.4894622328379
 31
0.0
 11
-73.89211037531993
 21
436.1435964427494
 31
0.0
  0
SPLINE
  5
24C
330
1F
100
AcDbEntity
  8
0
  6
Continuous
 62
     7
100
AcDbSpline
210
0.0
220
0.0
230
1.0
 70
     8
 71
     3
 72
    15
 73
    11
 74
     9
 42
0.000000001
 43
0.0000000001
 44
0.00000001
 40
0.0
 40
0.0
 40
0.0
 40
0.0
 40
3.524376813489339
 40
7.015628556879138
 40
10.44483109522991
 40
13.79122964874734
 40
17.04562785583456
 40
20.21265499793143
 40
23.31114692603726
 40
26.37190811369971
 40
26.37190811369971
 40
26.37190811369971
 40
26.37190811369971
 10
-82.48056764344005
 20
454.1435964427492
 30
0.0
 10
-82.42296982347486
 20
452.9673679742833
 30
0.0
 10
-82.30831552201205
 20
450.6259662272145
 30
0.0
 10
-81.38996552968266
 20
447.2407409473219
 30
0.0
 10
-79.95947034918018
 20
444.1152641766932
 30
0.0
 10
-78.01587811603648
 20
441.3697806562772
 30
0.0
 10
-75.64385142248841
 20
439.1052905404105
 30
0.0
 10
-72.92775070365988
 20
437.429922191813
 30
0.0
 10
-69.97185910787309
 20
436.3473562188361
 30
0.0
 10
-67.91449223755775
 20
436.2112384171089
 30
0.0
 10
-66.89211037531993
 20
436.1435964427494
 30
0.0
 11
-82.48056764344005
 21
454.1435964427492
 31
0.0
 11
-82.18103908292363
 21
450.6319708130175
 31
0.0
 11
-81.29396698876394
 21
447.2552946601774
 31
0.0
 11
-79.85343828167474
 21
444.1433327227154
 31
0.0
 11
-77.91481421784448
 21
441.415674381392
 31
0.0
 11
-75.5525928014136
 21
439.1771441311721
 31
0.0
 11
-72.85755470796039
 21
437.5137648575457
 31
0.0
 11
-69.93326737924792
 21
436.4894622328379
 31
0.0
 11
-66.89211037531993
 21
436.1435964427494
 31
0.0
  0
SPLINE
  5
24D
330
1F
100
AcDbEntity
  8
0
  6
Continuous
 62
     7
100
AcDbSpline
210
0.0
220
0.0
230
1.0
 70
     8
 71
     3
 72
    17
 73
    13
 74
    11
 42
0.000000001
 43
0.0000000001
 44
0.00000001
 40
0.0
 40
0.0
 40
0.0
 40
0.0
 40
4.353103307593153
 40
8.741067329296241
 40
13.19458739963003
 40
17.73679038500891
 40
22.38108162738765
 40
27.13034845328253
 40
31.97734429255916
 40
36.90594813103838
 40
41.8930062632085
 40
46.91052247904678
 40
46.91052247904678
 40
46.91052247904678
 40
46.91052247904678
 10
-73.89211037531993
 20
422.1435964427494
 30
0.0
 10
-75.34510061902816
 20
422.2202012900613
 30
0.0
 10
-78.26271700574557
 20
422.3740244691228
 30
0.0
 10
-82.52239690005287
 20
423.6053603630811
 30
0.0
 10
-86.56414824613029
 20
425.533725220391
 30
0.0
 10
-90.28796664161311
 20
428.1822569642039
 30
0.0
 10
-93.60353948682706
 20
431.4629126353532
 30
0.0
 10
-96.43013274007056
 20
435.2989237245387
 30
0.0
 10
-98.70453380264577
 20
439.5938384113107
 30
0.0
 10
-100.3567499074033
 20
444.2427996780751
 30
0.0
 10
-101.4084357622603
 20
449.1323371289598
 30
0.0
 10
-101.5392946602672
 20
452.4697863134011
 30
0.0
 10
-101.6049232964231
 20
454.1435911975407
 30
0.0
 11
-73.89211037531993
 21
422.1435964427494
 31
0.0
 11
-78.22734893684415
 21
422.5375698545569
 31
0.0
 11
-82.45583966584297
 21
423.7097875971333
 31
0.0
 11
-86.47346279194252
 21
425.631387308784
 31
0.0
 11
-90.18129163990545
 21
428.2550513895287
 31
0.0
 11
-93.48802646797151
 21
431.5161778716069
 31
0.0
 11
-96.31224538842196
 21
435.334465823312
 31
0.0
 11
-98.58440574110445
 21
439.6158973602214
 31
0.0
 11
-100.2485605658389
 21
444.2550486319589
 31
0.0
 11
-101.263731602781
 21
449.1376889611237
 31
0.0
 11
-101.6049232964231
 21
454.1435911975407
 31
0.0
  0
SPLINE
  5
24E
330
1F
100
AcDbEntity
  8
0
  6
Continuous
 62
     7
100
AcDbSpline
210
0.0
220
0.0
230
1.0
 70
     8
 71
     3
 72
    17
 73
    13
 74
    11
 42
0.000000001
 43
0.0000000001
 44
0.00000001
 40
0.0
 40
0.0
 40
0.0
 40
0.0
 40
4.766614416794447
 40
9.598536785711719
 40
14.49345553049084
 40
19.44309158595577
 40
24.43415860411532
 40
29.44968166947169
 40
34.47054891219811
 40
39.47718533161719
 40
44.45125213990877
 40
49.37727752801024
 40
49.37727752801024
 40
49.37727752801024
 40
49.37727752801024
 10
898.395076703579
 20
1452.0
 30
0.0
 10
898.4509726774468
 20
1450.40875368664
 30
0.0
 10
898.5635304770869
 20
1447.204459205569
 30
0.0
 10
899.7006089122551
 20
1442.47789556828
 30
0.0
 10
901.5119380453949
 20
1437.918266728282
 30
0.0
 10
904.0247137987973
 20
1433.636098494657
 30
0.0
 10
907.1569429435228
 20
1429.735400118092
 30
0.0
 10
910.8372729341194
 20
1426.312271539676
 30
0.0
 10
914.9738655564187
 20
1423.445017077385
 30
0.0
 10
919.4680479041156
 20
1421.22223589813
 30
0.0
 10
924.2037903630294
 20
1419.629480004836
 30
0.0
 10
927.4793809332149
 20
1419.18105537802
 30
0.0
 10
929.1092286156068
 20
1418.95793108973
 30
0.0
 11
898.395076703579
 21
1452.0
 31
0.0
 11
898.7207160270335
 21
1447.244521890869
 31
0.0
 11
899.8035907840326
 21
1442.535503303154
 31
0.0
 11
901.6170384879773
 21
1437.988896111124
 31
0.0
 11
904.1164046252625
 21
1433.716652437581
 31
0.0
 11
907.2401478134062
 21
1429.823969752682
 31
0.0
 11
910.9113499593478
 21
1426.40669797055
 31
0.0
 11
915.0396148840309
 21
1423.548982695899
 31
0.0
 11
919.5232901938128
 21
1421.321189176748
 31
0.0
 11
924.2519735208991
 21
1419.778174394297
 31
0.0
 11
929.1092286156068
 21
1418.95793108973
 31
0.0
  0
SPLINE
  5
24F
330
1F
100
AcDbEntity
  8
0
  6
Continuous
 62
     7
100
AcDbSpline
210
0.0
220
0.0
230
1.0
 70
     8
 71
     3
 72
    15
 73
    11
 74
     9
 42
0.000000001
 43
0.0000000001
 44
0.00000001
 40
0.0
 40
0.0
 40
0.0
 40
0.0
 40
3.355259019166704
 40
6.767766622806551
 40
10.23247050228505
 40
13.73675433916527
 40
17.26247616117391
 40
20.78857244340792
 40
24.29392907261107
 40
27.76025670792057
 40
27.76025670792057
 40
27.76025670792057
 40
27.76025670792057
 10
911.9918972840967
 20
1450.744958476673
 30
0.0
 10
912.0446976512528
 20
1449.62412039117
 30
0.0
 10
912.1511992980847
 20
1447.36332009618
 30
0.0
 10
913.1582076062223
 20
1444.0701846704
 30
0.0
 10
914.7385188673486
 20
1440.974545772587
 30
0.0
 10
916.8950313478529
 20
1438.193822806356
 30
0.0
 10
919.527203452795
 20
1435.828542319962
 30
0.0
 10
922.5415087850465
 20
1433.984299766832
 30
0.0
 10
925.8169770880287
 20
1432.670398163788
 30
0.0
 10
928.122366206887
 20
1432.328691543787
 30
0.0
 10
929.2686077346168
 20
1432.158794714645
 30
0.0
 11
911.9918972840967
 21
1450.744958476673
 31
0.0
 11
912.2878255193542
 21
1447.402775121822
 31
0.0
 11
913.2441889006329
 21
1444.127019141421
 31
0.0
 11
914.824238028408
 21
1441.043576627149
 31
0.0
 11
916.9672496279027
 21
1438.270941327547
 31
0.0
 11
919.590871491674
 21
1435.915665825176
 31
0.0
 11
922.5942772198073
 21
1434.068259796735
 31
0.0
 11
925.8620491740064
 21
1432.799720650874
 31
0.0
 11
929.2686077346168
 21
1432.158794714645
 31
0.0
  0
SPLINE
  5
250
330
1F
100
AcDbEntity
  8
0
  6
Continuous
 62
     7
100
AcDbSpline
210
0.0
220
0.0
230
1.0
 70
     8
 71
     3
 72
    15
 73
    11
 74
     9
 42
0.000000001
 43
0.0000000001
 44
0.00000001
 40
0.0
 40
0.0
 40
0.0
 40
0.0
 40
3.35525901916579
 40
6.767766622805455
 40
10.23247050228365
 40
13.73675433916398
 40
17.26247616117371
 40
20.78857244340836
 40
24.29392907261042
 40
27.76025670791186
 40
27.76025670791186
 40
27.76025670791186
 40
27.76025670791186
 10
915.323723869848
 20
1455.235177884575
 30
0.0
 10
915.3765242370076
 20
1454.114339799072
 30
0.0
 10
915.4830258838451
 20
1451.853539504083
 30
0.0
 10
916.4900341919817
 20
1448.560404078305
 30
0.0
 10
918.0703454531086
 20
1445.464765180491
 30
0.0
 10
920.2268579336126
 20
1442.68404221426
 30
0.0
 10
922.8590300385544
 20
1440.318761727864
 30
0.0
 10
925.8733353708066
 20
1438.474519174735
 30
0.0
 10
929.1488036737853
 20
1437.16061757169
 30
0.0
 10
931.4541927926406
 20
1436.81891095169
 30
0.0
 10
932.6004343203679
 20
1436.649014122548
 30
0.0
 11
915.323723869848
 21
1455.235177884575
 31
0.0
 11
915.6196521051131
 21
1451.892994529725
 31
0.0
 11
916.5760154863927
 21
1448.617238549326
 31
0.0
 11
918.1560646141676
 21
1445.533796035053
 31
0.0
 11
920.2990762136621
 21
1442.761160735452
 31
0.0
 11
922.9226980774339
 21
1440.405885233079
 31
0.0
 11
925.9261038055677
 21
1438.558479204637
 31
0.0
 11
929.1938757597655
 21
1437.289940058776
 31
0.0
 11
932.6004343203679
 21
1436.649014122548
 31
0.0
  0
SPLINE
  5
251
330
1F
100
AcDbEntity
  8
0
  6
Continuous
 62
     7
100
AcDbSpline
210
0.0
220
0.0
230
1.0
 70
     8
 71
     3
 72
    17
 73
    13
 74
    11
 42
0.000000001
 43
0.0000000001
 44
0.00000001
 40
0.0
 40
0.0
 40
0.0
 40
0.0
 40
3.792723578801426
 40
7.857974707743146
 40
12.19443171777278
 40
16.77673211319544
 40
21.56102922960704
 40
26.49009748814942
 40
31.49793905227244
 40
36.51402949372451
 40
41.46737976046752
 40
46.29057920799963
 40
46.29057920799963
 40
46.29057920799963
 40
46.29057920799963
 10
875.8962518497767
 20
1414.372601282144
 30
0.0
 10
877.0721964068176
 20
1414.845406835077
 30
0.0
 10
879.5085834442013
 20
1415.824991571777
 30
0.0
 10
882.884848252219
 20
1418.138746419409
 30
0.0
 10
886.1118420712369
 20
1421.034777675016
 30
0.0
 10
889.0891424275756
 20
1424.516266162536
 30
0.0
 10
891.7546886420755
 20
1428.477448206848
 30
0.0
 10
894.0418724624631
 20
1432.829066357833
 30
0.0
 10
895.9002514549824
 20
1437.464181314278
 30
0.0
 10
897.2704253536004
 20
1442.271454874985
 30
0.0
 10
898.1723799573574
 20
1447.133690221563
 30
0.0
 10
898.321506209898
 20
1450.392357130266
 30
0.0
 10
898.395076703579
 20
1452.0
 30
0.0
 11
875.8962518497767
 21
1414.372601282144
 31
0.0
 11
879.3633402051512
 21
1415.910148193278
 31
0.0
 11
882.7540275699075
 21
1418.152804204521
 31
0.0
 11
885.9848237324288
 21
1421.045349033253
 31
0.0
 11
888.9761761670522
 21
1424.516557400761
 31
0.0
 11
891.6544272980598
 21
1428.48095770571
 31
0.0
 11
893.953630384268
 21
1432.840932369144
 31
0.0
 11
895.817170602579
 21
1437.489125026861
 31
0.0
 11
897.1991623228078
 21
1442.311081288433
 31
0.0
 11
898.0655753278093
 21
1447.188068815718
 31
0.0
 11
898.395076703579
 21
1452.0
 31
0.0
  0
SPLINE
  5
252
330
1F
100
AcDbEntity
  8
0
  6
Continuous
 62
     7
100
AcDbSpline
210
0.0
220
0.0
230
1.0
 70
     8
 71
     3
 72
    15
 73
    11
 74
     9
 42
0.000000001
 43
0.0000000001
 44
0.00000001
 40
0.0
 40
0.0
 40
0.0
 40
0.0
 40
2.68853211115058
 40
5.61782945252817
 40
8.77610686069144
 40
12.12241505596805
 40
15.59571042746964
 40
19.12287275230304
 40
22.62596465183946
 40
26.02918092673097
 40
26.02918092673097
 40
26.02918092673097
 40
26.02918092673097
 10
876.0556309687868
 20
1427.57346490706
 30
0.0
 10
876.885104691166
 20
1427.921501538865
 30
0.0
 10
878.6183337164616
 20
1428.648742425753
 30
0.0
 10
880.9475547381007
 20
1430.466932853893
 30
0.0
 10
883.1107775244797
 20
1432.759194287944
 30
0.0
 10
885.0065663502521
 20
1435.507558691936
 30
0.0
 10
886.5765046733621
 20
1438.589638001042
 30
0.0
 10
887.7480028542695
 20
1441.896523201717
 30
0.0
 10
888.5246991857151
 20
1445.302224623716
 30
0.0
 10
888.6496486853995
 20
1447.604423754418
 30
0.0
 10
888.7112199490471
 20
1448.738876685853
 30
0.0
 11
876.0556309687868
 21
1427.57346490706
 31
0.0
 11
878.4885740658433
 21
1428.71757714557
 31
0.0
 11
880.8358955387328
 21
1430.469965473125
 31
0.0
 11
883.0073885066689
 21
1432.763289371314
 31
0.0
 11
884.9196047660821
 21
1435.509415282979
 31
0.0
 11
886.4990574851676
 21
1438.602813066378
 31
0.0
 11
887.6850509398976
 21
1441.924603785797
 31
0.0
 11
888.432006051424
 21
1445.347133683606
 31
0.0
 11
888.7112199490471
 21
1448.738876685853
 31
0.0
  0
SPLINE
  5
253
330
1F
100
AcDbEntity
  8
0
  6
Continuous
 62
     7
100
AcDbSpline
210
0.0
220
0.0
230
1.0
 70
     8
 71
     3
 72
    15
 73
    11
 74
     9
 42
0.000000001
 43
0.0000000001
 44
0.00000001
 40
0.0
 40
0.0
 40
0.0
 40
0.0
 40
2.68853211114621
 40
5.617829452527031
 40
8.776106860690701
 40
12.12241505596796
 40
15.59571042746935
 40
19.12287275230147
 40
22.62596465183619
 40
26.02918092672846
 40
26.02918092672846
 40
26.02918092672846
 40
26.02918092672846
 10
865.9463522282388
 20
1430.905472453016
 30
0.0
 10
866.7758259506157
 20
1431.253509084822
 30
0.0
 10
868.5090549759093
 20
1431.980749971713
 30
0.0
 10
870.8382759975503
 20
1433.79894039985
 30
0.0
 10
873.001498783929
 20
1436.091201833904
 30
0.0
 10
874.8972876097031
 20
1438.839566237894
 30
0.0
 10
876.4672259328133
 20
1441.921645547001
 30
0.0
 10
877.6387241137189
 20
1445.228530747675
 30
0.0
 10
878.4154204451646
 20
1448.634232169673
 30
0.0
 10
878.5403699448434
 20
1450.936431300376
 30
0.0
 10
878.6019412084877
 20
1452.070884231811
 30
0.0
 11
865.9463522282388
 21
1430.905472453016
 31
0.0
 11
868.3792953252896
 21
1432.049584691528
 31
0.0
 11
870.7266167981822
 21
1433.801973019084
 31
0.0
 11
872.8981097661188
 21
1436.095296917274
 31
0.0
 11
874.8103260255331
 21
1438.841422828938
 31
0.0
 11
876.3897787446185
 21
1441.934820612337
 31
0.0
 11
877.5757721993473
 21
1445.256611331755
 31
0.0
 11
878.322727310872
 21
1448.679141229563
 31
0.0
 11
878.6019412084877
 21
1452.070884231811
 31
0.0
  0
SPLINE
  5
254
330
1F
100
AcDbEntity
  8
0
  6
Continuous
 62
     7
100
AcDbSpline
210
0.0
220
0.0
230
1.0
 70
     8
 71
     3
 72
    11
 73
     7
 74
     5
 42
0.000000001
 43
0.0000000001
 44
0.00000001
 40
0.0
 40
0.0
 40
0.0
 40
0.0
 40
0.9420806378184599
 40
2.012258199686535
 40
3.296312622713201
 40
4.837279813700011
 40
4.837279813700011
 40
4.837279813700011
 40
4.837279813700011
 10
895.5301944972377
 20
1434.93102427343
 30
0.0
 10
895.8409292744001
 20
1434.998151590481
 30
0.0
 10
896.5046501641536
 20
1435.141533698249
 30
0.0
 10
897.3799674621786
 20
1435.856824534416
 30
0.0
 10
898.19028659399
 20
1436.87537099674
 30
0.0
 10
898.6169968125785
 20
1437.718218468651
 30
0.0
 10
898.8497548303578
 20
1438.177967273492
 30
0.0
 11
895.5301944972377
 21
1434.93102427343
 31
0.0
 11
896.4340414622053
 21
1435.196686837645
 31
0.0
 11
897.2951943469777
 21
1435.832057386599
 31
0.0
 11
898.103583127319
 21
1436.82970629771
 31
0.0
 11
898.8497548303578
 21
1438.177967273492
 31
0.0
  0
SPLINE
  5
255
330
1F
100
AcDbEntity
  8
0
  6
Continuous
 62
     7
100
AcDbSpline
210
0.0
220
0.0
230
1.0
 70
     8
 71
     3
 72
    11
 73
     7
 74
     5
 42
0.000000001
 43
0.0000000001
 44
0.00000001
 40
0.0
 40
0.0
 40
0.0
 40
0.0
 40
0.9420555008171054
 40
2.012199283096964
 40
3.296206001731036
 40
4.837110109804748
 40
4.837110109804748
 40
4.837110109804748
 40
4.837110109804748
 10
-104.4697979578291
 20
1434.931024923475
 30
0.0
 10
-104.159071613693
 20
1434.998150259898
 30
0.0
 10
-103.4953704599418
 20
1435.141527764822
 30
0.0
 10
-102.6200743787642
 20
1435.856784666677
 30
0.0
 10
-101.8097722506108
 20
1436.875283423739
 30
0.0
 10
-101.3830684774521
 20
1437.718092572438
 30
0.0
 10
-101.150314376001
 20
1438.177819681963
 30
0.0
 11
-104.4697979578291
 21
1434.931024923475
 31
0.0
 11
-103.5659745930688
 21
1435.196678641474
 31
0.0
 11
-102.7048428735906
 21
1435.832020980662
 31
0.0
 11
-101.8964720461047
 21
1436.829623039348
 31
0.0
 11
-101.150314376001
 21
1438.177819681963
 31
0.0
  0
SPLINE
  5
256
330
1F
100
AcDbEntity
  8
0
  6
Continuous
 62
     7
100
AcDbSpline
210
0.0
220
0.0
230
1.0
 70
     8
 71
     3
 72
    17
 73
    13
 74
    11
 42
0.000000001
 43
0.0000000001
 44
0.00000001
 40
0.0
 40
0.0
 40
0.0
 40
0.0
 40
3.792723578801065
 40
7.857974707741699
 40
12.1944317177725
 40
16.77673211319553
 40
21.56102922960605
 40
26.4900974881491
 40
31.4979390522722
 40
36.51402949372433
 40
41.46737976046722
 40
46.29057920799926
 40
46.29057920799926
 40
46.29057920799926
 40
46.29057920799926
 10
-124.1037481502201
 20
1414.372601282143
 30
0.0
 10
-122.9278035931798
 20
1414.845406835076
 30
0.0
 10
-120.4914165557964
 20
1415.824991571777
 30
0.0
 10
-117.1151517477778
 20
1418.138746419406
 30
0.0
 10
-113.8881579287601
 20
1421.034777675015
 30
0.0
 10
-110.9108575724228
 20
1424.516266162536
 30
0.0
 10
-108.2453113579226
 20
1428.477448206847
 30
0.0
 10
-105.9581275375357
 20
1432.829066357833
 30
0.0
 10
-104.0997485450163
 20
1437.464181314277
 30
0.0
 10
-102.7295746463974
 20
1442.271454874986
 30
0.0
 10
-101.8276200426415
 20
1447.133690221563
 30
0.0
 10
-101.6784937901017
 20
1450.392357130267
 30
0.0
 10
-101.604923296421
 20
1452.0
 30
0.0
 11
-124.1037481502201
 21
1414.372601282143
 31
0.0
 11
-120.6366597948463
 21
1415.910148193277
 31
0.0
 11
-117.2459724300899
 21
1418.152804204519
 31
0.0
 11
-114.0151762675682
 21
1421.045349033252
 31
0.0
 11
-111.0238238329455
 21
1424.516557400761
 31
0.0
 11
-108.3455727019386
 21
1428.480957705709
 31
0.0
 11
-106.0463696157306
 21
1432.840932369144
 31
0.0
 11
-104.1828293974193
 21
1437.489125026861
 31
0.0
 11
-102.8008376771905
 21
1442.311081288433
 31
0.0
 11
-101.9344246721896
 21
1447.188068815718
 31
0.0
 11
-101.604923296421
 21
1452.0
 31
0.0
  0
SPLINE
  5
257
330
1F
100
AcDbEntity
  8
0
  6
Continuous
 62
     7
100
AcDbSpline
210
0.0
220
0.0
230
1.0
 70
     8
 71
     3
 72
    15
 73
    11
 74
     9
 42
0.000000001
 43
0.0000000001
 44
0.00000001
 40
0.0
 40
0.0
 40
0.0
 40
0.0
 40
2.688532111150086
 40
5.617829452527697
 40
8.776106860690755
 40
12.12241505596848
 40
15.59571042747205
 40
19.12287275230522
 40
22.62596465184071
 40
26.02918092673207
 40
26.02918092673207
 40
26.02918092673207
 40
26.02918092673207
 10
-123.944369031211
 20
1427.573464907058
 30
0.0
 10
-123.1148953088321
 20
1427.921501538863
 30
0.0
 10
-121.381666283537
 20
1428.648742425751
 30
0.0
 10
-119.0524452618978
 20
1430.466932853892
 30
0.0
 10
-116.8892224755187
 20
1432.759194287943
 30
0.0
 10
-114.9934336497451
 20
1435.507558691935
 30
0.0
 10
-113.4234953266354
 20
1438.589638001042
 30
0.0
 10
-112.2519971457232
 20
1441.896523201716
 30
0.0
 10
-111.4753008142722
 20
1445.302224623712
 30
0.0
 10
-111.3503513145939
 20
1447.604423754416
 30
0.0
 10
-111.28878005095
 20
1448.738876685851
 30
0.0
 11
-123.944369031211
 21
1427.573464907058
 31
0.0
 11
-121.5114259341553
 21
1428.717577145569
 31
0.0
 11
-119.164104461266
 21
1430.469965473124
 31
0.0
 11
-116.9926114933297
 21
1432.763289371313
 31
0.0
 11
-115.0803952339155
 21
1435.509415282978
 31
0.0
 11
-113.5009425148288
 21
1438.602813066378
 31
0.0
 11
-112.314949060095
 21
1441.924603785796
 31
0.0
 11
-111.5679939485657
 21
1445.347133683603
 31
0.0
 11
-111.28878005095
 21
1448.738876685851
 31
0.0
  0
SPLINE
  5
258
330
1F
100
AcDbEntity
  8
0
  6
Continuous
 62
     7
100
AcDbSpline
210
0.0
220
0.0
230
1.0
 70
     8
 71
     3
 72
    15
 73
    11
 74
     9
 42
0.000000001
 43
0.0000000001
 44
0.00000001
 40
0.0
 40
0.0
 40
0.0
 40
0.0
 40
2.688532111150097
 40
5.617829452527257
 40
8.776106860689831
 40
12.1224150559671
 40
15.59571042746921
 40
19.12287275230249
 40
22.62596465183852
 40
26.02918092672965
 40
26.02918092672965
 40
26.02918092672965
 40
26.02918092672965
 10
-134.053647771761
 20
1430.905472453018
 30
0.0
 10
-133.2241740493819
 20
1431.253509084823
 30
0.0
 10
-131.4909450240867
 20
1431.98074997171
 30
0.0
 10
-129.1617240024475
 20
1433.79894039985
 30
0.0
 10
-126.998501216067
 20
1436.0912018339
 30
0.0
 10
-125.1027123902949
 20
1438.839566237892
 30
0.0
 10
-123.5327740671859
 20
1441.921645546999
 30
0.0
 10
-122.3612758862785
 20
1445.228530747674
 30
0.0
 10
-121.5845795548333
 20
1448.634232169672
 30
0.0
 10
-121.4596300551476
 20
1450.936431300375
 30
0.0
 10
-121.3980587915
 20
1452.070884231809
 30
0.0
 11
-134.053647771761
 21
1430.905472453018
 31
0.0
 11
-131.6207046747049
 21
1432.049584691528
 31
0.0
 11
-129.2733832018154
 21
1433.801973019082
 31
0.0
 11
-127.1018902338784
 21
1436.09529691727
 31
0.0
 11
-125.189673974465
 21
1438.841422828935
 31
0.0
 11
-123.6102212553802
 21
1441.934820612335
 31
0.0
 11
-122.4242278006506
 21
1445.256611331753
 31
0.0
 11
-121.6772726891239
 21
1448.679141229562
 31
0.0
 11
-121.3980587915
 21
1452.070884231809
 31
0.0
  0
SPLINE
  5
259
330
1F
100
AcDbEntity
  8
0
  6
Continuous
 62
     7
100
AcDbSpline
210
0.0
220
0.0
230
1.0
 70
     8
 71
     3
 72
    17
 73
    13
 74
    11
 42
0.000000001
 43
0.0000000001
 44
0.00000001
 40
0.0
 40
0.0
 40
0.0
 40
0.0
 40
4.766614416795887
 40
9.598536785714742
 40
14.49345553049461
 40
19.44309158595896
 40
24.43415860411574
 40
29.44968166947136
 40
34.47054891220333
 40
39.4771853316276
 40
44.45125213991466
 40
49.37727752801144
 40
49.37727752801144
 40
49.37727752801144
 40
49.37727752801144
 10
-101.604923296421
 20
1452.0
 30
0.0
 10
-101.5490273225526
 20
1450.40875368664
 30
0.0
 10
-101.4364695229117
 20
1447.204459205567
 30
0.0
 10
-100.299391087744
 20
1442.477895568277
 30
0.0
 10
-98.48806195460341
 20
1437.918266728279
 30
0.0
 10
-95.9752862012002
 20
1433.636098494656
 30
0.0
 10
-92.84305705647418
 20
1429.735400118092
 30
0.0
 10
-89.16272706587776
 20
1426.312271539675
 30
0.0
 10
-85.02613444357468
 20
1423.445017077384
 30
0.0
 10
-80.53195209587523
 20
1421.22223589813
 30
0.0
 10
-75.79620963696311
 20
1419.629480004836
 30
0.0
 10
-72.52061906678036
 20
1419.18105537802
 30
0.0
 10
-70.89077138439006
 20
1418.95793108973
 30
0.0
 11
-101.604923296421
 21
1452.0
 31
0.0
 11
-101.2792839729653
 21
1447.244521890867
 31
0.0
 11
-100.196409215966
 21
1442.535503303151
 31
0.0
 11
-98.38296151202047
 21
1437.98889611112
 31
0.0
 11
-95.88359537473457
 21
1433.716652437579
 31
0.0
 11
-92.7598521865915
 21
1429.823969752683
 31
0.0
 11
-89.08865004065046
 21
1426.406697970551
 31
0.0
 11
-84.96038511596228
 21
1423.548982695898
 31
0.0
 11
-80.476709806175
 21
1421.321189176746
 31
0.0
 11
-75.74802647909314
 21
1419.778174394296
 31
0.0
 11
-70.89077138439006
 21
1418.95793108973
 31
0.0
  0
SPLINE
  5
25A
330
1F
100
AcDbEntity
  8
0
  6
Continuous
 62
     7
100
AcDbSpline
210
0.0
220
0.0
230
1.0
 70
     8
 71
     3
 72
    15
 73
    11
 74
     9
 42
0.000000001
 43
0.0000000001
 44
0.00000001
 40
0.0
 40
0.0
 40
0.0
 40
0.0
 40
3.3552590191662
 40
6.767766622807646
 40
10.23247050228665
 40
13.73675433916441
 40
17.26247616117433
 40
20.78857244341225
 40
24.29392907261374
 40
27.76025670792004
 40
27.76025670792004
 40
27.76025670792004
 40
27.76025670792004
 10
-88.00810271589899
 20
1450.744958476673
 30
0.0
 10
-87.95530234874164
 20
1449.62412039117
 30
0.0
 10
-87.8488007019084
 20
1447.36332009618
 30
0.0
 10
-86.84179239377163
 20
1444.070184670399
 30
0.0
 10
-85.26148113264529
 20
1440.974545772586
 30
0.0
 10
-83.10496865214542
 20
1438.193822806353
 30
0.0
 10
-80.472796547201
 20
1435.828542319958
 30
0.0
 10
-77.45849121494723
 20
1433.984299766831
 30
0.0
 10
-74.18302291196603
 20
1432.670398163785
 30
0.0
 10
-71.87763379310917
 20
1432.328691543787
 30
0.0
 10
-70.73139226538001
 20
1432.158794714645
 30
0.0
 11
-88.00810271589899
 21
1450.744958476673
 31
0.0
 11
-87.71217448063945
 21
1447.402775121822
 31
0.0
 11
-86.75581109936047
 21
1444.127019141421
 31
0.0
 11
-85.1757619715861
 21
1441.043576627147
 31
0.0
 11
-83.0327503720955
 21
1438.270941327546
 31
0.0
 11
-80.4091285083226
 21
1435.915665825174
 31
0.0
 11
-77.40572278018499
 21
1434.068259796732
 31
0.0
 11
-74.13795082598762
 21
1432.799720650871
 31
0.0
 11
-70.73139226538001
 21
1432.158794714645
 31
0.0
  0
SPLINE
  5
25B
330
1F
100
AcDbEntity
  8
0
  6
Continuous
 62
     7
100
AcDbSpline
210
0.0
220
0.0
230
1.0
 70
     8
 71
     3
 72
    15
 73
    11
 74
     9
 42
0.000000001
 43
0.0000000001
 44
0.00000001
 40
0.0
 40
0.0
 40
0.0
 40
0.0
 40
3.355259019165098
 40
6.767766622804682
 40
10.23247050228299
 40
13.73675433916445
 40
17.26247616117345
 40
20.78857244340715
 40
24.2939290726089
 40
27.76025670791063
 40
27.76025670791063
 40
27.76025670791063
 40
27.76025670791063
 10
-84.6762761301411
 20
1455.235177884573
 30
0.0
 10
-84.62347576298458
 20
1454.11433979907
 30
0.0
 10
-84.51697411615302
 20
1451.853539504081
 30
0.0
 10
-83.5099658080172
 20
1448.560404078302
 30
0.0
 10
-81.9296545468899
 20
1445.464765180488
 30
0.0
 10
-79.77314206638552
 20
1442.684042214257
 30
0.0
 10
-77.14096996144289
 20
1440.318761727863
 30
0.0
 10
-74.12666462919165
 20
1438.474519174733
 30
0.0
 10
-70.85119632621274
 20
1437.160617571689
 30
0.0
 10
-68.54580720735758
 20
1436.81891095169
 30
0.0
 10
-67.39956567963009
 20
1436.649014122548
 30
0.0
 11
-84.6762761301411
 21
1455.235177884573
 31
0.0
 11
-84.38034789488378
 21
1451.892994529723
 31
0.0
 11
-83.423984513606
 21
1448.617238549323
 31
0.0
 11
-81.84393538583093
 21
1445.533796035051
 31
0.0
 11
-79.70092378633547
 21
1442.761160735448
 31
0.0
 11
-77.07730192256359
 21
1440.405885233077
 31
0.0
 11
-74.07389619443052
 21
1438.558479204636
 31
0.0
 11
-70.80612424023295
 21
1437.289940058775
 31
0.0
 11
-67.39956567963009
 21
1436.649014122548
 31
0.0
  0
SPLINE
  5
25C
330
1F
100
AcDbEntity
  8
0
  6
Continuous
 62
     7
100
AcDbSpline
210
0.0
220
0.0
230
1.0
 70
     8
 71
     3
 72
    11
 73
     7
 74
     5
 42
0.000000001
 43
0.0000000001
 44
0.00000001
 40
0.0
 40
0.0
 40
0.0
 40
0.0
 40
0.942126998890361
 40
2.01235104662306
 40
3.296473292438432
 40
4.837539453008148
 40
4.837539453008148
 40
4.837539453008148
 40
4.837539453008148
 10
1895.530008491499
 20
1434.931008255675
 30
0.0
 10
1895.840764251415
 20
1434.998116136646
 30
0.0
 10
1896.50452792163
 20
1435.141456289351
 30
0.0
 10
1897.379913205827
 20
1435.856760427353
 30
0.0
 10
1898.190284114815
 20
1436.875357135944
 30
0.0
 10
1898.617016030864
 20
1437.718256551977
 30
0.0
 10
1898.849787090709
 20
1438.178036074416
 30
0.0
 11
1895.530008491499
 21
1434.931008255675
 31
0.0
 11
1896.433917645798
 21
1435.19662363318
 31
0.0
 11
1897.295128897888
 21
1435.831993370518
 31
0.0
 11
1898.103570297894
 21
1436.829686937544
 31
0.0
 11
1898.849787090709
 21
1438.178036074416
 31
0.0
  0
SPLINE
  5
25D
330
1F
100
AcDbEntity
  8
0
  6
Continuous
 62
     7
100
AcDbSpline
210
0.0
220
0.0
230
1.0
 70
     8
 71
     3
 72
    17
 73
    13
 74
    11
 42
0.000000001
 43
0.0000000001
 44
0.00000001
 40
0.0
 40
0.0
 40
0.0
 40
0.0
 40
4.766614416795425
 40
9.598536785713412
 40
14.49345553049194
 40
19.44309158595715
 40
24.43415860411595
 40
29.44968166947148
 40
34.47054891219778
 40
39.47718533161685
 40
44.45125213991309
 40
49.37727752801089
 40
49.37727752801089
 40
49.37727752801089
 40
49.37727752801089
 10
1898.395076703579
 20
1452.0
 30
0.0
 10
1898.450972677448
 20
1450.408753686641
 30
0.0
 10
1898.563530477088
 20
1447.204459205567
 30
0.0
 10
1899.700608912256
 20
1442.477895568279
 30
0.0
 10
1901.511938045397
 20
1437.918266728281
 30
0.0
 10
1904.024713798799
 20
1433.636098494657
 30
0.0
 10
1907.156942943523
 20
1429.73540011809
 30
0.0
 10
1910.837272934121
 20
1426.312271539677
 30
0.0
 10
1914.97386555642
 20
1423.445017077386
 30
0.0
 10
1919.468047904118
 20
1421.222235898131
 30
0.0
 10
1924.203790363032
 20
1419.629480004838
 30
0.0
 10
1927.479380933218
 20
1419.181055378021
 30
0.0
 10
1929.109228615609
 20
1418.95793108973
 30
0.0
 11
1898.395076703579
 21
1452.0
 31
0.0
 11
1898.720716027035
 21
1447.244521890868
 31
0.0
 11
1899.803590784034
 21
1442.535503303152
 31
0.0
 11
1901.617038487979
 21
1437.988896111123
 31
0.0
 11
1904.116404625264
 21
1433.71665243758
 31
0.0
 11
1907.240147813407
 21
1429.823969752681
 31
0.0
 11
1910.911349959349
 21
1426.406697970551
 31
0.0
 11
1915.039614884032
 21
1423.5489826959
 31
0.0
 11
1919.523290193814
 21
1421.32118917675
 31
0.0
 11
1924.251973520905
 21
1419.778174394298
 31
0.0
 11
1929.109228615609
 21
1418.95793108973
 31
0.0
  0
SPLINE
  5
25E
330
1F
100
AcDbEntity
  8
0
  6
Continuous
 62
     7
100
AcDbSpline
210
0.0
220
0.0
230
1.0
 70
     8
 71
     3
 72
    15
 73
    11
 74
     9
 42
0.000000001
 43
0.0000000001
 44
0.00000001
 40
0.0
 40
0.0
 40
0.0
 40
0.0
 40
3.35525901916518
 40
6.767766622805596
 40
10.23247050228384
 40
13.73675433916496
 40
17.26247616117478
 40
20.78857244340923
 40
24.29392907261059
 40
27.76025670791184
 40
27.76025670791184
 40
27.76025670791184
 40
27.76025670791184
 10
1915.323723869848
 20
1455.235177884575
 30
0.0
 10
1915.376524237008
 20
1454.114339799073
 30
0.0
 10
1915.483025883846
 20
1451.853539504084
 30
0.0
 10
1916.490034191983
 20
1448.560404078305
 30
0.0
 10
1918.07034545311
 20
1445.464765180491
 30
0.0
 10
1920.226857933614
 20
1442.684042214259
 30
0.0
 10
1922.859030038555
 20
1440.318761727863
 30
0.0
 10
1925.873335370808
 20
1438.474519174734
 30
0.0
 10
1929.148803673786
 20
1437.160617571691
 30
0.0
 10
1931.454192792642
 20
1436.818910951692
 30
0.0
 10
1932.600434320369
 20
1436.64901412255
 30
0.0
 11
1915.323723869848
 21
1455.235177884575
 31
0.0
 11
1915.619652105114
 21
1451.892994529726
 31
0.0
 11
1916.576015486394
 21
1448.617238549326
 31
0.0
 11
1918.156064614169
 21
1445.533796035053
 31
0.0
 11
1920.299076213664
 21
1442.761160735451
 31
0.0
 11
1922.922698077435
 21
1440.405885233078
 31
0.0
 11
1925.926103805569
 21
1438.558479204637
 31
0.0
 11
1929.193875759767
 21
1437.289940058776
 31
0.0
 11
1932.600434320369
 21
1436.64901412255
 31
0.0
  0
SPLINE
  5
25F
330
1F
100
AcDbEntity
  8
0
  6
Continuous
 62
     7
100
AcDbSpline
210
0.0
220
0.0
230
1.0
 70
     8
 71
     3
 72
    15
 73
    11
 74
     9
 42
0.000000001
 43
0.0000000001
 44
0.00000001
 40
0.0
 40
0.0
 40
0.0
 40
0.0
 40
3.355259019165006
 40
6.767766622803365
 40
10.2324705022808
 40
13.73675433916038
 40
17.26247616117034
 40
20.78857244340464
 40
24.29392907260832
 40
27.76025670791728
 40
27.76025670791728
 40
27.76025670791728
 40
27.76025670791728
 10
1911.991897284098
 20
1450.744958476671
 30
0.0
 10
1912.044697651257
 20
1449.624120391169
 30
0.0
 10
1912.151199298092
 20
1447.36332009618
 30
0.0
 10
1913.158207606222
 20
1444.070184670401
 30
0.0
 10
1914.738518867351
 20
1440.974545772588
 30
0.0
 10
1916.895031347854
 20
1438.193822806358
 30
0.0
 10
1919.527203452796
 20
1435.828542319962
 30
0.0
 10
1922.541508785047
 20
1433.984299766831
 30
0.0
 10
1925.81697708803
 20
1432.670398163787
 30
0.0
 10
1928.122366206888
 20
1432.328691543787
 30
0.0
 10
1929.268607734618
 20
1432.158794714645
 30
0.0
 11
1911.991897284098
 21
1450.744958476671
 31
0.0
 11
1912.28782551936
 21
1447.402775121822
 31
0.0
 11
1913.244188900635
 21
1444.127019141422
 31
0.0
 11
1914.824238028409
 21
1441.043576627151
 31
0.0
 11
1916.967249627904
 21
1438.27094132755
 31
0.0
 11
1919.590871491675
 21
1435.915665825177
 31
0.0
 11
1922.594277219808
 21
1434.068259796735
 31
0.0
 11
1925.862049174008
 21
1432.799720650873
 31
0.0
 11
1929.268607734618
 21
1432.158794714645
 31
0.0
  0
SPLINE
  5
260
330
1F
100
AcDbEntity
  8
0
  6
Continuous
 62
     7
100
AcDbSpline
210
0.0
220
0.0
230
1.0
 70
     8
 71
     3
 72
    17
 73
    13
 74
    11
 42
0.000000001
 43
0.0000000001
 44
0.00000001
 40
0.0
 40
0.0
 40
0.0
 40
0.0
 40
3.792723578799903
 40
7.857974707742283
 40
12.19443171777217
 40
16.77673211319488
 40
21.56102922960673
 40
26.49009748815011
 40
31.49793905227292
 40
36.51402949372324
 40
41.46737976046626
 40
46.29057920799831
 40
46.29057920799831
 40
46.29057920799831
 40
46.29057920799831
 10
1875.896251849779
 20
1414.372601282144
 30
0.0
 10
1877.07219640682
 20
1414.845406835077
 30
0.0
 10
1879.508583444203
 20
1415.824991571777
 30
0.0
 10
1882.88484825222
 20
1418.138746419409
 30
0.0
 10
1886.111842071239
 20
1421.034777675016
 30
0.0
 10
1889.089142427577
 20
1424.516266162537
 30
0.0
 10
1891.754688642076
 20
1428.477448206848
 30
0.0
 10
1894.041872462464
 20
1432.829066357835
 30
0.0
 10
1895.900251454982
 20
1437.464181314279
 30
0.0
 10
1897.270425353602
 20
1442.271454874986
 30
0.0
 10
1898.172379957358
 20
1447.133690221563
 30
0.0
 10
1898.321506209898
 20
1450.392357130266
 30
0.0
 10
1898.395076703579
 20
1452.0
 30
0.0
 11
1875.896251849779
 21
1414.372601282144
 31
0.0
 11
1879.363340205152
 21
1415.910148193277
 31
0.0
 11
1882.754027569909
 21
1418.152804204521
 31
0.0
 11
1885.98482373243
 21
1421.045349033253
 31
0.0
 11
1888.976176167053
 21
1424.516557400761
 31
0.0
 11
1891.654427298061
 21
1428.480957705711
 31
0.0
 11
1893.953630384269
 21
1432.840932369146
 31
0.0
 11
1895.81717060258
 21
1437.489125026863
 31
0.0
 11
1897.199162322809
 21
1442.311081288433
 31
0.0
 11
1898.06557532781
 21
1447.188068815718
 31
0.0
 11
1898.395076703579
 21
1452.0
 31
0.0
  0
SPLINE
  5
261
330
1F
100
AcDbEntity
  8
0
  6
Continuous
 62
     7
100
AcDbSpline
210
0.0
220
0.0
230
1.0
 70
     8
 71
     3
 72
    15
 73
    11
 74
     9
 42
0.000000001
 43
0.0000000001
 44
0.00000001
 40
0.0
 40
0.0
 40
0.0
 40
0.0
 40
2.688532111152062
 40
5.61782945252879
 40
8.776106860690895
 40
12.12241505596813
 40
15.59571042747022
 40
19.12287275230272
 40
22.62596465183936
 40
26.02918092673268
 40
26.02918092673268
 40
26.02918092673268
 40
26.02918092673268
 10
1876.055630968788
 20
1427.57346490706
 30
0.0
 10
1876.885104691167
 20
1427.921501538866
 30
0.0
 10
1878.618333716462
 20
1428.648742425755
 30
0.0
 10
1880.947554738103
 20
1430.466932853894
 30
0.0
 10
1883.110777524481
 20
1432.759194287944
 30
0.0
 10
1885.006566350254
 20
1435.507558691936
 30
0.0
 10
1886.576504673363
 20
1438.589638001042
 30
0.0
 10
1887.748002854272
 20
1441.896523201718
 30
0.0
 10
1888.524699185716
 20
1445.302224623716
 30
0.0
 10
1888.649648685401
 20
1447.604423754419
 30
0.0
 10
1888.711219949048
 20
1448.738876685855
 30
0.0
 11
1876.055630968788
 21
1427.57346490706
 31
0.0
 11
1878.488574065845
 21
1428.717577145572
 31
0.0
 11
1880.835895538734
 21
1430.469965473126
 31
0.0
 11
1883.007388506671
 21
1432.763289371314
 31
0.0
 11
1884.919604766084
 21
1435.509415282979
 31
0.0
 11
1886.499057485169
 21
1438.602813066379
 31
0.0
 11
1887.685050939899
 21
1441.924603785797
 31
0.0
 11
1888.432006051425
 21
1445.347133683606
 31
0.0
 11
1888.711219949048
 21
1448.738876685855
 31
0.0
  0
SPLINE
  5
262
330
1F
100
AcDbEntity
  8
0
  6
Continuous
 62
     7
100
AcDbSpline
210
0.0
220
0.0
230
1.0
 70
     8
 71
     3
 72
    15
 73
    11
 74
     9
 42
0.000000001
 43
0.0000000001
 44
0.00000001
 40
0.0
 40
0.0
 40
0.0
 40
0.0
 40
2.688532111146362
 40
5.617829452522677
 40
8.776106860686728
 40
12.12241505596658
 40
15.59571042746818
 40
19.12287275230016
 40
22.62596465183527
 40
26.02918092672904
 40
26.02918092672904
 40
26.02918092672904
 40
26.02918092672904
 10
1865.946352228239
 20
1430.905472453018
 30
0.0
 10
1866.775825950616
 20
1431.253509084823
 30
0.0
 10
1868.50905497591
 20
1431.980749971711
 30
0.0
 10
1870.838275997547
 20
1433.798940399851
 30
0.0
 10
1873.001498783926
 20
1436.091201833903
 30
0.0
 10
1874.897287609705
 20
1438.839566237893
 30
0.0
 10
1876.467225932814
 20
1441.921645546999
 30
0.0
 10
1877.638724113722
 20
1445.228530747675
 30
0.0
 10
1878.415420445165
 20
1448.634232169672
 30
0.0
 10
1878.540369944851
 20
1450.936431300376
 30
0.0
 10
1878.601941208498
 20
1452.070884231811
 30
0.0
 11
1865.946352228239
 21
1430.905472453018
 31
0.0
 11
1868.379295325291
 21
1432.049584691528
 31
0.0
 11
1870.726616798179
 21
1433.801973019083
 31
0.0
 11
1872.898109766116
 21
1436.095296917272
 31
0.0
 11
1874.810326025535
 21
1438.841422828937
 31
0.0
 11
1876.389778744621
 21
1441.934820612336
 31
0.0
 11
1877.57577219935
 21
1445.256611331753
 31
0.0
 11
1878.322727310875
 21
1448.679141229562
 31
0.0
 11
1878.601941208498
 21
1452.070884231811
 31
0.0
  0
SPLINE
  5
263
330
1F
100
AcDbEntity
  8
0
  6
Continuous
 62
     7
100
AcDbSpline
210
0.0
220
0.0
230
1.0
 70
     8
 71
     3
 72
    15
 73
    11
 74
     9
 42
0.000000001
 43
0.0000000001
 44
0.00000001
 40
0.0
 40
0.0
 40
0.0
 40
0.0
 40
11.58708621283115
 40
22.25722996388405
 40
31.87219301307266
 40
40.33276255466413
 40
47.59557943201581
 40
53.70287410531245
 40
58.83512841099734
 40
63.38011309253468
 40
63.38011309253468
 40
63.38011309253468
 40
63.38011309253468
 10
635.5452001414667
 20
1925.409226841635
 30
0.0
 10
631.7452957312548
 20
1924.710694721961
 30
0.0
 10
624.4461918190214
 20
1923.368908729019
 30
0.0
 10
614.1685762248148
 20
1920.63502795455
 30
0.0
 10
605.1010804982627
 20
1917.501131701113
 30
0.0
 10
597.4128040486655
 20
1913.97544099092
 30
0.0
 10
591.1931328862438
 20
1910.122763999457
 30
0.0
 10
586.6142911579564
 20
1905.978026321518
 30
0.0
 10
583.5133153952149
 20
1901.535765078407
 30
0.0
 10
583.0637607683383
 20
1898.301920370611
 30
0.0
 10
582.8526242203968
 20
1896.783122013052
 30
0.0
 11
635.5452001414667
 21
1925.409226841635
 31
0.0
 11
624.1785414225814
 21
1923.159863320482
 31
0.0
 11
613.8677464087971
 21
1920.414053083749
 31
0.0
 11
604.7983863745189
 21
1917.221213751191
 31
0.0
 11
597.1336870476523
 21
1913.638809364336
 31
0.0
 11
591.0115965534688
 21
1909.731314391208
 31
0.0
 11
586.5422964100869
 21
1905.569054856237
 31
0.0
 11
583.8062253105497
 21
1901.226941405128
 31
0.0
 11
582.8526242203968
 21
1896.783122013052
 31
0.0
  0
SPLINE
  5
264
330
1F
100
AcDbEntity
  8
0
  6
Continuous
 62
     7
100
AcDbSpline
210
0.0
220
0.0
230
1.0
 70
     8
 71
     3
 72
    13
 73
     9
 74
     7
 42
0.000000001
 43
0.0000000001
 44
0.00000001
 40
0.0
 40
0.0
 40
0.0
 40
0.0
 40
7.585665834088816
 40
16.20924216748401
 40
25.7560682085397
 40
36.07517682704831
 40
46.98962369681915
 40
58.30426460593434
 40
58.30426460593434
 40
58.30426460593434
 40
58.30426460593434
 10
665.8765891966375
 20
1771.124530247702
 30
0.0
 10
668.1575946251377
 20
1770.028137431308
 30
0.0
 10
673.0317045889116
 20
1767.68533760921
 30
0.0
 10
681.2065550008406
 20
1764.997494882653
 30
0.0
 10
690.4049507218472
 20
1762.624257751949
 30
0.0
 10
700.4960361843965
 20
1760.731997291125
 30
0.0
 10
711.2550917396745
 20
1759.283676440848
 30
0.0
 10
718.6483488661206
 20
1758.766374786947
 30
0.0
 10
722.4115284612669
 20
1758.503067432595
 30
0.0
 11
665.8765891966375
 21
1771.124530247702
 31
0.0
 11
672.7788746754563
 21
1767.977979543472
 31
0.0
 11
680.9359252761571
 21
1765.18001701115
 31
0.0
 11
690.1784145778252
 21
1762.788724673362
 31
0.0
 11
700.3144810231222
 21
1760.853741544116
 31
0.0
 11
711.1337162620978
 21
1759.41523563392
 31
0.0
 11
722.4115284612669
 21
1758.503067432595
 31
0.0
  0
SPLINE
  5
265
330
1F
100
AcDbEntity
  8
0
  6
Continuous
 62
     7
100
AcDbSpline
210
0.0
220
0.0
230
1.0
 70
     8
 71
     3
 72
    11
 73
     7
 74
     5
 42
0.000000001
 43
0.0000000001
 44
0.00000001
 40
0.0
 40
0.0
 40
0.0
 40
0.0
 40
3.883062426177917
 40
8.298915244286514
 40
13.31944215736826
 40
18.97436216130558
 40
18.97436216130558
 40
18.97436216130558
 40
18.97436216130558
 10
634.9692815280575
 20
1792.172783487835
 30
0.0
 10
635.6655352144711
 20
1791.076595091544
 30
0.0
 10
637.1535747427388
 20
1788.733811597489
 30
0.0
 10
640.4012300175368
 20
1785.655351468566
 30
0.0
 10
644.4305918904295
 20
1782.631384344196
 30
0.0
 10
647.5402885704303
 20
1780.892225614325
 30
0.0
 10
649.1875344553971
 20
1779.970971122686
 30
0.0
 11
634.9692815280575
 21
1792.172783487835
 31
0.0
 11
637.1752732204899
 21
1788.97719677011
 31
0.0
 11
640.3016746487172
 21
1785.858644182089
 31
0.0
 11
644.318572932991
 21
1782.846963807919
 31
0.0
 11
649.1875344553971
 21
1779.970971122686
 31
0.0
  0
SPLINE
  5
266
330
1F
100
AcDbEntity
  8
0
  6
Continuous
 62
     7
100
AcDbSpline
210
0.0
220
0.0
230
1.0
 70
     8
 71
     3
 72
    13
 73
     9
 74
     7
 42
0.000000001
 43
0.0000000001
 44
0.00000001
 40
0.0
 40
0.0
 40
0.0
 40
0.0
 40
9.482082333206332
 40
20.26155285341213
 40
32.19508556708728
 40
45.09397155193201
 40
58.73703038849428
 40
72.88033179878951
 40
72.88033179878951
 40
72.88033179878951
 40
72.88033179878951
 10
649.1875344553971
 20
1779.970971122686
 30
0.0
 10
652.038791235762
 20
1778.60048005937
 30
0.0
 10
658.131428694894
 20
1775.671980178499
 30
0.0
 10
668.349991787253
 20
1772.31217667019
 30
0.0
 10
679.8479865785691
 20
1769.345630162629
 30
0.0
 10
692.461843605204
 20
1766.980304513706
 30
0.0
 10
705.9106632894759
 20
1765.169903394752
 30
0.0
 10
715.1522348717867
 20
1764.523276316372
 30
0.0
 10
719.8562094567767
 20
1764.194142115823
 30
0.0
 11
649.1875344553971
 21
1779.970971122686
 31
0.0
 11
657.815391293305
 21
1776.037782621998
 31
0.0
 11
668.0117046146577
 21
1772.540329345718
 31
0.0
 11
679.5648163835012
 21
1769.55121382729
 31
0.0
 11
692.234899640777
 21
1767.132484838663
 31
0.0
 11
705.7589439345394
 21
1765.334352396546
 31
0.0
 11
719.8562094567767
 21
1764.194142115823
 31
0.0
  0
SPLINE
  5
267
330
1F
100
AcDbEntity
  8
0
  6
Continuous
 62
     7
100
AcDbSpline
210
0.0
220
0.0
230
1.0
 70
     8
 71
     3
 72
    17
 73
    13
 74
    11
 42
0.000000001
 43
0.0000000001
 44
0.00000001
 40
0.0
 40
0.0
 40
0.0
 40
0.0
 40
5.074261529755155
 40
11.06679593098595
 40
18.08960865793318
 40
26.16016224309168
 40
35.23532921764478
 40
45.23092993755336
 40
56.03329329716432
 40
67.50680202842028
 40
79.49945467377401
 40
91.84743102661476
 40
91.84743102661476
 40
91.84743102661476
 40
91.84743102661476
 10
635.0262026419875
 20
1796.88737763959
 30
0.0
 10
635.9685861512669
 20
1795.473320624722
 30
0.0
 10
638.0238933096724
 20
1792.389309232042
 30
0.0
 10
642.7428884244695
 20
1788.523713940061
 30
0.0
 10
648.7066950837794
 20
1784.80213679685
 30
0.0
 10
656.0184784684255
 20
1781.37181291661
 30
0.0
 10
664.5152011321104
 20
1778.245184897485
 30
0.0
 10
674.090145675103
 20
1775.482669817039
 30
0.0
 10
684.5907759086423
 20
1773.121867369864
 30
0.0
 10
695.8569773796676
 20
1771.212671087188
 30
0.0
 10
707.7100753533407
 20
1769.741751550899
 30
0.0
 10
715.8060505711159
 20
1769.18909724085
 30
0.0
 10
719.9131305707067
 20
1768.908736267578
 30
0.0
 11
635.0262026419875
 21
1796.88737763959
 31
0.0
 11
638.0281965396745
 21
1792.796392087473
 31
0.0
 11
642.5347285213873
 21
1788.846501198006
 31
0.0
 11
648.4747290901809
 21
1785.099997251293
 31
0.0
 11
655.7545197517627
 21
1781.615964661642
 31
0.0
 11
664.2592949101422
 21
1778.449348941986
 31
0.0
 11
673.8549282311376
 21
1775.650089233135
 31
0.0
 11
684.3900916775204
 21
1773.2623318522
 31
0.0
 11
695.6986387261029
 21
1771.323732806612
 31
0.0
 11
707.6022273955346
 21
1769.864865342198
 31
0.0
 11
719.9131305707067
 21
1768.908736267578
 31
0.0
  0
SPLINE
  5
268
330
1F
100
AcDbEntity
  8
0
  6
Continuous
 62
     7
100
AcDbSpline
210
0.0
220
0.0
230
1.0
 70
     8
 71
     3
 72
    15
 73
    11
 74
     9
 42
0.000000001
 43
0.0000000001
 44
0.00000001
 40
0.0
 40
0.0
 40
0.0
 40
0.0
 40
11.25558755304246
 40
22.49779372270108
 40
33.52847015959293
 40
44.15516110400714
 40
54.19662555763102
 40
63.48884455109262
 40
71.89209235862243
 40
79.30034877944244
 40
79.30034877944244
 40
79.30034877944244
 40
79.30034877944244
 10
1004.583922530488
 20
1742.659576030577
 30
0.0
 10
1008.333113580499
 20
1742.500817486888
 30
0.0
 10
1015.827038395761
 20
1742.183489157423
 30
0.0
 10
1027.007752829364
 20
1742.374467566483
 30
0.0
 10
1037.957377180255
 20
1743.04477624324
 30
0.0
 10
1048.46143440706
 20
1744.231124894537
 30
0.0
 10
1058.317265470513
 20
1745.887557262267
 30
0.0
 10
1067.317774174808
 20
1748.014393979222
 30
0.0
 10
1075.338208538127
 20
1750.466403554092
 30
0.0
 10
1080.144433665303
 20
1752.640425063775
 30
0.0
 10
1082.396322391247
 20
1753.659032065607
 30
0.0
 11
1004.583922530488
 21
1742.659576030577
 31
0.0
 11
1015.833597675671
 21
1742.294801909258
 31
0.0
 11
1027.074605194922
 21
1742.458964734998
 31
0.0
 11
1038.083689779222
 21
1743.148804791425
 31
0.0
 11
1048.642202889017
 21
1744.350620644434
 31
0.0
 11
1058.540443519831
 21
1746.040543946006
 31
0.0
 11
1067.581825899213
 21
1748.185010892619
 31
0.0
 11
1075.58677991079
 21
1750.74143126556
 31
0.0
 11
1082.396322391247
 21
1753.659032065607
 31
0.0
  0
SPLINE
  5
269
330
1F
100
AcDbEntity
  8
0
  6
Continuous
 62
     7
100
AcDbSpline
210
0.0
220
0.0
230
1.0
 70
     8
 71
     3
 72
    15
 73
    11
 74
     9
 42
0.000000001
 43
0.0000000001
 44
0.00000001
 40
0.0
 40
0.0
 40
0.0
 40
0.0
 40
14.06947307224403
 40
28.12221964351052
 40
41.91055487102753
 40
55.19390961304592
 40
67.74573311850054
 40
79.36100207766158
 40
89.86505959822678
 40
99.12538048305822
 40
99.12538048305822
 40
99.12538048305822
 40
99.12538048305822
 10
1002.028603525998
 20
1748.350650713803
 30
0.0
 10
1006.715088547959
 20
1748.152202643013
 30
0.0
 10
1016.082487061878
 20
1747.755542441841
 30
0.0
 10
1030.058369158226
 20
1747.994264454983
 30
0.0
 10
1043.745389551196
 20
1748.832148365525
 30
0.0
 10
1056.875452570459
 20
1750.31508127613
 30
0.0
 10
1069.195234963181
 20
1752.3856180363
 30
0.0
 10
1080.445867078102
 20
1755.044159448824
 30
0.0
 10
1090.471409036009
 20
1758.109166701348
 30
0.0
 10
1096.479191753849
 20
1760.826689108869
 30
0.0
 10
1099.294053652087
 20
1762.099945931053
 30
0.0
 11
1002.028603525998
 21
1748.350650713803
 31
0.0
 11
1016.090686087203
 21
1747.894683163574
 31
0.0
 11
1030.141934359252
 21
1748.09988573084
 31
0.0
 11
1043.903279876092
 21
1748.962183795855
 31
0.0
 11
1057.101412606098
 21
1750.464450633393
 31
0.0
 11
1069.474206887559
 21
1752.576850915616
 31
0.0
 11
1080.775931029718
 21
1755.257430032018
 31
0.0
 11
1090.782122824553
 21
1758.452950385606
 31
0.0
 11
1099.294053652087
 21
1762.099945931053
 31
0.0
  0
SPLINE
  5
26A
330
1F
100
AcDbEntity
  8
0
  6
Continuous
 62
     7
100
AcDbSpline
210
0.0
220
0.0
230
1.0
 70
     8
 71
     3
 72
     9
 73
     5
 74
     3
 42
0.000000001
 43
0.0000000001
 44
0.00000001
 40
0.0
 40
0.0
 40
0.0
 40
0.0
 40
3.779437200503202
 40
7.28476238936855
 40
7.28476238936855
 40
7.28476238936855
 40
7.28476238936855
 10
1099.294053652087
 20
1762.099945931053
 30
0.0
 10
1100.414760964381
 20
1762.677369899626
 30
0.0
 10
1102.574893811683
 20
1763.790338908449
 30
0.0
 10
1104.613852745071
 20
1765.112000728195
 30
0.0
 10
1105.594971097318
 20
1765.747965812614
 30
0.0
 11
1099.294053652087
 21
1762.099945931053
 31
0.0
 11
1102.623559439436
 21
1763.888391280249
 31
0.0
 11
1105.594971097318
 21
1765.747965812614
 31
0.0
  0
SPLINE
  5
26B
330
1F
100
AcDbEntity
  8
0
  6
Continuous
 62
     7
100
AcDbSpline
210
0.0
220
0.0
230
1.0
 70
     8
 71
     3
 72
    17
 73
    13
 74
    11
 42
0.000000001
 43
0.0000000001
 44
0.00000001
 40
0.0
 40
0.0
 40
0.0
 40
0.0
 40
12.53173521339965
 40
25.07175296314861
 40
37.44440208236356
 40
49.47758903114557
 40
61.00659704885913
 40
71.87812936382414
 40
81.95481206670463
 40
91.12063085697355
 40
99.28822481120645
 40
106.4099395968917
 40
106.4099395968917
 40
106.4099395968917
 40
106.4099395968917
 10
1002.085524639928
 20
1753.065244865558
 30
0.0
 10
1006.259368275061
 20
1752.882271511674
 30
0.0
 10
1014.609814142666
 20
1752.516203874393
 30
0.0
 10
1027.096282539959
 20
1752.630693149929
 30
0.0
 10
1039.400217125451
 20
1753.224473413524
 30
0.0
 10
1051.331129558479
 20
1754.335996198691
 30
0.0
 10
1062.702131177045
 20
1755.933843713251
 30
0.0
 10
1073.333893923212
 20
1757.998556976914
 30
0.0
 10
1083.068574943428
 20
1760.485238598093
 30
0.0
 10
1091.734245663666
 20
1763.3897674563
 30
0.0
 10
1099.274742116098
 20
1766.554280889256
 30
0.0
 10
1103.625378607221
 20
1769.220597544822
 30
0.0
 10
1105.651892211248
 20
1770.46255996437
 30
0.0
 11
1002.085524639928
 21
1753.065244865558
 31
0.0
 11
1014.609592277969
 21
1752.626933325794
 31
0.0
 11
1027.149312256902
 21
1752.713351328292
 31
0.0
 11
1039.506925633555
 21
1753.32313643922
 31
0.0
 11
1051.487545692112
 21
1754.446671557921
 31
0.0
 11
1062.902230510807
 21
1756.066238278386
 31
0.0
 11
1073.570964229072
 21
1758.156294669709
 31
0.0
 11
1083.325493862366
 21
1760.683879666315
 31
0.0
 11
1092.011985463958
 21
1763.609131400501
 31
0.0
 11
1099.493446940344
 21
1766.885917212104
 31
0.0
 11
1105.651892211248
 21
1770.46255996437
 31
0.0
  0
SPLINE
  5
26C
330
1F
100
AcDbEntity
  8
0
  6
Continuous
 62
     7
100
AcDbSpline
210
0.0
220
0.0
230
1.0
 70
     8
 71
     3
 72
    11
 73
     7
 74
     5
 42
0.000000001
 43
0.0000000001
 44
0.00000001
 40
0.0
 40
0.0
 40
0.0
 40
0.0
 40
5.448453409672139
 40
10.14761784949702
 40
14.24567512556776
 40
17.99840737429411
 40
17.99840737429411
 40
17.99840737429411
 40
17.99840737429411
 10
1229.402737907698
 20
1849.788932401983
 30
0.0
 10
1230.874264993464
 20
1850.862829725628
 30
0.0
 10
1233.614949982491
 20
1852.862938543405
 30
0.0
 10
1236.785564820225
 20
1856.427736937963
 30
0.0
 10
1238.90129900752
 20
1860.141380732128
 30
0.0
 10
1239.201942828886
 20
1862.764755850123
 30
0.0
 10
1239.345652669237
 20
1864.018747488186
 30
0.0
 11
1229.402737907698
 21
1849.788932401983
 31
0.0
 11
1233.678320354278
 21
1853.166067175387
 31
0.0
 11
1236.783850105828
 21
1856.692798157373
 31
0.0
 11
1238.680804218565
 21
1860.32537830977
 31
0.0
 11
1239.345652669237
 21
1864.018747488186
 31
0.0
  0
SPLINE
  5
26D
330
1F
100
AcDbEntity
  8
0
  6
Continuous
 62
     7
100
AcDbSpline
210
0.0
220
0.0
230
1.0
 70
     8
 71
     3
 72
    11
 73
     7
 74
     5
 42
0.000000001
 43
0.0000000001
 44
0.00000001
 40
0.0
 40
0.0
 40
0.0
 40
0.0
 40
5.448449961248071
 40
10.14761190198405
 40
14.24566722107325
 40
17.99839734349968
 40
17.99839734349968
 40
17.99839734349968
 40
17.99839734349968
 10
1229.459659021628
 20
1854.503526553737
 30
0.0
 10
1230.931185191982
 20
1855.577423161768
 30
0.0
 10
1233.671868604388
 20
1857.577530740368
 30
0.0
 10
1236.842482330766
 20
1861.142326520766
 30
0.0
 10
1238.958216956871
 20
1864.855967270126
 30
0.0
 10
1239.258862841077
 20
1867.479340720189
 30
0.0
 10
1239.402573660798
 20
1868.73333150267
 30
0.0
 11
1229.459659021628
 21
1854.503526553737
 31
0.0
 11
1233.735238940944
 21
1857.880658963287
 31
0.0
 11
1236.840767794092
 21
1861.407387406487
 31
0.0
 11
1238.737722701038
 21
1865.039964936396
 31
0.0
 11
1239.402573660798
 21
1868.73333150267
 31
0.0
  0
SPLINE
  5
26E
330
1F
100
AcDbEntity
  8
0
  6
Continuous
 62
     7
100
AcDbSpline
210
0.0
220
0.0
230
1.0
 70
     8
 71
     3
 72
    13
 73
     9
 74
     7
 42
0.000000001
 43
0.0000000001
 44
0.00000001
 40
0.0
 40
0.0
 40
0.0
 40
0.0
 40
4.576299468430002
 40
9.750991675833884
 40
15.91731490614034
 40
23.25653256600244
 40
31.80924330761991
 40
41.52918623571131
 40
41.52918623571131
 40
41.52918623571131
 40
41.52918623571131
 10
1239.402573660798
 20
1868.73333150267
 30
0.0
 10
1239.225469965419
 20
1870.267329262855
 30
0.0
 10
1238.848104642198
 20
1873.535908925565
 30
0.0
 10
1235.813138475884
 20
1878.080033832479
 30
0.0
 10
1231.277682540833
 20
1882.359369189833
 30
0.0
 10
1225.072400241043
 20
1886.374264693323
 30
0.0
 10
1217.386844461721
 20
1890.128957024205
 30
0.0
 10
1211.638197621864
 20
1892.156023572726
 30
0.0
 10
1208.580266343348
 20
1893.234299969812
 30
0.0
 11
1239.402573660798
 21
1868.73333150267
 31
0.0
 11
1238.544870581501
 21
1873.228535869848
 31
0.0
 11
1235.879143543312
 21
1877.6637741813
 31
0.0
 11
1231.454008138454
 21
1881.958156421844
 31
0.0
 11
1225.350171899143
 21
1886.033361817561
 31
0.0
 11
1217.678954851637
 21
1889.815066465044
 31
0.0
 11
1208.580266343348
 21
1893.234299969812
 31
0.0
  0
SPLINE
  5
26F
330
1F
100
AcDbEntity
  8
0
  6
Continuous
 62
     7
100
AcDbSpline
210
0.0
220
0.0
230
1.0
 70
     8
 71
     3
 72
    17
 73
    13
 74
    11
 42
0.000000001
 43
0.0000000001
 44
0.00000001
 40
0.0
 40
0.0
 40
0.0
 40
0.0
 40
9.99560107672518
 40
20.79796412758864
 40
32.27147309897484
 40
44.26412556787643
 40
56.61210202410162
 40
69.14383718710116
 40
81.683854903305
 40
94.0565041319652
 40
106.0896909102104
 40
117.6186991693656
 40
117.6186991693656
 40
117.6186991693656
 40
117.6186991693656
 10
1002.925280234158
 20
1961.017965171453
 30
0.0
 10
999.7378896842094
 20
1961.992316219664
 30
0.0
 10
993.1058488644743
 20
1964.019659834068
 30
0.0
 10
982.5903543315785
 20
1966.333807489825
 30
0.0
 10
971.3288806342703
 20
1968.263255628213
 30
0.0
 10
959.4729893823205
 20
1969.702313609666
 30
0.0
 10
947.2151890456796
 20
1970.649805161025
 30
0.0
 10
934.7459117289482
 20
1971.083162250791
 30
0.0
 10
922.2606714842143
 20
1971.001647519423
 30
0.0
 10
909.958004234882
 20
1970.389682094114
 30
0.0
 10
898.0210828923318
 20
1969.31681322542
 30
0.0
 10
890.2547927389787
 20
1968.135568715044
 30
0.0
 10
886.4547383232068
 20
1967.557584454346
 30
0.0
 11
1002.925280234158
 21
1961.017965171453
 31
0.0
 11
993.3296464936586
 21
1963.817224719381
 31
0.0
 11
982.7944834011869
 21
1966.204982278141
 31
0.0
 11
971.4859360698755
 21
1968.143581131809
 31
0.0
 11
959.5823476075428
 21
1969.602448799214
 31
0.0
 11
947.2714443041705
 21
1970.558577662975
 31
0.0
 11
934.7473767134069
 21
1970.996889418144
 31
0.0
 11
922.2076567688621
 21
1970.910471199094
 31
0.0
 11
909.8500432766874
 21
1970.300686302448
 31
0.0
 11
897.8694234129501
 21
1969.177150975113
 31
0.0
 11
886.4547383232068
 21
1967.557584454346
 31
0.0
  0
SPLINE
  5
270
330
1F
100
AcDbEntity
  8
0
  6
Continuous
 62
     7
100
AcDbSpline
210
0.0
220
0.0
230
1.0
 70
     8
 71
     3
 72
    15
 73
    11
 74
     9
 42
0.000000001
 43
0.0000000001
 44
0.00000001
 40
0.0
 40
0.0
 40
0.0
 40
0.0
 40
11.587090247144
 40
22.25723731468448
 40
31.87220283112465
 40
40.33277392567984
 40
47.59559148222314
 40
53.70288618462081
 40
58.835140414823
 40
63.38012587971813
 40
63.38012587971813
 40
63.38012587971813
 40
63.38012587971813
 10
-434.578633074821
 20
1937.430398715756
 30
0.0
 10
-438.3785388053292
 20
1936.731866332888
 30
0.0
 10
-445.677645122965
 20
1935.390079858415
 30
0.0
 10
-455.9552637932292
 20
1932.656197867372
 30
0.0
 10
-465.0227616165899
 20
1929.522300145567
 30
0.0
 10
-472.7110390447378
 20
1925.996607761494
 30
0.0
 10
-478.9307100050174
 20
1922.143928896102
 30
0.0
 10
-483.5095502955667
 20
1917.999189237674
 30
0.0
 10
-486.6105232606106
 20
1913.556925374795
 30
0.0
 10
-487.0600742782408
 20
1910.323079847882
 30
0.0
 10
-487.27120915202
 20
1908.804280954942
 30
0.0
 11
-434.578633074821
 21
1937.430398715756
 31
0.0
 11
-445.9452957268994
 21
1935.181034288272
 31
0.0
 11
-456.256093840221
 21
1932.435222802834
 31
0.0
 11
-465.3254559505267
 21
1929.24238193738
 31
0.0
 11
-472.99015617462
 21
1925.659975802542
 31
0.0
 11
-479.1122462714074
 21
1921.752478944386
 31
0.0
 11
-483.5815446503155
 21
1917.59021747208
 31
0.0
 11
-486.3176125919473
 21
1913.248102120319
 31
0.0
 11
-487.27120915202
 21
1908.804280954942
 31
0.0
  0
SPLINE
  5
271
330
1F
100
AcDbEntity
  8
0
  6
Continuous
 62
     7
100
AcDbSpline
210
0.0
220
0.0
230
1.0
 70
     8
 71
     3
 72
     9
 73
     5
 74
     3
 42
0.000000001
 43
0.0000000001
 44
0.00000001
 40
0.0
 40
0.0
 40
0.0
 40
0.0
 40
3.062740557429281
 40
6.319483652690016
 40
6.319483652690016
 40
6.319483652690016
 40
6.319483652690016
 10
-487.27120915202
 20
1908.804280954942
 30
0.0
 10
-487.205811625765
 20
1907.775464314911
 30
0.0
 10
-487.0708740919515
 20
1905.652662920113
 30
0.0
 10
-486.154333026533
 20
1903.731435820064
 30
0.0
 10
-485.68199398564
 20
1902.741332289994
 30
0.0
 11
-487.27120915202
 21
1908.804280954942
 31
0.0
 11
-486.8914287957642
 21
1905.765178026289
 31
0.0
 11
-485.68199398564
 21
1902.741332289994
 31
0.0
  0
SPLINE
  5
272
330
1F
100
AcDbEntity
  8
0
  6
Continuous
 62
     7
100
AcDbSpline
210
0.0
220
0.0
230
1.0
 70
     8
 71
     3
 72
     9
 73
     5
 74
     3
 42
0.000000001
 43
0.0000000001
 44
0.00000001
 40
0.0
 40
0.0
 40
0.0
 40
0.0
 40
3.062745411484014
 40
6.31949370184125
 40
6.31949370184125
 40
6.31949370184125
 40
6.31949370184125
 10
-487.32813014357
 20
1904.089696940462
 30
0.0
 10
-487.2627333172653
 20
1903.060878582082
 30
0.0
 10
-487.1277972269719
 20
1900.938073630462
 30
0.0
 10
-486.2112548293653
 20
1899.016843325108
 30
0.0
 10
-485.73891509957
 20
1898.026738138238
 30
0.0
 11
-487.32813014357
 21
1904.089696940462
 31
0.0
 11
-486.9483512371401
 21
1901.050588938824
 31
0.0
 11
-485.73891509957
 21
1898.026738138238
 31
0.0
  0
SPLINE
  5
273
330
1F
100
AcDbEntity
  8
0
  6
Continuous
 62
     7
100
AcDbSpline
210
0.0
220
0.0
230
1.0
 70
     8
 71
     3
 72
    13
 73
     9
 74
     7
 42
0.000000001
 43
0.0000000001
 44
0.00000001
 40
0.0
 40
0.0
 40
0.0
 40
0.0
 40
7.585666445898487
 40
16.20924433773645
 40
25.75607282849475
 40
36.07518465918614
 40
46.98963532596013
 40
58.30428040659613
 40
58.30428040659613
 40
58.30428040659613
 40
58.30428040659613
 10
-387.98799833013
 20
1752.985172210469
 30
0.0
 10
-385.7069929828776
 20
1751.888778744534
 30
0.0
 10
-380.8328829332355
 20
1749.545977409755
 30
0.0
 10
-372.6580313672063
 20
1746.858133141273
 30
0.0
 10
-363.459633529061
 20
1744.484894579565
 30
0.0
 10
-353.3685450570523
 20
1742.592633002711
 30
0.0
 10
-342.6094858445606
 20
1741.144311332194
 30
0.0
 10
-335.216226069049
 20
1740.627009455973
 30
0.0
 10
-331.4530450871
 20
1740.363701985771
 30
0.0
 11
-387.98799833013
 21
1752.985172210469
 31
0.0
 11
-381.0857130123488
 21
1749.838619678044
 31
0.0
 11
-372.92866134156
 21
1747.040655462144
 31
0.0
 11
-363.6861698874271
 21
1744.649361663744
 31
0.0
 11
-353.5501003953391
 21
1742.714377364262
 31
0.0
 11
-342.7308614357099
 21
1741.275870628512
 31
0.0
 11
-331.4530450871
 21
1740.363701985771
 31
0.0
  0
SPLINE
  5
274
330
1F
100
AcDbEntity
  8
0
  6
Continuous
 62
     7
100
AcDbSpline
210
0.0
220
0.0
230
1.0
 70
     8
 71
     3
 72
    11
 73
     7
 74
     5
 42
0.000000001
 43
0.0000000001
 44
0.00000001
 40
0.0
 40
0.0
 40
0.0
 40
0.0
 40
3.883059699799492
 40
8.298909024782136
 40
13.31943158301118
 40
18.97434636799969
 40
18.97434636799969
 40
18.97434636799969
 40
18.97434636799969
 10
-418.8952920203001
 20
1774.03341804101
 30
0.0
 10
-418.1990388801445
 20
1772.937230383105
 30
0.0
 10
-416.7110005897514
 20
1770.594448577986
 30
0.0
 10
-413.4633484705282
 20
1767.515990335261
 30
0.0
 10
-409.433990711103
 20
1764.49202499075
 30
0.0
 10
-406.3242972227239
 20
1762.752867105595
 30
0.0
 10
-404.67705307139
 20
1761.831613085456
 30
0.0
 11
-418.8952920203001
 21
1774.03341804101
 31
0.0
 11
-416.6893020952875
 21
1770.837833416104
 31
0.0
 11
-413.56290363493
 21
1767.71928279899
 31
0.0
 11
-409.5460094510141
 21
1764.707604215493
 31
0.0
 11
-404.67705307139
 21
1761.831613085456
 31
0.0
  0
SPLINE
  5
275
330
1F
100
AcDbEntity
  8
0
  6
Continuous
 62
     7
100
AcDbSpline
210
0.0
220
0.0
230
1.0
 70
     8
 71
     3
 72
    13
 73
     9
 74
     7
 42
0.000000001
 43
0.0000000001
 44
0.00000001
 40
0.0
 40
0.0
 40
0.0
 40
0.0
 40
9.48208294503047
 40
20.26155502367732
 40
32.19509018705592
 40
45.09397938408808
 40
58.73704201764703
 40
72.88034759947091
 40
72.88034759947091
 40
72.88034759947091
 40
72.88034759947091
 10
-404.67705307139
 20
1761.831613085456
 30
0.0
 10
-401.825796372267
 20
1760.4611213726
 30
0.0
 10
-395.7331588272597
 20
1757.532619979052
 30
0.0
 10
-385.5145945807996
 20
1754.172814928812
 30
0.0
 10
-374.0165976723428
 20
1751.206266990244
 30
0.0
 10
-361.4027376362494
 20
1748.840940225293
 30
0.0
 10
-347.9539142947617
 20
1747.030538286097
 30
0.0
 10
-338.7123400633853
 20
1746.383910985394
 30
0.0
 10
-334.00836409159
 20
1746.054776668994
 30
0.0
 11
-404.67705307139
 21
1761.831613085456
 31
0.0
 11
-396.0491963945032
 21
1757.898422756574
 31
0.0
 11
-385.852882003065
 21
1754.400967796713
 31
0.0
 11
-374.2997680817563
 21
1751.411850817671
 31
0.0
 11
-361.6296817776851
 21
1748.993120658806
 31
0.0
 11
-348.1056337632756
 21
1747.194987391137
 31
0.0
 11
-334.00836409159
 21
1746.054776668994
 31
0.0
  0
SPLINE
  5
276
330
1F
100
AcDbEntity
  8
0
  6
Continuous
 62
     7
100
AcDbSpline
210
0.0
220
0.0
230
1.0
 70
     8
 71
     3
 72
    17
 73
    13
 74
    11
 42
0.000000001
 43
0.0000000001
 44
0.00000001
 40
0.0
 40
0.0
 40
0.0
 40
0.0
 40
5.074261529753463
 40
11.06679593098065
 40
18.08960865793135
 40
26.16016224309444
 40
35.23532921764735
 40
45.23092993755586
 40
56.03329329716688
 40
67.50680202841849
 40
79.49945467377151
 40
91.84743102660936
 40
91.84743102660936
 40
91.84743102660936
 40
91.84743102660936
 10
-418.8383709063701
 20
1778.748012192767
 30
0.0
 10
-417.8959873970921
 20
1777.333955177898
 30
0.0
 10
-415.8406802386908
 20
1774.249943785218
 30
0.0
 10
-411.1216851238973
 20
1770.384348493233
 30
0.0
 10
-405.1578784645831
 20
1766.662771350027
 30
0.0
 10
-397.8460950799333
 20
1763.232447469788
 30
0.0
 10
-389.3493724162477
 20
1760.10581945066
 30
0.0
 10
-379.7744278732554
 20
1757.343304370213
 30
0.0
 10
-369.2737976397176
 20
1754.982501923039
 30
0.0
 10
-358.0075961686941
 20
1753.073305640363
 30
0.0
 10
-346.1544981950237
 20
1751.602386104073
 30
0.0
 10
-338.0585229772499
 20
1751.049731794023
 30
0.0
 10
-333.95144297766
 20
1750.76937082075
 30
0.0
 11
-418.8383709063701
 21
1778.748012192767
 31
0.0
 11
-415.8363770086879
 21
1774.657026640648
 31
0.0
 11
-411.3298450269805
 21
1770.70713575118
 31
0.0
 11
-405.3898444581823
 21
1766.960631804468
 31
0.0
 11
-398.1100537965949
 21
1763.476599214818
 31
0.0
 11
-389.605278638216
 21
1760.309983495162
 31
0.0
 11
-380.0096453172209
 21
1757.51072378631
 31
0.0
 11
-369.474481870838
 21
1755.122966405375
 31
0.0
 11
-358.1659348222599
 21
1753.184367359786
 31
0.0
 11
-346.2623461528291
 21
1751.725499895372
 31
0.0
 11
-333.95144297766
 21
1750.76937082075
 31
0.0
  0
SPLINE
  5
277
330
1F
100
AcDbEntity
  8
0
  6
Continuous
 62
     7
100
AcDbSpline
210
0.0
220
0.0
230
1.0
 70
     8
 71
     3
 72
    15
 73
    11
 74
     9
 42
0.000000001
 43
0.0000000001
 44
0.00000001
 40
0.0
 40
0.0
 40
0.0
 40
0.0
 40
11.25557607318964
 40
22.49777099291396
 40
33.52843700893406
 40
44.15511892649764
 40
54.19657624909475
 40
63.48879041275505
 40
71.89203595728256
 40
79.30029274003107
 40
79.30029274003107
 40
79.30029274003107
 40
79.30029274003107
 10
41.41761850437888
 20
1719.42765977596
 30
0.0
 10
45.16680572689754
 20
1719.268901342148
 30
0.0
 10
52.66072296376291
 20
1718.951573229252
 30
0.0
 10
63.84142634428308
 20
1719.142550625149
 30
0.0
 10
74.79104055055676
 20
1719.812857347422
 30
0.0
 10
85.29508917894685
 20
1720.999203066502
 30
0.0
 10
95.15091374244653
 20
1722.655631697799
 30
0.0
 10
104.1514186428926
 20
1724.782463890114
 30
0.0
 10
112.1718519982422
 20
1727.234468704838
 30
0.0
 10
116.9780784480405
 20
1729.408485686669
 30
0.0
 10
119.2299681744489
 20
1730.427090739275
 30
0.0
 11
41.41761850437888
 21
1719.42765977596
 31
0.0
 11
52.66728216699676
 21
1719.062885757063
 31
0.0
 11
63.90827844934483
 21
1719.227047608364
 31
0.0
 11
74.91735271924301
 21
1719.916885639467
 31
0.0
 11
85.47585708629958
 21
1721.118698484336
 31
0.0
 11
95.37409114579646
 21
1722.808617903196
 31
0.0
 11
104.4154696552651
 21
1724.953080237845
 31
0.0
 11
112.4204229400956
 21
1727.509495447705
 31
0.0
 11
119.2299681744489
 21
1730.427090739275
 31
0.0
  0
SPLINE
  5
278
330
1F
100
AcDbEntity
  8
0
  6
Continuous
 62
     7
100
AcDbSpline
210
0.0
220
0.0
230
1.0
 70
     8
 71
     3
 72
    15
 73
    11
 74
     9
 42
0.000000001
 43
0.0000000001
 44
0.00000001
 40
0.0
 40
0.0
 40
0.0
 40
0.0
 40
14.06948256123447
 40
28.12223843145436
 40
41.9105822726342
 40
55.19394447604525
 40
67.74577387585099
 40
79.36104682721768
 40
89.86510621833315
 40
99.12542680400277
 40
99.12542680400277
 40
99.12542680400277
 40
99.12542680400277
 10
38.86229949989138
 20
1725.118734459185
 30
0.0
 10
43.54878768557305
 20
1724.920286297575
 30
0.0
 10
52.91619246362752
 20
1724.523625917391
 30
0.0
 10
66.8920836962123
 20
1724.762348767988
 30
0.0
 10
80.57911247449836
 20
1725.600234294068
 30
0.0
 10
93.70918260102087
 20
1727.083169628377
 30
0.0
 10
106.0289703664611
 20
1729.153709477
 30
0.0
 10
117.2796056255589
 20
1731.812254629496
 30
0.0
 10
127.3051484166323
 20
1734.87726581665
 30
0.0
 10
133.3129300412225
 20
1737.594791966795
 30
0.0
 10
136.1277911124989
 20
1738.868050400166
 30
0.0
 11
38.86229949989138
 21
1725.118734459185
 31
0.0
 11
52.92439155232881
 21
1724.662766824296
 31
0.0
 11
66.9756491125604
 21
1724.867970197011
 31
0.0
 11
80.7370031550567
 21
1725.730269936116
 31
0.0
 11
93.93514311161469
 21
1727.232539260116
 31
0.0
 11
106.3079428247825
 21
1729.344942751703
 31
0.0
 11
117.6096701657245
 21
1732.025525680256
 31
0.0
 11
127.6158625612752
 21
1735.221050301533
 31
0.0
 11
136.1277911124989
 21
1738.868050400166
 31
0.0
  0
SPLINE
  5
279
330
1F
100
AcDbEntity
  8
0
  6
Continuous
 62
     7
100
AcDbSpline
210
0.0
220
0.0
230
1.0
 70
     8
 71
     3
 72
    17
 73
    13
 74
    11
 42
0.000000001
 43
0.0000000001
 44
0.00000001
 40
0.0
 40
0.0
 40
0.0
 40
0.0
 40
12.53173521339839
 40
25.07175296314739
 40
37.44440208236139
 40
49.47758903114423
 40
61.00659704885867
 40
71.87812936382346
 40
81.95481206670259
 40
91.1206308569663
 40
99.28822481120072
 40
106.4099395968895
 40
106.4099395968895
 40
106.4099395968895
 40
106.4099395968895
 10
38.91922061382138
 20
1729.833328610941
 30
0.0
 10
43.09306424895351
 20
1729.650355257057
 30
0.0
 10
51.44351011655861
 20
1729.284287619774
 30
0.0
 10
63.92997851385144
 20
1729.398776895314
 30
0.0
 10
76.23391309934328
 20
1729.992557158906
 30
0.0
 10
88.16482553237134
 20
1731.104079944073
 30
0.0
 10
99.53582715093722
 20
1732.701927458633
 30
0.0
 10
110.1675898971048
 20
1734.766640722295
 30
0.0
 10
119.9022709173184
 20
1737.253322343474
 30
0.0
 10
128.5679416375542
 20
1740.157851201681
 30
0.0
 10
136.1084380899857
 20
1743.322364634637
 30
0.0
 10
140.4590745811111
 20
1745.988681290204
 30
0.0
 10
142.485588185139
 20
1747.230643709752
 30
0.0
 11
38.91922061382138
 21
1729.833328610941
 31
0.0
 11
51.44328825186154
 21
1729.395017071176
 31
0.0
 11
63.98300823079444
 21
1729.481435073676
 31
0.0
 11
76.34062160744656
 21
1730.091220184602
 31
0.0
 11
88.32124166600443
 21
1731.214755303303
 31
0.0
 11
99.7359264847
 21
1732.834322023768
 31
0.0
 11
110.404660202965
 21
1734.924378415089
 31
0.0
 11
120.159189836257
 21
1737.451963411696
 31
0.0
 11
128.8456814378441
 21
1740.377215145882
 31
0.0
 11
136.3271429142315
 21
1743.654000957485
 31
0.0
 11
142.485588185139
 21
1747.230643709752
 31
0.0
  0
SPLINE
  5
27A
330
1F
100
AcDbEntity
  8
0
  6
Continuous
 62
     7
100
AcDbSpline
210
0.0
220
0.0
230
1.0
 70
     8
 71
     3
 72
    11
 73
     7
 74
     5
 42
0.000000001
 43
0.0000000001
 44
0.00000001
 40
0.0
 40
0.0
 40
0.0
 40
0.0
 40
5.448437526494027
 40
10.14759045571737
 40
14.24563871808125
 40
17.99836117324743
 40
17.99836117324743
 40
17.99836117324743
 40
17.99836117324743
 10
306.0317874991988
 20
1853.57018397966
 30
0.0
 10
307.5033103686458
 20
1854.644078007233
 30
0.0
 10
310.243988095889
 20
1856.644181117459
 30
0.0
 10
313.4145978147967
 20
1860.208967471403
 30
0.0
 10
315.5303340231895
 20
1863.922597241449
 30
0.0
 10
315.8309873458137
 20
1866.545964677066
 30
0.0
 10
315.9747016970591
 20
1867.799952374386
 30
0.0
 11
306.0317874991988
 21
1853.57018397966
 31
0.0
 11
310.3073583053996
 21
1856.947307865327
 31
0.0
 11
313.4128839189746
 21
1860.474027153873
 31
0.0
 11
315.3098416897506
 21
1864.106595227292
 31
0.0
 11
315.9747016970591
 21
1867.799952374386
 31
0.0
  0
SPLINE
  5
27B
330
1F
100
AcDbEntity
  8
0
  6
Continuous
 62
     7
100
AcDbSpline
210
0.0
220
0.0
230
1.0
 70
     8
 71
     3
 72
    11
 73
     7
 74
     5
 42
0.000000001
 43
0.0000000001
 44
0.00000001
 40
0.0
 40
0.0
 40
0.0
 40
0.0
 40
5.448447111790044
 40
10.14760698751111
 40
14.24566068953066
 40
17.99838905498192
 40
17.99838905498192
 40
17.99838905498192
 40
17.99838905498192
 10
306.0887086131293
 20
1858.284778131416
 30
0.0
 10
307.5602340270723
 20
1859.358674148126
 30
0.0
 10
310.3009161367115
 20
1861.358780702782
 30
0.0
 10
313.4715289447639
 20
1864.923574323082
 30
0.0
 10
315.5872639334615
 20
1868.637212556497
 30
0.0
 10
315.8879115222067
 20
1871.260584628332
 30
0.0
 10
316.0316231511893
 20
1872.514574703841
 30
0.0
 11
306.0887086131293
 21
1858.284778131416
 31
0.0
 11
310.3642864441541
 21
1861.66190858769
 31
0.0
 11
313.4698145549446
 21
1865.188634933073
 31
0.0
 11
315.3667701181504
 21
1868.821210295998
 31
0.0
 11
316.0316231511893
 21
1872.514574703841
 31
0.0
  0
SPLINE
  5
27C
330
1F
100
AcDbEntity
  8
0
  6
Continuous
 62
     7
100
AcDbSpline
210
0.0
220
0.0
230
1.0
 70
     8
 71
     3
 72
    13
 73
     9
 74
     7
 42
0.000000001
 43
0.0000000001
 44
0.00000001
 40
0.0
 40
0.0
 40
0.0
 40
0.0
 40
4.576300335844566
 40
9.750992980185629
 40
15.91731691387219
 40
23.25653590842199
 40
31.80924874115359
 40
41.52919450723887
 40
41.52919450723887
 40
41.52919450723887
 40
41.52919450723887
 10
316.0316231511893
 20
1872.514574703841
 30
0.0
 10
315.8545205240854
 20
1874.048572907996
 30
0.0
 10
315.4771574981498
 20
1877.317153334381
 30
0.0
 10
312.4421926972695
 20
1881.861280236018
 30
0.0
 10
307.9067370413563
 20
1886.140617134002
 30
0.0
 10
301.7014539797657
 20
1890.155514075613
 30
0.0
 10
294.0158964832334
 20
1893.910207687366
 30
0.0
 10
288.267248101511
 20
1895.937274817212
 30
0.0
 10
285.2093159348601
 20
1897.015551547489
 30
0.0
 11
316.0316231511893
 21
1872.514574703841
 31
0.0
 11
315.173922915424
 21
1877.009780496638
 31
0.0
 11
312.5081975500846
 21
1881.445020323313
 31
0.0
 11
308.0830626470125
 21
1885.739404090908
 31
0.0
 11
301.9792257793051
 21
1889.814610949111
 31
0.0
 11
294.3080070536743
 21
1893.596316921772
 31
0.0
 11
285.2093159348601
 21
1897.015551547489
 31
0.0
  0
SPLINE
  5
27D
330
1F
100
AcDbEntity
  8
0
  6
Continuous
 62
     7
100
AcDbSpline
210
0.0
220
0.0
230
1.0
 70
     8
 71
     3
 72
    17
 73
    13
 74
    11
 42
0.000000001
 43
0.0000000001
 44
0.00000001
 40
0.0
 40
0.0
 40
0.0
 40
0.0
 40
9.995601076724926
 40
20.79796412759194
 40
32.27147309898233
 40
44.26412556788078
 40
56.61210202410098
 40
69.14383718709882
 40
81.68385490330294
 40
94.05650413196373
 40
106.0896909102095
 40
117.6186991693634
 40
117.6186991693634
 40
117.6186991693634
 40
117.6186991693634
 10
13.45094143342885
 20
1986.586823421088
 30
0.0
 10
10.26355088348058
 20
1987.561174469299
 30
0.0
 10
3.631510063744734
 20
1989.588518083704
 30
0.0
 10
-6.883984469154059
 20
1991.902665739461
 30
0.0
 10
-18.14545816646434
 20
1993.832113877847
 30
0.0
 10
-30.00134941841199
 20
1995.271171859302
 30
0.0
 10
-42.25914975505032
 20
1996.218663410659
 30
0.0
 10
-54.72842707177915
 20
1996.652020500423
 30
0.0
 10
-67.21366731651304
 20
1996.570505769056
 30
0.0
 10
-79.51633456584585
 20
1995.958540343749
 30
0.0
 10
-91.45325590839603
 20
1994.885671475056
 30
0.0
 10
-99.21954606174864
 20
1993.704426964677
 30
0.0
 10
-103.01960047752
 20
1993.126442703979
 30
0.0
 11
13.45094143342885
 21
1986.586823421088
 31
0.0
 11
3.855307692930118
 21
1989.386082969017
 31
0.0
 11
-6.679855399545488
 21
1991.773840527776
 31
0.0
 11
-17.9884027308611
 21
1993.712439381444
 31
0.0
 11
-29.89199119319051
 21
1995.17130704885
 31
0.0
 11
-42.20289449655796
 21
1996.12743591261
 31
0.0
 11
-54.72696208731998
 21
1996.565747667776
 31
0.0
 11
-67.26668203186502
 21
1996.479329448727
 31
0.0
 11
-79.62429552404046
 21
1995.869544552083
 31
0.0
 11
-91.6049153877783
 21
1994.746009224748
 31
0.0
 11
-103.01960047752
 21
1993.126442703979
 31
0.0
  0
SPLINE
  5
27E
330
1F
100
AcDbEntity
  8
0
  6
Continuous
 62
     7
100
AcDbSpline
210
0.0
220
0.0
230
1.0
 70
     8
 71
     3
 72
    15
 73
    11
 74
     9
 42
0.000000001
 43
0.0000000001
 44
0.00000001
 40
0.0
 40
0.0
 40
0.0
 40
0.0
 40
11.5870917815359
 40
22.25724011045521
 40
31.87220656527817
 40
40.33277825047759
 40
47.59559606534301
 40
53.70289077881247
 40
58.83514498030615
 40
63.38013074314176
 40
63.38013074314176
 40
63.38013074314176
 40
63.38013074314176
 10
1731.06745897047
 20
1984.623691852257
 30
0.0
 10
1727.267552737806
 20
1983.925159369287
 30
0.0
 10
1719.968445505311
 20
1982.58337271167
 30
0.0
 10
1709.690825665113
 20
1979.849490257919
 30
0.0
 10
1700.623327044263
 20
1976.715591977641
 30
0.0
 10
1692.935049243939
 20
1973.189898956931
 30
0.0
 10
1686.715378360541
 20
1969.337219378816
 30
0.0
 10
1682.136538616808
 20
1965.192478967143
 30
0.0
 10
1679.035566715833
 20
1960.750214107868
 30
0.0
 10
1678.586017070926
 20
1957.516368269417
 30
0.0
 10
1678.37488283389
 20
1955.997569172852
 30
0.0
 11
1731.06745897047
 21
1984.623691852257
 31
0.0
 11
1719.70079482246
 21
1982.374327080061
 31
0.0
 11
1709.389995530273
 21
1979.628515119696
 31
0.0
 11
1700.320632630381
 21
1976.435673671226
 31
0.0
 11
1692.655932065044
 21
1972.853266871568
 31
0.0
 11
1686.533842119399
 21
1968.945769296469
 31
0.0
 11
1682.064544411578
 21
1964.783507087327
 31
0.0
 11
1679.328477671013
 21
1960.441391012678
 31
0.0
 11
1678.37488283389
 21
1955.997569172852
 31
0.0
  0
SPLINE
  5
27F
330
1F
100
AcDbEntity
  8
0
  6
Continuous
 62
     7
100
AcDbSpline
210
0.0
220
0.0
230
1.0
 70
     8
 71
     3
 72
     9
 73
     5
 74
     3
 42
0.000000001
 43
0.0000000001
 44
0.00000001
 40
0.0
 40
0.0
 40
0.0
 40
0.0
 40
3.062738202252755
 40
6.319478776859948
 40
6.319478776859948
 40
6.319478776859948
 40
6.319478776859948
 10
1678.37488283389
 20
1955.997569172852
 30
0.0
 10
1678.440280699762
 20
1954.968753366561
 30
0.0
 10
1678.575218933975
 20
1952.845953697526
 30
0.0
 10
1679.49175935302
 20
1950.924728152688
 30
0.0
 10
1679.964098059659
 20
1949.934625426495
 30
0.0
 11
1678.37488283389
 21
1955.997569172852
 31
0.0
 11
1678.754663893607
 21
1952.958468705601
 31
0.0
 11
1679.964098059659
 21
1949.934625426495
 31
0.0
  0
SPLINE
  5
280
330
1F
100
AcDbEntity
  8
0
  6
Continuous
 62
     7
100
AcDbSpline
210
0.0
220
0.0
230
1.0
 70
     8
 71
     3
 72
     9
 73
     5
 74
     3
 42
0.000000001
 43
0.0000000001
 44
0.00000001
 40
0.0
 40
0.0
 40
0.0
 40
0.0
 40
3.062728678180778
 40
6.319459059549901
 40
6.319459059549901
 40
6.319459059549901
 40
6.319459059549901
 10
1678.317961479869
 20
1951.282955130877
 30
0.0
 10
1678.383360719096
 20
1950.254142696136
 30
0.0
 10
1678.518301785605
 20
1948.131350005897
 30
0.0
 10
1679.434839590778
 20
1946.210130750146
 30
0.0
 10
1679.907176945729
 20
1945.220031274739
 30
0.0
 11
1678.317961479869
 21
1951.282955130877
 31
0.0
 11
1678.69774538425
 21
1948.243864617262
 31
0.0
 11
1679.907176945729
 21
1945.220031274739
 31
0.0
  0
SPLINE
  5
281
330
1F
100
AcDbEntity
  8
0
  6
Continuous
 62
     7
100
AcDbSpline
210
0.0
220
0.0
230
1.0
 70
     8
 71
     3
 72
    13
 73
     9
 74
     7
 42
0.000000001
 43
0.0000000001
 44
0.00000001
 40
0.0
 40
0.0
 40
0.0
 40
0.0
 40
7.585661831120541
 40
16.20922796807418
 40
25.7560379814355
 40
36.07512558356135
 40
46.98954761067623
 40
58.30416122668943
 40
58.30416122668943
 40
58.30416122668943
 40
58.30416122668943
 10
1739.461843105039
 20
1871.0317352285
 30
0.0
 10
1741.742849065081
 20
1869.935346661859
 30
0.0
 10
1746.616958466989
 20
1867.592556736749
 30
0.0
 10
1754.791801327955
 20
1864.904724098565
 30
0.0
 10
1763.990183197125
 20
1862.5314963305
 30
0.0
 10
1774.081248969665
 20
1860.639243171514
 30
0.0
 10
1784.840280596843
 20
1859.190927687815
 30
0.0
 10
1792.233520391218
 20
1858.673627488492
 30
0.0
 10
1795.996690912899
 20
1858.410320892112
 30
0.0
 11
1739.461843105039
 21
1871.0317352285
 31
0.0
 11
1746.364129637375
 21
1867.885196485597
 31
0.0
 11
1754.521173236788
 21
1865.087244968422
 31
0.0
 11
1763.763648455497
 21
1862.695962186985
 31
0.0
 11
1773.899694966519
 21
1860.760986714242
 31
0.0
 11
1784.718905862369
 21
1859.322486205377
 31
0.0
 11
1795.996690912899
 21
1858.410320892112
 31
0.0
  0
SPLINE
  5
282
330
1F
100
AcDbEntity
  8
0
  6
Continuous
 62
     7
100
AcDbSpline
210
0.0
220
0.0
230
1.0
 70
     8
 71
     3
 72
    11
 73
     7
 74
     5
 42
0.000000001
 43
0.0000000001
 44
0.00000001
 40
0.0
 40
0.0
 40
0.0
 40
0.0
 40
3.883062652404173
 40
8.298915760365338
 40
13.31944303480396
 40
18.97436347179609
 40
18.97436347179609
 40
18.97436347179609
 40
18.97436347179609
 10
1708.554443979699
 20
1892.080036947356
 30
0.0
 10
1709.250697711437
 20
1890.983848489794
 30
0.0
 10
1710.738737342414
 20
1888.641064855591
 30
0.0
 10
1713.986392879056
 20
1885.562604570157
 30
0.0
 10
1718.015755093275
 20
1882.538637298099
 30
0.0
 10
1721.12545203811
 20
1880.799478498135
 30
0.0
 10
1722.772698066929
 20
1879.878223967373
 30
0.0
 11
1708.554443979699
 21
1892.080036947356
 31
0.0
 11
1710.76043581878
 21
1888.884450055971
 31
0.0
 11
1713.886837493274
 21
1885.765897304407
 31
0.0
 11
1717.903736117788
 21
1882.754216781651
 31
0.0
 11
1722.772698066929
 21
1879.878223967373
 31
0.0
  0
SPLINE
  5
283
330
1F
100
AcDbEntity
  8
0
  6
Continuous
 62
     7
100
AcDbSpline
210
0.0
220
0.0
230
1.0
 70
     8
 71
     3
 72
    13
 73
     9
 74
     7
 42
0.000000001
 43
0.0000000001
 44
0.00000001
 40
0.0
 40
0.0
 40
0.0
 40
0.0
 40
9.482082282444416
 40
20.26155267333384
 40
32.19508518373778
 40
45.09397090204276
 40
58.73702942353448
 40
72.88033048768317
 40
72.88033048768317
 40
72.88033048768317
 40
72.88033048768317
 10
1722.772698066929
 20
1879.878223967373
 30
0.0
 10
1725.623954854037
 20
1878.507732957955
 30
0.0
 10
1731.716592306046
 20
1875.579233202601
 30
0.0
 10
1741.935155302641
 20
1872.219429822238
 30
0.0
 10
1753.433149918282
 20
1869.252883433419
 30
0.0
 10
1766.047006695197
 20
1866.887557877102
 30
0.0
 10
1779.495826076
 20
1865.077156826211
 30
0.0
 10
1788.737397438494
 20
1864.430529766275
 30
0.0
 10
1793.441371908409
 20
1864.101395575337
 30
0.0
 11
1722.772698066929
 21
1879.878223967373
 31
0.0
 11
1731.400554918204
 21
1875.945035618383
 31
0.0
 11
1741.596868150763
 21
1872.447582481803
 31
0.0
 11
1753.149979740999
 21
1869.458467084574
 31
0.0
 11
1765.820062745459
 21
1867.03973819305
 31
0.0
 11
1779.344106730487
 21
1865.241605819437
 31
0.0
 11
1793.441371908409
 21
1864.101395575337
 31
0.0
  0
SPLINE
  5
284
330
1F
100
AcDbEntity
  8
0
  6
Continuous
 62
     7
100
AcDbSpline
210
0.0
220
0.0
230
1.0
 70
     8
 71
     3
 72
    17
 73
    13
 74
    11
 42
0.000000001
 43
0.0000000001
 44
0.00000001
 40
0.0
 40
0.0
 40
0.0
 40
0.0
 40
5.074261529753112
 40
11.06679593097952
 40
18.08960865792985
 40
26.16016224308907
 40
35.23532921763831
 40
45.2309299375501
 40
56.03329329716168
 40
67.50680202841275
 40
79.49945467376709
 40
91.84743102660929
 40
91.84743102660929
 40
91.84743102660929
 40
91.84743102660929
 10
1708.611365093629
 20
1896.79463109911
 30
0.0
 10
1709.553748602907
 20
1895.380574084241
 30
0.0
 10
1711.609055761308
 20
1892.296562691561
 30
0.0
 10
1716.328050876102
 20
1888.430967399578
 30
0.0
 10
1722.291857535415
 20
1884.709390256372
 30
0.0
 10
1729.603640920059
 20
1881.27906637613
 30
0.0
 10
1738.100363583746
 20
1878.152438357005
 30
0.0
 10
1747.675308126738
 20
1875.389923276559
 30
0.0
 10
1758.175938360276
 20
1873.029120829382
 30
0.0
 10
1769.4421398313
 20
1871.119924546706
 30
0.0
 10
1781.295237804972
 20
1869.649005010416
 30
0.0
 10
1789.391213022748
 20
1869.096350700366
 30
0.0
 10
1793.498293022339
 20
1868.815989727093
 30
0.0
 11
1708.611365093629
 21
1896.79463109911
 31
0.0
 11
1711.613358991311
 21
1892.703645546992
 31
0.0
 11
1716.119890973019
 21
1888.753754657525
 31
0.0
 11
1722.059891541816
 21
1885.007250710813
 31
0.0
 11
1729.339682203399
 21
1881.523218121162
 31
0.0
 11
1737.844457361774
 21
1878.356602401507
 31
0.0
 11
1747.440090682773
 21
1875.557342692655
 31
0.0
 11
1757.975254129156
 21
1873.169585311718
 31
0.0
 11
1769.283801177733
 21
1871.23098626613
 31
0.0
 11
1781.187389847166
 21
1869.772118801715
 31
0.0
 11
1793.498293022339
 21
1868.815989727093
 31
0.0
  0
SPLINE
  5
285
330
1F
100
AcDbEntity
  8
0
  6
Continuous
 62
     7
100
AcDbSpline
210
0.0
220
0.0
230
1.0
 70
     8
 71
     3
 72
    15
 73
    11
 74
     9
 42
0.000000001
 43
0.0000000001
 44
0.00000001
 40
0.0
 40
0.0
 40
0.0
 40
0.0
 40
11.25558706087138
 40
22.49779274822007
 40
33.52846873833751
 40
44.15515929574545
 40
54.19662344364534
 40
63.48884223004139
 40
71.89208994055303
 40
79.30034637688449
 40
79.30034637688449
 40
79.30034637688449
 40
79.30034637688449
 10
1955.798403880678
 20
1849.437731373622
 30
0.0
 10
1959.547594766594
 20
1849.278972834644
 30
0.0
 10
1967.041519256952
 20
1848.961644514465
 30
0.0
 10
1978.222233216681
 20
1849.15262288009
 30
0.0
 10
1989.171857132645
 20
1849.822931473053
 30
0.0
 10
1999.675913990811
 20
1851.009279998635
 30
0.0
 10
2009.531744775595
 20
1852.665712206177
 30
0.0
 10
2018.532253316811
 20
1854.792548729148
 30
0.0
 10
2026.552687636915
 20
1857.244558099938
 30
0.0
 10
2031.358912820794
 20
1859.4185794155
 30
0.0
 10
2033.610801589629
 20
1860.437186333764
 30
0.0
 11
1955.798403880678
 21
1849.437731373622
 31
0.0
 11
1967.048078533574
 21
1849.072957256695
 31
0.0
 11
1978.289085571074
 21
1849.237120040659
 31
0.0
 11
1989.298169713164
 21
1849.926960010256
 31
0.0
 11
1999.856682448134
 21
1851.128775734297
 31
0.0
 11
2009.754922797219
 21
1852.818698869407
 31
0.0
 11
2018.796305010689
 21
1854.963165618294
 31
0.0
 11
2026.801258991111
 21
1857.519585769881
 31
0.0
 11
2033.610801589629
 21
1860.437186333764
 31
0.0
  0
SPLINE
  5
286
330
1F
100
AcDbEntity
  8
0
  6
Continuous
 62
     7
100
AcDbSpline
210
0.0
220
0.0
230
1.0
 70
     8
 71
     3
 72
    15
 73
    11
 74
     9
 42
0.000000001
 43
0.0000000001
 44
0.00000001
 40
0.0
 40
0.0
 40
0.0
 40
0.0
 40
14.06947776353565
 40
28.12222893213843
 40
41.91056841818977
 40
55.1939268490717
 40
67.7457532686586
 40
79.36102420153887
 40
89.86508264688888
 40
99.12540338382648
 40
99.12540338382648
 40
99.12540338382648
 40
99.12540338382648
 10
1953.243084876188
 20
1855.128806056848
 30
0.0
 10
1957.929571462271
 20
1854.930357941158
 30
0.0
 10
1967.296973073135
 20
1854.533697651482
 30
0.0
 10
1981.272859686374
 20
1854.772420078657
 30
0.0
 10
1994.959884224986
 20
1855.610304787911
 30
0.0
 10
2008.089950758031
 20
1857.093238896779
 30
0.0
 10
2020.409735806991
 20
1859.163777183857
 30
0.0
 10
2031.660369476374
 20
1861.822320445399
 30
0.0
 10
2041.685911846193
 20
1864.887329643178
 30
0.0
 10
2047.693694023542
 20
1867.604853901026
 30
0.0
 10
2050.508555512939
 20
1868.878111519771
 30
0.0
 11
1953.243084876188
 21
1855.128806056848
 31
0.0
 11
1967.305172129793
 21
1854.672838464764
 31
0.0
 11
1981.356424993854
 21
1854.878041430238
 31
0.0
 11
1995.117774725718
 21
1855.740340322913
 31
0.0
 11
2008.315911028484
 21
1857.24260838974
 31
0.0
 11
2020.688707995349
 21
1859.355010258651
 31
0.0
 11
2031.990433718965
 21
1862.035591259754
 31
0.0
 11
2041.996625810787
 21
1865.231113723257
 31
0.0
 11
2050.508555512939
 21
1868.878111519771
 31
0.0
  0
SPLINE
  5
287
330
1F
100
AcDbEntity
  8
0
  6
Continuous
 62
     7
100
AcDbSpline
210
0.0
220
0.0
230
1.0
 70
     8
 71
     3
 72
     9
 73
     5
 74
     3
 42
0.000000001
 43
0.0000000001
 44
0.00000001
 40
0.0
 40
0.0
 40
0.0
 40
0.0
 40
3.77942493933921
 40
7.284739473031937
 40
7.284739473031937
 40
7.284739473031937
 40
7.284739473031937
 10
2050.508555512939
 20
1868.878111519771
 30
0.0
 10
2051.629259003956
 20
1869.455533965059
 30
0.0
 10
2053.789384698378
 20
1870.568500147292
 30
0.0
 10
2055.828337123074
 20
1871.890157941035
 30
0.0
 10
2056.809452447508
 20
1872.526121155663
 30
0.0
 11
2050.508555512939
 21
1868.878111519771
 31
0.0
 11
2053.838050016269
 21
1870.666551965214
 31
0.0
 11
2056.809452447508
 21
1872.526121155663
 31
0.0
  0
SPLINE
  5
288
330
1F
100
AcDbEntity
  8
0
  6
Continuous
 62
     7
100
AcDbSpline
210
0.0
220
0.0
230
1.0
 70
     8
 71
     3
 72
    17
 73
    13
 74
    11
 42
0.000000001
 43
0.0000000001
 44
0.00000001
 40
0.0
 40
0.0
 40
0.0
 40
0.0
 40
12.53173521339746
 40
25.07175296315064
 40
37.44440208236443
 40
49.47758903114656
 40
61.00659704885626
 40
71.87812936382078
 40
81.95481206670513
 40
91.12063085696994
 40
99.28822481120355
 40
106.4099395968932
 40
106.4099395968932
 40
106.4099395968932
 40
106.4099395968932
 10
1953.300005990118
 20
1859.843400208603
 30
0.0
 10
1957.47384962525
 20
1859.660426854719
 30
0.0
 10
1965.824295492856
 20
1859.294359217438
 30
0.0
 10
1978.31076389015
 20
1859.408848492976
 30
0.0
 10
1990.614698475643
 20
1860.002628756571
 30
0.0
 10
2002.545610908669
 20
1861.114151541735
 30
0.0
 10
2013.916612527233
 20
1862.711999056297
 30
0.0
 10
2024.5483752734
 20
1864.776712319959
 30
0.0
 10
2034.283056293616
 20
1867.263393941138
 30
0.0
 10
2042.948727013853
 20
1870.167922799347
 30
0.0
 10
2050.489223466286
 20
1873.332436232304
 30
0.0
 10
2054.839859957411
 20
1875.99875288787
 30
0.0
 10
2056.866373561439
 20
1877.240715307418
 30
0.0
 11
1953.300005990118
 21
1859.843400208603
 31
0.0
 11
1965.824073628157
 21
1859.40508866884
 31
0.0
 11
1978.363793607095
 21
1859.491506671339
 31
0.0
 11
1990.721406983746
 21
1860.101291782267
 31
0.0
 11
2002.702027042304
 21
1861.224826900967
 31
0.0
 11
2014.116711860994
 21
1862.844393621431
 31
0.0
 11
2024.785445579259
 21
1864.934450012754
 31
0.0
 11
2034.539975212556
 21
1867.462035009361
 31
0.0
 11
2043.226466814144
 21
1870.387286743548
 31
0.0
 11
2050.707928290531
 21
1873.664072555151
 31
0.0
 11
2056.866373561439
 21
1877.240715307418
 31
0.0
  0
SPLINE
  5
289
330
1F
100
AcDbEntity
  8
0
  6
Continuous
 62
     7
100
AcDbSpline
210
0.0
220
0.0
230
1.0
 70
     8
 71
     3
 72
    11
 73
     7
 74
     5
 42
0.000000001
 43
0.0000000001
 44
0.00000001
 40
0.0
 40
0.0
 40
0.0
 40
0.0
 40
5.448438449647321
 40
10.14759204789157
 40
14.24564083414557
 40
17.99836385852834
 40
17.99836385852834
 40
17.99836385852834
 40
17.99836385852834
 10
2126.925075488079
 20
1920.120750193519
 30
0.0
 10
2128.396598602583
 20
1921.194644412665
 30
0.0
 10
2131.137276751895
 20
1923.194747854625
 30
0.0
 10
2134.307886768323
 20
1926.759534908382
 30
0.0
 10
2136.423622859244
 20
1930.473165493539
 30
0.0
 10
2136.724275629635
 20
1933.096533375668
 30
0.0
 10
2136.867989718698
 20
1934.350521302031
 30
0.0
 11
2126.925075488079
 21
1920.120750193519
 31
0.0
 11
2131.200646970836
 21
1923.497874711997
 31
0.0
 11
2134.306172824924
 21
1927.024594680186
 31
0.0
 11
2136.203130383086
 21
1930.657163455656
 31
0.0
 11
2136.867989718698
 21
1934.350521302031
 31
0.0
  0
SPLINE
  5
28A
330
1F
100
AcDbEntity
  8
0
  6
Continuous
 62
     7
100
AcDbSpline
210
0.0
220
0.0
230
1.0
 70
     8
 71
     3
 72
    11
 73
     7
 74
     5
 42
0.000000001
 43
0.0000000001
 44
0.00000001
 40
0.0
 40
0.0
 40
0.0
 40
0.0
 40
5.448445215748253
 40
10.14760371740791
 40
14.24565634342983
 40
17.99838353978381
 40
17.99838353978381
 40
17.99838353978381
 40
17.99838353978381
 10
2126.981996602009
 20
1924.835344345274
 30
0.0
 10
2128.453521512631
 20
1925.90923996852
 30
0.0
 10
2131.1942027554
 20
1927.909345841847
 30
0.0
 10
2134.3648149524
 20
1931.474138024808
 30
0.0
 10
2136.480550182368
 20
1935.187774584112
 30
0.0
 10
2136.781198905314
 20
1937.811145738872
 30
0.0
 10
2136.924911072779
 20
1939.065135343959
 30
0.0
 11
2126.981996602009
 21
1924.835344345274
 31
0.0
 11
2131.25757304347
 21
1928.212473501837
 31
0.0
 11
2134.363100660298
 21
1931.739198451331
 31
0.0
 11
2136.260056660182
 21
1935.371772372343
 31
0.0
 11
2136.924911072779
 21
1939.065135343959
 31
0.0
  0
SPLINE
  5
28B
330
1F
100
AcDbEntity
  8
0
  6
Continuous
 62
     7
100
AcDbSpline
210
0.0
220
0.0
230
1.0
 70
     8
 71
     3
 72
    13
 73
     9
 74
     7
 42
0.000000001
 43
0.0000000001
 44
0.00000001
 40
0.0
 40
0.0
 40
0.0
 40
0.0
 40
4.576300913028978
 40
9.750993848109841
 40
15.91731824982524
 40
23.25653813247827
 40
31.80925235663518
 40
41.52920001112126
 40
41.52920001112126
 40
41.52920001112126
 40
41.52920001112126
 10
2136.924911072779
 20
1939.065135343959
 30
0.0
 10
2136.747809156505
 20
1940.599133843534
 30
0.0
 10
2136.370447659185
 20
1943.867714778071
 30
0.0
 10
2133.33548376686
 20
1948.411843006997
 30
0.0
 10
2128.800028296691
 20
1952.691180930123
 30
0.0
 10
2122.594744728195
 20
1956.706078828654
 30
0.0
 10
2114.909186089033
 20
1960.460773292703
 30
0.0
 10
2109.160536681355
 20
1962.487840809362
 30
0.0
 10
2106.102603923739
 20
1963.566117761346
 30
0.0
 11
2136.924911072779
 21
1939.065135343959
 31
0.0
 11
2136.0672127291
 21
1943.560342085369
 31
0.0
 11
2133.401488476873
 21
1947.995582920274
 31
0.0
 11
2128.976353907693
 21
1952.28996770397
 31
0.0
 11
2122.872516621848
 21
1956.365175535313
 31
0.0
 11
2115.201296779595
 21
1960.146882389748
 31
0.0
 11
2106.102603923739
 21
1963.566117761346
 31
0.0
  0
SPLINE
  5
28C
330
1F
100
AcDbEntity
  8
0
  6
Continuous
 62
     7
100
AcDbSpline
210
0.0
220
0.0
230
1.0
 70
     8
 71
     3
 72
    17
 73
    13
 74
    11
 42
0.000000001
 43
0.0000000001
 44
0.00000001
 40
0.0
 40
0.0
 40
0.0
 40
0.0
 40
9.995601076728681
 40
20.79796412759282
 40
32.2714730989828
 40
44.26412556788092
 40
56.61210202410131
 40
69.14383718710019
 40
81.68385490330529
 40
94.05650413196528
 40
106.0896909102099
 40
117.6186991693645
 40
117.6186991693645
 40
117.6186991693645
 40
117.6186991693645
 10
1989.634729137409
 20
2001.953805707173
 30
0.0
 10
1986.44733858746
 20
2002.928156755384
 30
0.0
 10
1979.815297767723
 20
2004.955500369789
 30
0.0
 10
1969.299803234823
 20
2007.269648025545
 30
0.0
 10
1958.038329537516
 20
2009.199096163932
 30
0.0
 10
1946.182438285567
 20
2010.638154145385
 30
0.0
 10
1933.92463794893
 20
2011.585645696746
 30
0.0
 10
1921.455360632199
 20
2012.019002786513
 30
0.0
 10
1908.970120387465
 20
2011.937488055142
 30
0.0
 10
1896.667453138134
 20
2011.325522629835
 30
0.0
 10
1884.730531795583
 20
2010.252653761142
 30
0.0
 10
1876.964241642231
 20
2009.071409250764
 30
0.0
 10
1873.164187226459
 20
2008.493424990067
 30
0.0
 11
1989.634729137409
 21
2001.953805707173
 31
0.0
 11
1980.039095396907
 21
2004.753065255102
 31
0.0
 11
1969.503932304434
 21
2007.140822813862
 31
0.0
 11
1958.195384973119
 21
2009.079421667529
 31
0.0
 11
1946.291796510789
 21
2010.538289334934
 31
0.0
 11
1933.980893207422
 21
2011.494418198697
 31
0.0
 11
1921.456825616659
 21
2011.932729953865
 31
0.0
 11
1908.917105672113
 21
2011.846311734814
 31
0.0
 11
1896.559492179938
 21
2011.236526838169
 31
0.0
 11
1884.578872316202
 21
2010.112991510834
 31
0.0
 11
1873.164187226459
 21
2008.493424990067
 31
0.0
  0
SPLINE
  5
28D
330
1F
100
AcDbEntity
  8
0
  6
Continuous
 62
     7
100
AcDbSpline
210
0.0
220
0.0
230
1.0
 70
     8
 71
     3
 72
    17
 73
    13
 74
    11
 42
0.000000001
 43
0.0000000001
 44
0.00000001
 40
0.0
 40
0.0
 40
0.0
 40
0.0
 40
4.353103383361927
 40
8.741067482622212
 40
13.19458763373553
 40
17.73679070393039
 40
22.38108203522921
 40
27.13034895347683
 40
31.97734488724393
 40
36.90594882060706
 40
41.89300704607106
 40
46.91052335161736
 40
46.91052335161736
 40
46.91052335161736
 40
46.91052335161736
 10
926.1078896246811
 20
422.1435964427494
 30
0.0
 10
924.6548993556155
 20
422.22020129275
 30
0.0
 10
921.7372829175866
 20
422.3740244772313
 30
0.0
 10
917.4776029525168
 20
423.6053604140978
 30
0.0
 10
913.4358515471114
 20
425.5337253372293
 30
0.0
 10
909.7120331086177
 20
428.1822571688658
 30
0.0
 10
906.3964602407743
 20
431.4629129445108
 30
0.0
 10
903.5698669885028
 20
435.2989241496184
 30
0.0
 10
901.2954659525487
 20
439.5938389577047
 30
0.0
 10
899.6432499018256
 20
444.2428003442838
 30
0.0
 10
898.5915641261852
 20
449.1323379081482
 30
0.0
 10
898.4607053024556
 20
452.4697871568092
 30
0.0
 10
898.395076703579
 20
454.1435920724655
 30
0.0
 11
926.1078896246811
 21
422.1435964427494
 31
0.0
 11
921.7726509883197
 21
422.5375698682435
 31
0.0
 11
917.5441601900345
 21
423.7097876512063
 31
0.0
 11
913.5265370055228
 21
425.6313874279459
 31
0.0
 11
909.8187081148969
 21
428.2550515952356
 31
0.0
 11
906.51197326414
 21
431.5161781809398
 31
0.0
 11
903.687754344358
 21
435.3344662480097
 31
0.0
 11
901.4155940181026
 21
439.6158979059164
 31
0.0
 11
899.751439246847
 21
444.2550492976418
 31
0.0
 11
898.7362682905425
 21
449.1376897388614
 31
0.0
 11
898.395076703579
 21
454.1435920724655
 31
0.0
  0
SPLINE
  5
28E
330
1F
100
AcDbEntity
  8
0
  6
Continuous
 62
     7
100
AcDbSpline
210
0.0
220
0.0
230
1.0
 70
     8
 71
     3
 72
    15
 73
    11
 74
     9
 42
0.000000001
 43
0.0000000001
 44
0.00000001
 40
0.0
 40
0.0
 40
0.0
 40
0.0
 40
3.524376813489377
 40
7.015628556879263
 40
10.44483109522965
 40
13.79122964874704
 40
17.04562785583445
 40
20.2126549979307
 40
23.3111469260366
 40
26.37190811369952
 40
26.37190811369952
 40
26.37190811369952
 40
26.37190811369952
 10
917.5194323565611
 20
454.1435964427492
 30
0.0
 10
917.5770301765264
 20
452.9673679742833
 30
0.0
 10
917.6916844779894
 20
450.6259662272142
 30
0.0
 10
918.6100344703195
 20
447.2407409473221
 30
0.0
 10
920.0405296508206
 20
444.1152641766929
 30
0.0
 10
921.9841218839645
 20
441.369780656277
 30
0.0
 10
924.3561485775127
 20
439.1052905404109
 30
0.0
 10
927.0722492963405
 20
437.4299221918126
 30
0.0
 10
930.0281408921278
 20
436.3473562188363
 30
0.0
 10
932.085507762443
 20
436.2112384171089
 30
0.0
 10
933.1078896246811
 20
436.1435964427494
 30
0.0
 11
917.5194323565611
 21
454.1435964427492
 31
0.0
 11
917.8189609170779
 21
450.6319708130175
 31
0.0
 11
918.706033011238
 21
447.2552946601774
 31
0.0
 11
920.1465617183263
 21
444.1433327227154
 31
0.0
 11
922.0851857821565
 21
441.415674381392
 31
0.0
 11
924.4474071985876
 21
439.1771441311721
 31
0.0
 11
927.1424452920401
 21
437.5137648575457
 31
0.0
 11
930.0667326207526
 21
436.4894622328379
 31
0.0
 11
933.1078896246811
 21
436.1435964427494
 31
0.0
  0
SPLINE
  5
28F
330
1F
100
AcDbEntity
  8
0
  6
Continuous
 62
     7
100
AcDbSpline
210
0.0
220
0.0
230
1.0
 70
     8
 71
     3
 72
    15
 73
    11
 74
     9
 42
0.000000001
 43
0.0000000001
 44
0.00000001
 40
0.0
 40
0.0
 40
0.0
 40
0.0
 40
3.524376813489377
 40
7.015628556879263
 40
10.44483109522965
 40
13.79122964874704
 40
17.04562785583445
 40
20.2126549979307
 40
23.3111469260366
 40
26.37190811369952
 40
26.37190811369952
 40
26.37190811369952
 40
26.37190811369952
 10
910.5194323565611
 20
454.1435964427492
 30
0.0
 10
910.5770301765265
 20
452.9673679742833
 30
0.0
 10
910.6916844779893
 20
450.6259662272142
 30
0.0
 10
911.6100344703195
 20
447.2407409473221
 30
0.0
 10
913.0405296508206
 20
444.1152641766929
 30
0.0
 10
914.9841218839646
 20
441.369780656277
 30
0.0
 10
917.3561485775128
 20
439.1052905404109
 30
0.0
 10
920.0722492963406
 20
437.4299221918126
 30
0.0
 10
923.0281408921278
 20
436.3473562188363
 30
0.0
 10
925.085507762443
 20
436.2112384171089
 30
0.0
 10
926.1078896246811
 20
436.1435964427494
 30
0.0
 11
910.5194323565611
 21
454.1435964427492
 31
0.0
 11
910.8189609170779
 21
450.6319708130175
 31
0.0
 11
911.706033011238
 21
447.2552946601774
 31
0.0
 11
913.1465617183263
 21
444.1433327227154
 31
0.0
 11
915.0851857821565
 21
441.415674381392
 31
0.0
 11
917.4474071985876
 21
439.1771441311721
 31
0.0
 11
920.1424452920401
 21
437.5137648575457
 31
0.0
 11
923.0667326207526
 21
436.4894622328379
 31
0.0
 11
926.1078896246811
 21
436.1435964427494
 31
0.0
  0
SPLINE
  5
290
330
1F
100
AcDbEntity
  8
0
  6
Continuous
 62
     7
100
AcDbSpline
210
0.0
220
0.0
230
1.0
 70
     8
 71
     3
 72
    17
 73
    13
 74
    11
 42
0.000000001
 43
0.0000000001
 44
0.00000001
 40
0.0
 40
0.0
 40
0.0
 40
0.0
 40
4.353103374456124
 40
8.741067464599741
 40
13.19458760621752
 40
17.73679066644254
 40
22.38108198728944
 40
27.13034889468138
 40
31.97734481734104
 40
36.90594873955016
 40
41.89300695404766
 40
46.91052324904858
 40
46.91052324904858
 40
46.91052324904858
 40
46.91052324904858
 10
870.6822637824771
 20
422.1435964427494
 30
0.0
 10
872.1352540485619
 20
422.2202012924338
 30
0.0
 10
875.0528704805597
 20
422.3740244762782
 30
0.0
 10
879.312550437312
 20
423.6053604081006
 30
0.0
 10
883.3543018357433
 20
425.533725323495
 30
0.0
 10
887.0781202691809
 20
428.1822571448088
 30
0.0
 10
890.3936931343646
 20
431.4629129081707
 30
0.0
 10
893.2202863867499
 20
435.2989240996519
 30
0.0
 10
895.4946874258334
 20
439.5938388934783
 30
0.0
 10
897.1469034829081
 20
444.2428002659725
 30
0.0
 10
898.19858926786
 20
449.1323378165566
 30
0.0
 10
898.3294481003203
 20
452.4697870576683
 30
0.0
 10
898.395076703579
 20
454.1435919696198
 30
0.0
 11
870.6822637824771
 21
422.1435964427494
 31
0.0
 11
875.0175024100422
 21
422.5375698666346
 31
0.0
 11
879.245993200183
 21
423.7097876448499
 31
0.0
 11
883.2636163778284
 21
425.6313874139386
 31
0.0
 11
886.971445263439
 21
428.2550515710556
 31
0.0
 11
890.278180111529
 21
431.5161781445792
 31
0.0
 11
893.1023990313895
 21
435.3344661980884
 31
0.0
 11
895.3745593607509
 21
439.615897841772
 31
0.0
 11
897.038714138293
 21
444.2550492193924
 31
0.0
 11
898.053885104076
 21
449.1376896474402
 31
0.0
 11
898.395076703579
 21
454.1435919696198
 31
0.0
  0
SPLINE
  5
291
330
1F
100
AcDbEntity
  8
0
  6
Continuous
 62
     7
100
AcDbSpline
210
0.0
220
0.0
230
1.0
 70
     8
 71
     3
 72
    15
 73
    11
 74
     9
 42
0.000000001
 43
0.0000000001
 44
0.00000001
 40
0.0
 40
0.0
 40
0.0
 40
0.0
 40
3.524376813489387
 40
7.015628556879273
 40
10.44483109522966
 40
13.79122964874711
 40
17.04562785583452
 40
20.21265499793068
 40
23.31114692603668
 40
26.37190811369937
 40
26.37190811369937
 40
26.37190811369937
 40
26.37190811369937
 10
886.2707210505971
 20
454.1435964427492
 30
0.0
 10
886.2131232306317
 20
452.9673679742833
 30
0.0
 10
886.0984689291687
 20
450.6259662272143
 30
0.0
 10
885.1801189368383
 20
447.2407409473221
 30
0.0
 10
883.7496237563375
 20
444.1152641766928
 30
0.0
 10
881.8060315231933
 20
441.3697806562771
 30
0.0
 10
879.4340048296455
 20
439.1052905404109
 30
0.0
 10
876.7179041108172
 20
437.4299221918126
 30
0.0
 10
873.7620125150306
 20
436.3473562188362
 30
0.0
 10
871.7046456447149
 20
436.211238417109
 30
0.0
 10
870.6822637824771
 20
436.1435964427494
 30
0.0
 11
886.2707210505971
 21
454.1435964427492
 31
0.0
 11
885.9711924900802
 21
450.6319708130175
 31
0.0
 11
885.0841203959201
 21
447.2552946601774
 31
0.0
 11
883.6435916888317
 21
444.1433327227154
 31
0.0
 11
881.7049676250015
 21
441.415674381392
 31
0.0
 11
879.3427462085704
 21
439.1771441311721
 31
0.0
 11
876.647708115118
 21
437.5137648575457
 31
0.0
 11
873.7234207864053
 21
436.4894622328379
 31
0.0
 11
870.6822637824771
 21
436.1435964427494
 31
0.0
  0
SPLINE
  5
292
330
1F
100
AcDbEntity
  8
0
  6
Continuous
 62
     7
100
AcDbSpline
210
0.0
220
0.0
230
1.0
 70
     8
 71
     3
 72
    15
 73
    11
 74
     9
 42
0.000000001
 43
0.0000000001
 44
0.00000001
 40
0.0
 40
0.0
 40
0.0
 40
0.0
 40
3.524376813489387
 40
7.015628556879273
 40
10.44483109522962
 40
13.7912296487468
 40
17.0456278558343
 40
20.21265499793084
 40
23.31114692603684
 40
26.37190811369953
 40
26.37190811369953
 40
26.37190811369953
 40
26.37190811369953
 10
879.2707210505971
 20
454.1435964427492
 30
0.0
 10
879.2131232306318
 20
452.9673679742833
 30
0.0
 10
879.0984689291686
 20
450.6259662272143
 30
0.0
 10
878.1801189368387
 20
447.2407409473223
 30
0.0
 10
876.7496237563375
 20
444.1152641766929
 30
0.0
 10
874.806031523194
 20
441.3697806562769
 30
0.0
 10
872.4340048296457
 20
439.1052905404108
 30
0.0
 10
869.7179041108175
 20
437.4299221918128
 30
0.0
 10
866.76201251503
 20
436.3473562188361
 30
0.0
 10
864.7046456447149
 20
436.211238417109
 30
0.0
 10
863.6822637824771
 20
436.1435964427494
 30
0.0
 11
879.2707210505971
 21
454.1435964427492
 31
0.0
 11
878.9711924900802
 21
450.6319708130175
 31
0.0
 11
878.0841203959201
 21
447.2552946601774
 31
0.0
 11
876.6435916888319
 21
444.1433327227154
 31
0.0
 11
874.704967625002
 21
441.415674381392
 31
0.0
 11
872.3427462085708
 21
439.1771441311721
 31
0.0
 11
869.647708115118
 21
437.5137648575457
 31
0.0
 11
866.7234207864053
 21
436.4894622328379
 31
0.0
 11
863.6822637824771
 21
436.1435964427494
 31
0.0
  0
SPLINE
  5
293
330
1F
100
AcDbEntity
  8
0
  6
Continuous
 62
     7
100
AcDbSpline
210
0.0
220
0.0
230
1.0
 70
     8
 71
     3
 72
    17
 73
    13
 74
    11
 42
0.000000001
 43
0.0000000001
 44
0.00000001
 40
0.0
 40
0.0
 40
0.0
 40
0.0
 40
4.353103317076737
 40
8.741067348486965
 40
13.1945874289321
 40
17.73679042492797
 40
22.3810816784374
 40
27.13034851589255
 40
31.97734436699643
 40
36.90594821735206
 40
41.8930063611995
 40
46.91052258826637
 40
46.91052258826637
 40
46.91052258826637
 40
46.91052258826637
 10
1926.10788962468
 20
422.1435964427494
 30
0.0
 10
1924.654899377798
 20
422.2202012903977
 30
0.0
 10
1921.737282984658
 20
422.3740244701375
 30
0.0
 10
1917.477603081494
 20
423.6053603694667
 30
0.0
 10
1913.435851727991
 20
425.5337252350162
 30
0.0
 10
1909.712033327123
 20
428.1822569898216
 30
0.0
 10
1906.396460479077
 20
431.4629126740515
 30
0.0
 10
1903.569867225955
 20
435.2989237777471
 30
0.0
 10
1901.295466166712
 20
439.5938384797047
 30
0.0
 10
1899.643250068719
 20
444.2427997614659
 30
0.0
 10
1898.591564223778
 20
449.1323372264926
 30
0.0
 10
1898.460705335068
 20
452.4697864189717
 30
0.0
 10
1898.395076703579
 20
454.1435913070563
 30
0.0
 11
1926.10788962468
 21
422.1435964427494
 31
0.0
 11
1921.772651053789
 21
422.5375698562698
 31
0.0
 11
1917.544160316118
 21
423.7097876039015
 31
0.0
 11
1913.526537182707
 21
425.6313873236998
 31
0.0
 11
1909.818708329404
 21
428.2550514152774
 31
0.0
 11
1906.511973498497
 21
431.516177910327
 31
0.0
 11
1903.68775457813
 21
435.3344658764728
 31
0.0
 11
1901.415594228756
 21
439.6158974285278
 31
0.0
 11
1899.751439410716
 21
444.255048715284
 31
0.0
 11
1898.736268383868
 21
449.1376890584745
 31
0.0
 11
1898.395076703579
 21
454.1435913070563
 31
0.0
  0
SPLINE
  5
294
330
1F
100
AcDbEntity
  8
0
  6
Continuous
 62
     7
100
AcDbSpline
210
0.0
220
0.0
230
1.0
 70
     8
 71
     3
 72
    15
 73
    11
 74
     9
 42
0.000000001
 43
0.0000000001
 44
0.00000001
 40
0.0
 40
0.0
 40
0.0
 40
0.0
 40
3.524376813489426
 40
7.015628556879312
 40
10.44483109522942
 40
13.79122964874647
 40
17.04562785583413
 40
20.21265499793106
 40
23.31114692603685
 40
26.3719081136983
 40
26.3719081136983
 40
26.3719081136983
 40
26.3719081136983
 10
1917.519432356561
 20
454.1435964427492
 30
0.0
 10
1917.577030176526
 20
452.9673679742831
 30
0.0
 10
1917.691684477991
 20
450.6259662272145
 30
0.0
 10
1918.61003447032
 20
447.2407409473224
 30
0.0
 10
1920.040529650821
 20
444.1152641766928
 30
0.0
 10
1921.984121883964
 20
441.3697806562769
 30
0.0
 10
1924.356148577513
 20
439.1052905404109
 30
0.0
 10
1927.072249296341
 20
437.4299221918127
 30
0.0
 10
1930.028140892128
 20
436.3473562188365
 30
0.0
 10
1932.085507762442
 20
436.2112384171089
 30
0.0
 10
1933.10788962468
 20
436.1435964427494
 30
0.0
 11
1917.519432356561
 21
454.1435964427492
 31
0.0
 11
1917.818960917079
 21
450.6319708130175
 31
0.0
 11
1918.706033011239
 21
447.2552946601774
 31
0.0
 11
1920.146561718326
 21
444.1433327227154
 31
0.0
 11
1922.085185782156
 21
441.415674381392
 31
0.0
 11
1924.447407198587
 21
439.1771441311721
 31
0.0
 11
1927.142445292041
 21
437.5137648575457
 31
0.0
 11
1930.066732620753
 21
436.4894622328379
 31
0.0
 11
1933.10788962468
 21
436.1435964427494
 31
0.0
  0
SPLINE
  5
295
330
1F
100
AcDbEntity
  8
0
  6
Continuous
 62
     7
100
AcDbSpline
210
0.0
220
0.0
230
1.0
 70
     8
 71
     3
 72
    15
 73
    11
 74
     9
 42
0.000000001
 43
0.0000000001
 44
0.00000001
 40
0.0
 40
0.0
 40
0.0
 40
0.0
 40
3.524376813489387
 40
7.015628556879157
 40
10.44483109522926
 40
13.79122964874631
 40
17.04562785583381
 40
20.21265499793054
 40
23.31114692603655
 40
26.37190811369822
 40
26.37190811369822
 40
26.37190811369822
 40
26.37190811369822
 10
1910.519432356562
 20
454.1435964427492
 30
0.0
 10
1910.577030176527
 20
452.9673679742832
 30
0.0
 10
1910.691684477991
 20
450.6259662272146
 30
0.0
 10
1911.61003447032
 20
447.2407409473221
 30
0.0
 10
1913.040529650821
 20
444.115264176693
 30
0.0
 10
1914.984121883964
 20
441.3697806562769
 30
0.0
 10
1917.356148577512
 20
439.1052905404107
 30
0.0
 10
1920.072249296341
 20
437.4299221918127
 30
0.0
 10
1923.028140892127
 20
436.3473562188363
 30
0.0
 10
1925.085507762442
 20
436.211238417109
 30
0.0
 10
1926.10788962468
 20
436.1435964427494
 30
0.0
 11
1910.519432356562
 21
454.1435964427492
 31
0.0
 11
1910.818960917079
 21
450.6319708130175
 31
0.0
 11
1911.706033011239
 21
447.2552946601774
 31
0.0
 11
1913.146561718326
 21
444.1433327227154
 31
0.0
 11
1915.085185782156
 21
441.415674381392
 31
0.0
 11
1917.447407198587
 21
439.1771441311721
 31
0.0
 11
1920.14244529204
 21
437.5137648575457
 31
0.0
 11
1923.066732620753
 21
436.4894622328379
 31
0.0
 11
1926.10788962468
 21
436.1435964427494
 31
0.0
  0
SPLINE
  5
296
330
1F
100
AcDbEntity
  8
0
  6
Continuous
 62
     7
100
AcDbSpline
210
0.0
220
0.0
230
1.0
 70
    24
 71
     3
 72
     8
 73
     4
 74
     2
 42
0.000000001
 43
0.0000000001
 44
0.00000001
 40
0.0
 40
0.0
 40
0.0
 40
0.0
 40
0.0000051356929021
 40
0.0000051356929021
 40
0.0000051356929021
 40
0.0000051356929021
 10
1898.395076703579
 20
454.1435913070563
 30
0.0
 10
1898.395076703579
 20
454.1435930189539
 30
0.0
 10
1898.395076703579
 20
454.1435947308515
 30
0.0
 10
1898.395076703579
 20
454.1435964427492
 30
0.0
 11
1898.395076703579
 21
454.1435913070563
 31
0.0
 11
1898.395076703579
 21
454.1435964427492
 31
0.0
  0
SPLINE
  5
297
330
1F
100
AcDbEntity
  8
0
  6
Continuous
 62
     7
100
AcDbSpline
210
0.0
220
0.0
230
1.0
 70
     8
 71
     3
 72
    17
 73
    13
 74
    11
 42
0.000000001
 43
0.0000000001
 44
0.00000001
 40
0.0
 40
0.0
 40
0.0
 40
0.0
 40
4.353103289195356
 40
8.741067292066168
 40
13.19458734278565
 40
17.73679030757075
 40
22.38108152835963
 40
27.13034833182992
 40
31.977344148163
 40
36.90594796360318
 40
41.89300607311993
 40
46.91052226717635
 40
46.91052226717635
 40
46.91052226717635
 40
46.91052226717635
 10
1870.682263782477
 20
422.1435964427494
 30
0.0
 10
1872.135254020028
 20
422.2202012894084
 30
0.0
 10
1875.052870394286
 20
422.3740244671538
 30
0.0
 10
1879.312550271412
 20
423.6053603506937
 30
0.0
 10
1883.354301603083
 20
425.5337251920208
 30
0.0
 10
1887.078119988123
 20
428.1822569145089
 30
0.0
 10
1890.393692827842
 20
431.4629125602864
 30
0.0
 10
1893.220286081322
 20
435.2989236213247
 30
0.0
 10
1895.494687150361
 20
439.5938382786405
 30
0.0
 10
1897.146903268238
 20
444.2427995163117
 30
0.0
 10
1898.198589142329
 20
449.1323369397642
 30
0.0
 10
1898.329448058371
 20
452.469786108612
 30
0.0
 10
1898.395076703579
 20
454.1435909850989
 30
0.0
 11
1870.682263782477
 21
422.1435964427494
 31
0.0
 11
1875.01750232583
 21
422.5375698512335
 31
0.0
 11
1879.245993038005
 21
423.7097875840037
 31
0.0
 11
1883.263616149921
 21
425.6313872798496
 31
0.0
 11
1886.971444987526
 21
428.2550513395801
 31
0.0
 11
1890.278179810082
 21
431.5161777964977
 31
0.0
 11
1893.102398730695
 21
435.3344657201908
 31
0.0
 11
1895.374559089794
 21
439.6158972277206
 31
0.0
 11
1897.038713927514
 21
444.2550484703235
 31
0.0
 11
1898.053884984034
 21
449.1376887722798
 31
0.0
 11
1898.395076703579
 21
454.1435909850989
 31
0.0
  0
SPLINE
  5
298
330
1F
100
AcDbEntity
  8
0
  6
Continuous
 62
     7
100
AcDbSpline
210
0.0
220
0.0
230
1.0
 70
     8
 71
     3
 72
    15
 73
    11
 74
     9
 42
0.000000001
 43
0.0000000001
 44
0.00000001
 40
0.0
 40
0.0
 40
0.0
 40
0.0
 40
3.524376813489368
 40
7.015628556879311
 40
10.44483109522951
 40
13.79122964874696
 40
17.04562785583445
 40
20.21265499793099
 40
23.311146926037
 40
26.37190811369958
 40
26.37190811369958
 40
26.37190811369958
 40
26.37190811369958
 10
1879.270721050597
 20
454.1435964427492
 30
0.0
 10
1879.213123230632
 20
452.9673679742833
 30
0.0
 10
1879.098468929169
 20
450.6259662272142
 30
0.0
 10
1878.180118936838
 20
447.2407409473222
 30
0.0
 10
1876.749623756338
 20
444.1152641766927
 30
0.0
 10
1874.806031523194
 20
441.3697806562771
 30
0.0
 10
1872.434004829646
 20
439.1052905404108
 30
0.0
 10
1869.717904110817
 20
437.4299221918127
 30
0.0
 10
1866.76201251503
 20
436.3473562188362
 30
0.0
 10
1864.704645644715
 20
436.211238417109
 30
0.0
 10
1863.682263782477
 20
436.1435964427494
 30
0.0
 11
1879.270721050597
 21
454.1435964427492
 31
0.0
 11
1878.97119249008
 21
450.6319708130175
 31
0.0
 11
1878.08412039592
 21
447.2552946601774
 31
0.0
 11
1876.643591688832
 21
444.1433327227154
 31
0.0
 11
1874.704967625002
 21
441.415674381392
 31
0.0
 11
1872.342746208571
 21
439.1771441311721
 31
0.0
 11
1869.647708115118
 21
437.5137648575457
 31
0.0
 11
1866.723420786405
 21
436.4894622328379
 31
0.0
 11
1863.682263782477
 21
436.1435964427494
 31
0.0
  0
SPLINE
  5
299
330
1F
100
AcDbEntity
  8
0
  6
Continuous
 62
     7
100
AcDbSpline
210
0.0
220
0.0
230
1.0
 70
    24
 71
     3
 72
     8
 73
     4
 74
     2
 42
0.000000001
 43
0.0000000001
 44
0.00000001
 40
0.0
 40
0.0
 40
0.0
 40
0.0
 40
0.0000054576502748
 40
0.0000054576502748
 40
0.0000054576502748
 40
0.0000054576502748
 10
1898.395076703579
 20
454.1435909850989
 30
0.0
 10
1898.395076703579
 20
454.1435928043156
 30
0.0
 10
1898.395076703579
 20
454.1435946235324
 30
0.0
 10
1898.395076703579
 20
454.1435964427492
 30
0.0
 11
1898.395076703579
 21
454.1435909850989
 31
0.0
 11
1898.395076703579
 21
454.1435964427492
 31
0.0
  0
SPLINE
  5
29A
330
1F
100
AcDbEntity
  8
0
  6
Continuous
 62
     7
100
AcDbSpline
210
0.0
220
0.0
230
1.0
 70
     8
 71
     3
 72
    15
 73
    11
 74
     9
 42
0.000000001
 43
0.0000000001
 44
0.00000001
 40
0.0
 40
0.0
 40
0.0
 40
0.0
 40
3.52437681348929
 40
7.015628556879176
 40
10.44483109522957
 40
13.79122964874702
 40
17.04562785583435
 40
20.21265499793069
 40
23.3111469260367
 40
26.37190811369927
 40
26.37190811369927
 40
26.37190811369927
 40
26.37190811369927
 10
1886.270721050596
 20
454.1435964427492
 30
0.0
 10
1886.213123230631
 20
452.9673679742832
 30
0.0
 10
1886.098468929169
 20
450.6259662272143
 30
0.0
 10
1885.180118936838
 20
447.2407409473221
 30
0.0
 10
1883.749623756337
 20
444.1152641766927
 30
0.0
 10
1881.806031523193
 20
441.3697806562772
 30
0.0
 10
1879.434004829645
 20
439.1052905404106
 30
0.0
 10
1876.717904110817
 20
437.4299221918128
 30
0.0
 10
1873.762012515031
 20
436.3473562188361
 30
0.0
 10
1871.704645644714
 20
436.211238417109
 30
0.0
 10
1870.682263782477
 20
436.1435964427494
 30
0.0
 11
1886.270721050596
 21
454.1435964427492
 31
0.0
 11
1885.97119249008
 21
450.6319708130175
 31
0.0
 11
1885.08412039592
 21
447.2552946601774
 31
0.0
 11
1883.643591688832
 21
444.1433327227154
 31
0.0
 11
1881.704967625001
 21
441.415674381392
 31
0.0
 11
1879.34274620857
 21
439.1771441311721
 31
0.0
 11
1876.647708115118
 21
437.5137648575457
 31
0.0
 11
1873.723420786405
 21
436.4894622328379
 31
0.0
 11
1870.682263782477
 21
436.1435964427494
 31
0.0
  0
MTEXT
  5
29C
330
1F
100
AcDbEntity
  8
1
 62
     2
100
AcDbMText
 10
-65.33990671171
 20
2231.52530571983
 30
0.0
 40
50.0
 41
0.0
 71
     5
 72
     1
  1
T7846 + L4628b/c
  7
CONVERTER_11
 73
     1
 44
1.32052821128451
  0
MTEXT
  5
29D
330
1F
100
AcDbEntity
  8
1
 62
     2
100
AcDbMText
 10
934.6600932882902
 20
2231.52530571983
 30
0.0
 40
50.0
 41
0.0
 71
     5
 72
     1
  1
T6446 + L4628b/c
  7
CONVERTER_11
 73
     1
 44
1.32052821128451
  0
MTEXT
  5
29E
330
1F
100
AcDbEntity
  8
1
 62
     2
100
AcDbMText
 10
1934.66009328829
 20
2231.52530571983
 30
0.0
 40
50.0
 41
0.0
 71
     5
 72
     1
  1
T4554 + L5420b/c
  7
CONVERTER_11
 73
     1
 44
1.32052821128451
  0
ENDSEC
  0
SECTION
  2
OBJECTS
  0
DICTIONARY
  5
C
330
0
100
AcDbDictionary
281
     1
  3
ACAD_GROUP
350
D
  3
ACAD_LAYOUT
350
1A
  3
ACAD_MATERIAL
350
43
  3
ACAD_MLEADERSTYLE
350
2A1
  3
ACAD_MLINESTYLE
350
17
  3
ACAD_PLOTSETTINGS
350
19
  3
ACAD_PLOTSTYLENAME
350
E
  3
ACAD_SCALELIST
350
47
  3
ACAD_VISUALSTYLE
350
2A
  3
AcDbVariableDictionary
350
29F
  0
DICTIONARY
  5
D
102
{ACAD_REACTORS
330
C
102
}
330
C
100
AcDbDictionary
281
     1
  0
DICTIONARY
  5
1A
102
{ACAD_REACTORS
330
C
102
}
330
C
100
AcDbDictionary
281
     1
  3
Layout1
350
1E
  3
Layout2
350
26
  3
Model
350
22
  0
DICTIONARY
  5
43
102
{ACAD_REACTORS
330
C
102
}
330
C
100
AcDbDictionary
281
     1
  3
ByBlock
350
45
  3
ByLayer
350
44
  3
Global
350
46
  0
DICTIONARY
  5
2A1
102
{ACAD_REACTORS
330
C
102
}
330
C
100
AcDbDictionary
281
     1
  0
DICTIONARY
  5
17
102
{ACAD_REACTORS
330
C
102
}
330
C
100
AcDbDictionary
281
     1
  3
Standard
350
18
  0
DICTIONARY
  5
19
102
{ACAD_REACTORS
330
C
102
}
330
C
100
AcDbDictionary
281
     1
  0
ACDBDICTIONARYWDFLT
  5
E
102
{ACAD_REACTORS
330
C
102
}
330
C
100
AcDbDictionary
281
     1
  3
Normal
350
F
100
AcDbDictionaryWithDefault
340
F
  0
DICTIONARY
  5
47
102
{ACAD_REACTORS
330
C
102
}
330
C
100
AcDbDictionary
281
     1
  3
A0
350
48
  3
A1
350
49
  3
A2
350
4A
  3
A3
350
4B
  3
A4
350
4C
  3
A5
350
4D
  3
A6
350
4E
  3
A7
350
4F
  3
A8
350
50
  3
A9
350
51
  3
B0
350
52
  3
B1
350
53
  3
B2
350
54
  3
B3
350
55
  3
B4
350
56
  3
B5
350
57
  3
B6
350
58
  3
B7
350
59
  3
B8
350
5A
  3
B9
350
5B
  3
C0
350
5C
  3
C1
350
5D
  3
C2
350
5E
  3
C3
350
5F
  3
C4
350
60
  3
C5
350
61
  3
C6
350
62
  3
C7
350
63
  3
C8
350
64
  3
C9
350
65
  3
D0
350
66
  3
D1
350
67
  3
D2
350
68
  0
DICTIONARY
  5
2A
102
{ACAD_REACTORS
330
C
102
}
330
C
100
AcDbDictionary
281
     1
  3
2dWireframe
350
2F
  3
Basic
350
32
  3
Brighten
350
36
  3
ColorChange
350
3A
  3
Conceptual
350
34
  3
Dim
350
35
  3
EdgeColorOff
350
3D
  3
Facepattern
350
39
  3
Flat
350
2B
  3
FlatWithEdges
350
2C
  3
Gouraud
350
2D
  3
GouraudWithEdges
350
2E
  3
Hidden
350
31
  3
JitterOff
350
3B
  3
Linepattern
350
38
  3
OverhangOff
350
3C
  3
Realistic
350
33
  3
Shaded
350
42
  3
Shaded with edges
350
41
  3
Shades of Gray
350
3E
  3
Sketchy
350
3F
  3
Thicken
350
37
  3
Wireframe
350
30
  3
X-Ray
350
40
  0
DICTIONARY
  5
29F
102
{ACAD_REACTORS
330
C
102
}
330
C
100
AcDbDictionary
281
     1
  3
CANNOSCALE
350
2A6
  3
DIMASSOC
350
2A4
  3
HIDETEXT
350
2A5
  3
MSLTSCALE
350
2A7
  0
LAYOUT
  5
1E
102
{ACAD_REACTORS
330
1A
102
}
330
1A
100
AcDbPlotSettings
  1

  2
none_device
  4

  6

 40
0.0
 41
0.0
 42
0.0
 43
0.0
 44
0.0
 45
0.0
 46
0.0
 47
0.0
 48
0.0
 49
0.0
140
0.0
141
0.0
142
1.0
143
1.0
 70
   688
 72
     0
 73
     0
 74
     5
  7

 75
    16
147
1.0
148
0.0
149
0.0
100
AcDbLayout
  1
Layout1
 70
     1
 71
     1
 10
0.0
 20
0.0
 11
12.0
 21
9.0
 12
0.0
 22
0.0
 32
0.0
 14
1.00000000000000E+20
 24
1.00000000000000E+20
 34
1.00000000000000E+20
 15
-1.00000000000000E+20
 25
-1.00000000000000E+20
 35
-1.00000000000000E+20
146
0.0
 13
0.0
 23
0.0
 33
0.0
 16
1.0
 26
0.0
 36
0.0
 17
0.0
 27
1.0
 37
0.0
 76
     0
330
1B
  0
LAYOUT
  5
26
102
{ACAD_REACTORS
330
1A
102
}
330
1A
100
AcDbPlotSettings
  1

  2
none_device
  4

  6

 40
0.0
 41
0.0
 42
0.0
 43
0.0
 44
0.0
 45
0.0
 46
0.0
 47
0.0
 48
0.0
 49
0.0
140
0.0
141
0.0
142
1.0
143
1.0
 70
   688
 72
     0
 73
     0
 74
     5
  7

 75
    16
147
1.0
148
0.0
149
0.0
100
AcDbLayout
  1
Layout2
 70
     1
 71
     2
 10
0.0
 20
0.0
 11
0.0
 21
0.0
 12
0.0
 22
0.0
 32
0.0
 14
0.0
 24
0.0
 34
0.0
 15
0.0
 25
0.0
 35
0.0
146
0.0
 13
0.0
 23
0.0
 33
0.0
 16
1.0
 26
0.0
 36
0.0
 17
0.0
 27
1.0
 37
0.0
 76
     0
330
23
  0
LAYOUT
  5
22
102
{ACAD_REACTORS
330
1A
102
}
330
1A
100
AcDbPlotSettings
  1

  2
none_device
  4
Letter_(8.50_x_11.00_Inches)
  6

 40
6.35
 41
6.35
 42
6.35000508
 43
6.35000508
 44
215.9
 45
279.4
 46
0.0
 47
0.0
 48
0.0
 49
0.0
140
0.0
141
0.0
142
1.0
143
1.0
 70
  1712
 72
     0
 73
     0
 74
     0
  7

 75
     0
147
1.0
148
0.0
149
0.0
100
AcDbLayout
  1
Model
 70
     1
 71
     0
 10
0.0
 20
0.0
 11
12.0
 21
9.0
 12
0.0
 22
0.0
 32
0.0
 14
-574.0
 24
-938.0
 34
0.0
 15
2426.0
 25
2313.0
 35
0.0
146
0.0
 13
0.0
 23
0.0
 33
0.0
 16
1.0
 26
0.0
 36
0.0
 17
0.0
 27
1.0
 37
0.0
 76
     0
330
1F
331
29
  0
MATERIAL
  5
45
102
{ACAD_REACTORS
330
43
102
}
102
{ACAD_XDICTIONARY
360
2DA
102
}
330
43
100
AcDbMaterial
  1
ByBlock
  0
MATERIAL
  5
44
102
{ACAD_REACTORS
330
43
102
}
102
{ACAD_XDICTIONARY
360
2D8
102
}
330
43
100
AcDbMaterial
  1
ByLayer
  0
MATERIAL
  5
46
102
{ACAD_REACTORS
330
43
102
}
102
{ACAD_XDICTIONARY
360
2DC
102
}
330
43
100
AcDbMaterial
  1
Global
  0
MLINESTYLE
  5
18
102
{ACAD_REACTORS
330
17
102
}
330
17
100
AcDbMlineStyle
  2
Standard
 70
     0
  3

 62
   256
 51
90.0
 52
90.0
 71
     2
 49
0.5
 62
   256
  6
BYLAYER
 49
-0.5
 62
   256
  6
BYLAYER
  0
ACDBPLACEHOLDER
  5
F
102
{ACAD_REACTORS
330
E
102
}
330
E
  0
SCALE
  5
48
102
{ACAD_REACTORS
330
47
102
}
330
47
100
AcDbScale
 70
     0
300
1:1
140
1.0
141
1.0
290
     1
  0
SCALE
  5
49
102
{ACAD_REACTORS
330
47
102
}
330
47
100
AcDbScale
 70
     0
300
1:2
140
1.0
141
2.0
290
     0
  0
SCALE
  5
4A
102
{ACAD_REACTORS
330
47
102
}
330
47
100
AcDbScale
 70
     0
300
1:4
140
1.0
141
4.0
290
     0
  0
SCALE
  5
4B
102
{ACAD_REACTORS
330
47
102
}
330
47
100
AcDbScale
 70
     0
300
1:5
140
1.0
141
5.0
290
     0
  0
SCALE
  5
4C
102
{ACAD_REACTORS
330
47
102
}
330
47
100
AcDbScale
 70
     0
300
1:8
140
1.0
141
8.0
290
     0
  0
SCALE
  5
4D
102
{ACAD_REACTORS
330
47
102
}
330
47
100
AcDbScale
 70
     0
300
1:10
140
1.0
141
10.0
290
     0
  0
SCALE
  5
4E
102
{ACAD_REACTORS
330
47
102
}
330
47
100
AcDbScale
 70
     0
300
1:16
140
1.0
141
16.0
290
     0
  0
SCALE
  5
4F
102
{ACAD_REACTORS
330
47
102
}
330
47
100
AcDbScale
 70
     0
300
1:20
140
1.0
141
20.0
290
     0
  0
SCALE
  5
50
102
{ACAD_REACTORS
330
47
102
}
330
47
100
AcDbScale
 70
     0
300
1:30
140
1.0
141
30.0
290
     0
  0
SCALE
  5
51
102
{ACAD_REACTORS
330
47
102
}
330
47
100
AcDbScale
 70
     0
300
1:40
140
1.0
141
40.0
290
     0
  0
SCALE
  5
52
102
{ACAD_REACTORS
330
47
102
}
330
47
100
AcDbScale
 70
     0
300
1:50
140
1.0
141
50.0
290
     0
  0
SCALE
  5
53
102
{ACAD_REACTORS
330
47
102
}
330
47
100
AcDbScale
 70
     0
300
1:100
140
1.0
141
100.0
290
     0
  0
SCALE
  5
54
102
{ACAD_REACTORS
330
47
102
}
330
47
100
AcDbScale
 70
     0
300
2:1
140
2.0
141
1.0
290
     0
  0
SCALE
  5
55
102
{ACAD_REACTORS
330
47
102
}
330
47
100
AcDbScale
 70
     0
300
4:1
140
4.0
141
1.0
290
     0
  0
SCALE
  5
56
102
{ACAD_REACTORS
330
47
102
}
330
47
100
AcDbScale
 70
     0
300
8:1
140
8.0
141
1.0
290
     0
  0
SCALE
  5
57
102
{ACAD_REACTORS
330
47
102
}
330
47
100
AcDbScale
 70
     0
300
10:1
140
10.0
141
1.0
290
     0
  0
SCALE
  5
58
102
{ACAD_REACTORS
330
47
102
}
330
47
100
AcDbScale
 70
     0
300
100:1
140
100.0
141
1.0
290
     0
  0
SCALE
  5
59
102
{ACAD_REACTORS
330
47
102
}
330
47
100
AcDbScale
 70
     0
300
1/128" = 1'-0"
140
0.0078125
141
12.0
290
     0
  0
SCALE
  5
5A
102
{ACAD_REACTORS
330
47
102
}
330
47
100
AcDbScale
 70
     0
300
1/64" = 1'-0"
140
0.015625
141
12.0
290
     0
  0
SCALE
  5
5B
102
{ACAD_REACTORS
330
47
102
}
330
47
100
AcDbScale
 70
     0
300
1/32" = 1'-0"
140
0.03125
141
12.0
290
     0
  0
SCALE
  5
5C
102
{ACAD_REACTORS
330
47
102
}
330
47
100
AcDbScale
 70
     0
300
1/16" = 1'-0"
140
0.0625
141
12.0
290
     0
  0
SCALE
  5
5D
102
{ACAD_REACTORS
330
47
102
}
330
47
100
AcDbScale
 70
     0
300
3/32" = 1'-0"
140
0.09375
141
12.0
290
     0
  0
SCALE
  5
5E
102
{ACAD_REACTORS
330
47
102
}
330
47
100
AcDbScale
 70
     0
300
1/8" = 1'-0"
140
0.125
141
12.0
290
     0
  0
SCALE
  5
5F
102
{ACAD_REACTORS
330
47
102
}
330
47
100
AcDbScale
 70
     0
300
3/16" = 1'-0"
140
0.1875
141
12.0
290
     0
  0
SCALE
  5
60
102
{ACAD_REACTORS
330
47
102
}
330
47
100
AcDbScale
 70
     0
300
1/4" = 1'-0"
140
0.25
141
12.0
290
     0
  0
SCALE
  5
61
102
{ACAD_REACTORS
330
47
102
}
330
47
100
AcDbScale
 70
     0
300
3/8" = 1'-0"
140
0.375
141
12.0
290
     0
  0
SCALE
  5
62
102
{ACAD_REACTORS
330
47
102
}
330
47
100
AcDbScale
 70
     0
300
1/2" = 1'-0"
140
0.5
141
12.0
290
     0
  0
SCALE
  5
63
102
{ACAD_REACTORS
330
47
102
}
330
47
100
AcDbScale
 70
     0
300
3/4" = 1'-0"
140
0.75
141
12.0
290
     0
  0
SCALE
  5
64
102
{ACAD_REACTORS
330
47
102
}
330
47
100
AcDbScale
 70
     0
300
1" = 1'-0"
140
1.0
141
12.0
290
     0
  0
SCALE
  5
65
102
{ACAD_REACTORS
330
47
102
}
330
47
100
AcDbScale
 70
     0
300
1-1/2" = 1'-0"
140
1.5
141
12.0
290
     0
  0
SCALE
  5
66
102
{ACAD_REACTORS
330
47
102
}
330
47
100
AcDbScale
 70
     0
300
3" = 1'-0"
140
3.0
141
12.0
290
     0
  0
SCALE
  5
67
102
{ACAD_REACTORS
330
47
102
}
330
47
100
AcDbScale
 70
     0
300
6" = 1'-0"
140
6.0
141
12.0
290
     0
  0
SCALE
  5
68
102
{ACAD_REACTORS
330
47
102
}
330
47
100
AcDbScale
 70
     0
300
1'-0" = 1'-0"
140
12.0
141
12.0
290
     0
  0
VISUALSTYLE
  5
2F
102
{ACAD_REACTORS
330
2A
102
}
102
{ACAD_XDICTIONARY
360
2B0
102
}
330
2A
100
AcDbVisualStyle
  2
2dWireframe
 70
     4
 71
     0
 72
     2
 73
     0
 90
        0
 40
0.6
 41
30.0
 62
     5
 63
     7
 74
     1
 91
        4
 64
     7
 65
   257
 75
     1
175
     1
 42
1.0
 92
        0
 66
   257
 43
1.0
 76
     1
 77
     6
 78
     2
 67
     7
 79
     5
170
     0
171
     0
290
     0
174
     0
 93
        1
 44
0.0
173
     0
291
     0
 45
0.0
1001
ACAD
1000
AcDbSavedByObjectVersion
1070
     0
  0
VISUALSTYLE
  5
32
102
{ACAD_REACTORS
330
2A
102
}
102
{ACAD_XDICTIONARY
360
2B6
102
}
330
2A
100
AcDbVisualStyle
  2
Basic
 70
     7
 71
     1
 72
     0
 73
     1
 90
        0
 40
0.6
 41
30.0
 62
     5
 63
     7
 74
     0
 91
        4
 64
     7
 65
   257
 75
     1
175
     1
 42
1.0
 92
        8
 66
     7
 43
1.0
 76
     1
 77
     6
 78
     2
 67
     7
 79
     5
170
     0
171
     0
290
     0
174
     0
 93
        1
 44
0.0
173
     0
291
     1
 45
0.0
1001
ACAD
1000
AcDbSavedByObjectVersion
1070
     0
  0
VISUALSTYLE
  5
36
102
{ACAD_REACTORS
330
2A
102
}
102
{ACAD_XDICTIONARY
360
2BE
102
}
330
2A
100
AcDbVisualStyle
  2
Brighten
 70
    12
 71
     2
 72
     2
 73
     0
 90
        0
 40
0.6
 41
30.0
 62
     5
 63
     7
 74
     1
 91
        4
 64
     7
 65
   257
 75
     1
175
     1
 42
1.0
 92
        8
 66
     7
 43
1.0
 76
     1
 77
     6
 78
     2
 67
     7
 79
     5
170
     0
171
     0
290
     0
174
     0
 93
        1
 44
50.0
173
     0
291
     1
 45
0.0
1001
ACAD
1000
AcDbSavedByObjectVersion
1070
     0
  0
VISUALSTYLE
  5
3A
102
{ACAD_REACTORS
330
2A
102
}
102
{ACAD_XDICTIONARY
360
2C6
102
}
330
2A
100
AcDbVisualStyle
  2
ColorChange
 70
    16
 71
     2
 72
     2
 73
     3
 90
        0
 40
0.6
 41
30.0
 62
     5
 63
     8
 74
     1
 91
        4
 64
     7
 65
   257
 75
     1
175
     1
 42
1.0
 92
        8
 66
     8
 43
1.0
 76
     1
 77
     6
 78
     2
 67
     7
 79
     5
170
     0
171
     0
290
     0
174
     0
 93
        1
 44
0.0
173
     0
291
     1
 45
0.0
1001
ACAD
1000
AcDbSavedByObjectVersion
1070
     0
  0
VISUALSTYLE
  5
34
102
{ACAD_REACTORS
330
2A
102
}
102
{ACAD_XDICTIONARY
360
2BA
102
}
330
2A
100
AcDbVisualStyle
  2
Conceptual
 70
     9
 71
     3
 72
     2
 73
     0
 90
        0
 40
0.6
 41
30.0
 62
     5
 63
     7
 74
     2
 91
        2
 64
     7
 65
   257
 75
     1
175
     1
 42
179.0
 92
        8
 66
     7
 43
1.0
 76
     1
 77
     6
 78
     2
 67
     7
 79
     3
170
     0
171
     0
290
     0
174
     0
 93
        1
 44
0.0
173
     0
291
     0
 45
0.0
1001
ACAD
1000
AcDbSavedByObjectVersion
1070
     0
  0
VISUALSTYLE
  5
35
102
{ACAD_REACTORS
330
2A
102
}
102
{ACAD_XDICTIONARY
360
2BC
102
}
330
2A
100
AcDbVisualStyle
  2
Dim
 70
    11
 71
     2
 72
     2
 73
     0
 90
        0
 40
0.6
 41
30.0
 62
     5
 63
     7
 74
     1
 91
        4
 64
     7
 65
   257
 75
     1
175
     1
 42
1.0
 92
        8
 66
     7
 43
1.0
 76
     1
 77
     6
 78
     2
 67
     7
 79
     5
170
     0
171
     0
290
     0
174
     0
 93
        1
 44
-50.0
173
     0
291
     1
 45
0.0
1001
ACAD
1000
AcDbSavedByObjectVersion
1070
     0
  0
VISUALSTYLE
  5
3D
102
{ACAD_REACTORS
330
2A
102
}
102
{ACAD_XDICTIONARY
360
2CC
102
}
330
2A
100
AcDbVisualStyle
  2
EdgeColorOff
 70
    22
 71
     2
 72
     2
 73
     0
 90
        0
 40
0.6
 41
30.0
 62
     5
 63
     7
 74
     1
 91
        4
 64
     7
 65
   257
 75
     1
175
     1
 42
1.0
 92
        8
 66
     7
 43
1.0
 76
     1
 77
     6
 78
     2
 67
     7
 79
     5
170
     0
171
     0
290
     0
174
     0
 93
        1
 44
0.0
173
     0
291
     1
 45
0.0
1001
ACAD
1000
AcDbSavedByObjectVersion
1070
     0
  0
VISUALSTYLE
  5
39
102
{ACAD_REACTORS
330
2A
102
}
102
{ACAD_XDICTIONARY
360
2C4
102
}
330
2A
100
AcDbVisualStyle
  2
Facepattern
 70
    15
 71
     2
 72
     2
 73
     0
 90
        0
 40
0.6
 41
30.0
 62
     5
 63
     7
 74
     1
 91
        4
 64
     7
 65
   257
 75
     1
175
     1
 42
1.0
 92
        8
 66
     7
 43
1.0
 76
     1
 77
     6
 78
     2
 67
     7
 79
     5
170
     0
171
     0
290
     0
174
     0
 93
        1
 44
0.0
173
     0
291
     1
 45
0.0
1001
ACAD
1000
AcDbSavedByObjectVersion
1070
     0
  0
VISUALSTYLE
  5
2B
102
{ACAD_REACTORS
330
2A
102
}
102
{ACAD_XDICTIONARY
360
2A8
102
}
330
2A
100
AcDbVisualStyle
  2
Flat
 70
     0
 71
     2
 72
     1
 73
     1
 90
        2
 40
0.6
 41
30.0
 62
     5
 63
     7
 74
     0
 91
        0
 64
     7
 65
   257
 75
     1
175
     1
 42
1.0
 92
        8
 66
     7
 43
1.0
 76
     1
 77
     6
 78
     2
 67
     7
 79
     5
170
     0
171
     0
290
     0
174
     0
 93
       13
 44
0.0
173
     0
291
     1
 45
0.0
1001
ACAD
1000
AcDbSavedByObjectVersion
1070
     0
  0
VISUALSTYLE
  5
2C
102
{ACAD_REACTORS
330
2A
102
}
102
{ACAD_XDICTIONARY
360
2AA
102
}
330
2A
100
AcDbVisualStyle
  2
FlatWithEdges
 70
     1
 71
     2
 72
     1
 73
     1
 90
        2
 40
0.6
 41
30.0
 62
     5
 63
     7
 74
     1
 91
        0
 64
     7
 65
   257
 75
     1
175
     1
 42
1.0
 92
        0
 66
   257
 43
1.0
 76
     1
 77
     6
 78
     2
 67
     7
 79
     5
170
     0
171
     0
290
     0
174
     0
 93
       13
 44
0.0
173
     0
291
     1
 45
0.0
1001
ACAD
1000
AcDbSavedByObjectVersion
1070
     0
  0
VISUALSTYLE
  5
2D
102
{ACAD_REACTORS
330
2A
102
}
102
{ACAD_XDICTIONARY
360
2AC
102
}
330
2A
100
AcDbVisualStyle
  2
Gouraud
 70
     2
 71
     2
 72
     2
 73
     1
 90
        2
 40
0.6
 41
30.0
 62
     5
 63
     7
 74
     0
 91
        0
 64
     7
 65
   257
 75
     1
175
     1
 42
1.0
 92
        0
 66
     7
 43
1.0
 76
     1
 77
     6
 78
     2
 67
     7
 79
     5
170
     0
171
     0
290
     0
174
     0
 93
       13
 44
0.0
173
     0
291
     1
 45
0.0
1001
ACAD
1000
AcDbSavedByObjectVersion
1070
     0
  0
VISUALSTYLE
  5
2E
102
{ACAD_REACTORS
330
2A
102
}
102
{ACAD_XDICTIONARY
360
2AE
102
}
330
2A
100
AcDbVisualStyle
  2
GouraudWithEdges
 70
     3
 71
     2
 72
     2
 73
     1
 90
        2
 40
0.6
 41
30.0
 62
     5
 63
     7
 74
     1
 91
        0
 64
     7
 65
   257
 75
     1
175
     1
 42
1.0
 92
        0
 66
   257
 43
1.0
 76
     1
 77
     6
 78
     2
 67
     7
 79
     5
170
     0
171
     0
290
     0
174
     0
 93
       13
 44
0.0
173
     0
291
     1
 45
0.0
1001
ACAD
1000
AcDbSavedByObjectVersion
1070
     0
  0
VISUALSTYLE
  5
31
102
{ACAD_REACTORS
330
2A
102
}
102
{ACAD_XDICTIONARY
360
2B4
102
}
330
2A
100
AcDbVisualStyle
  2
Hidden
 70
     6
 71
     1
 72
     2
 73
     2
 90
        0
 40
0.6
 41
30.0
 62
     5
 63
     7
 74
     2
 91
        2
 64
     7
 65
   257
 75
     2
175
     1
 42
40.0
 92
        0
 66
   257
 43
1.0
 76
     1
 77
     6
 78
     2
 67
     7
 79
     3
170
     0
171
     0
290
     0
174
     0
 93
        1
 44
0.0
173
     0
291
     0
 45
0.0
1001
ACAD
1000
AcDbSavedByObjectVersion
1070
     0
  0
VISUALSTYLE
  5
3B
102
{ACAD_REACTORS
330
2A
102
}
102
{ACAD_XDICTIONARY
360
2C8
102
}
330
2A
100
AcDbVisualStyle
  2
JitterOff
 70
    20
 71
     2
 72
     2
 73
     0
 90
        0
 40
0.6
 41
30.0
 62
     5
 63
     7
 74
     1
 91
        4
 64
     7
 65
   257
 75
     1
175
     1
 42
1.0
 92
       10
 66
     7
 43
1.0
 76
     1
 77
     6
 78
     2
 67
     7
 79
     5
170
     0
171
     0
290
     0
174
     0
 93
        1
 44
0.0
173
     0
291
     1
 45
0.0
1001
ACAD
1000
AcDbSavedByObjectVersion
1070
     0
  0
VISUALSTYLE
  5
38
102
{ACAD_REACTORS
330
2A
102
}
102
{ACAD_XDICTIONARY
360
2C2
102
}
330
2A
100
AcDbVisualStyle
  2
Linepattern
 70
    14
 71
     2
 72
     2
 73
     0
 90
        0
 40
0.6
 41
30.0
 62
     5
 63
     7
 74
     1
 91
        4
 64
     7
 65
   257
 75
     7
175
     7
 42
1.0
 92
        8
 66
     7
 43
1.0
 76
     1
 77
     6
 78
     2
 67
     7
 79
     5
170
     0
171
     0
290
     0
174
     0
 93
        1
 44
0.0
173
     0
291
     1
 45
0.0
1001
ACAD
1000
AcDbSavedByObjectVersion
1070
     0
  0
VISUALSTYLE
  5
3C
102
{ACAD_REACTORS
330
2A
102
}
102
{ACAD_XDICTIONARY
360
2CA
102
}
330
2A
100
AcDbVisualStyle
  2
OverhangOff
 70
    21
 71
     2
 72
     2
 73
     0
 90
        0
 40
0.6
 41
30.0
 62
     5
 63
     7
 74
     1
 91
        4
 64
     7
 65
   257
 75
     1
175
     1
 42
1.0
 92
        9
 66
     7
 43
1.0
 76
     1
 77
     6
 78
     2
 67
     7
 79
     5
170
     0
171
     0
290
     0
174
     0
 93
        1
 44
0.0
173
     0
291
     1
 45
0.0
1001
ACAD
1000
AcDbSavedByObjectVersion
1070
     0
  0
VISUALSTYLE
  5
33
102
{ACAD_REACTORS
330
2A
102
}
102
{ACAD_XDICTIONARY
360
2B8
102
}
330
2A
100
AcDbVisualStyle
  2
Realistic
 70
     8
 71
     2
 72
     3
 73
     0
 90
        2
 40
0.6
 41
30.0
 62
     5
 63
     7
 74
     0
 91
        0
 64
     7
 65
   257
 75
     1
175
     1
 42
1.0
 92
        8
 66
   257
 43
1.0
 76
     1
 77
     6
 78
     2
 67
     7
 79
     3
170
     0
171
     0
290
     0
174
     0
 93
       13
 44
0.0
173
     0
291
     0
 45
0.0
1001
ACAD
1000
AcDbSavedByObjectVersion
1070
     0
  0
VISUALSTYLE
  5
42
102
{ACAD_REACTORS
330
2A
102
}
102
{ACAD_XDICTIONARY
360
2D6
102
}
330
2A
100
AcDbVisualStyle
  2
Shaded
 70
    27
 71
     2
 72
     2
 73
     1
 90
        2
 40
0.6
 41
30.0
 62
     5
 63
     7
 74
     0
 91
        4
 64
     7
 65
   257
 75
     1
175
     1
 42
1.0
 92
        8
 66
   257
 43
1.0
 76
     1
 77
     6
 78
     2
 67
     8
 79
     3
170
     0
171
     0
290
     0
174
     0
 93
        5
 44
0.0
173
     0
291
     0
 45
0.0
1001
ACAD
1000
AcDbSavedByObjectVersion
1070
     0
  0
VISUALSTYLE
  5
41
102
{ACAD_REACTORS
330
2A
102
}
102
{ACAD_XDICTIONARY
360
2D4
102
}
330
2A
100
AcDbVisualStyle
  2
Shaded with edges
 70
    26
 71
     2
 72
     2
 73
     1
 90
        2
 40
0.6
 41
30.0
 62
     5
 63
     7
 74
     1
 91
       10
 64
     7
 65
   257
 75
     2
175
     1
 42
1.0
 92
        8
 66
   257
 43
1.0
 76
     1
 77
     6
 78
     2
 67
     7
 79
     3
170
     0
171
     0
290
     0
174
     0
 93
        5
 44
0.0
173
     0
291
     0
 45
0.0
1001
ACAD
1000
AcDbSavedByObjectVersion
1070
     0
  0
VISUALSTYLE
  5
3E
102
{ACAD_REACTORS
330
2A
102
}
102
{ACAD_XDICTIONARY
360
2CE
102
}
330
2A
100
AcDbVisualStyle
  2
Shades of Gray
 70
    23
 71
     2
 72
     2
 73
     3
 90
        0
 40
0.6
 41
30.0
 62
     5
 63
     7
 74
     2
 91
        2
 64
     7
 65
     7
 75
     1
175
     1
 42
40.0
 92
        8
 66
     7
 43
1.0
 76
     1
 77
     6
 78
     2
 67
     7
 79
     3
170
     0
171
     0
290
     0
174
     0
 93
        1
 44
0.0
173
     0
291
     0
 45
0.0
1001
ACAD
1000
AcDbSavedByObjectVersion
1070
     0
  0
VISUALSTYLE
  5
3F
102
{ACAD_REACTORS
330
2A
102
}
102
{ACAD_XDICTIONARY
360
2D0
102
}
330
2A
100
AcDbVisualStyle
  2
Sketchy
 70
    24
 71
     1
 72
     2
 73
     2
 90
        0
 40
0.6
 41
30.0
 62
     5
 63
     7
 74
     2
 91
        2
 64
     7
 65
     7
 75
     1
175
     1
 42
40.0
 92
       11
 66
     7
 43
1.0
 76
     1
 77
     6
 78
     2
 67
     7
 79
     6
170
     0
171
     0
290
     0
174
     0
 93
        1
 44
0.0
173
     0
291
     0
 45
0.0
1001
ACAD
1000
AcDbSavedByObjectVersion
1070
     0
  0
VISUALSTYLE
  5
37
102
{ACAD_REACTORS
330
2A
102
}
102
{ACAD_XDICTIONARY
360
2C0
102
}
330
2A
100
AcDbVisualStyle
  2
Thicken
 70
    13
 71
     2
 72
     2
 73
     0
 90
        0
 40
0.6
 41
30.0
 62
     5
 63
     7
 74
     1
 91
        4
 64
     7
 65
   257
 75
     1
175
     1
 42
1.0
 92
       12
 66
     7
 43
1.0
 76
     1
 77
     6
 78
     2
 67
     7
 79
     5
170
     0
171
     0
290
     0
174
     0
 93
        1
 44
0.0
173
     0
291
     1
 45
0.0
1001
ACAD
1000
AcDbSavedByObjectVersion
1070
     0
  0
VISUALSTYLE
  5
30
102
{ACAD_REACTORS
330
2A
102
}
102
{ACAD_XDICTIONARY
360
2B2
102
}
330
2A
100
AcDbVisualStyle
  2
Wireframe
 70
     5
 71
     0
 72
     2
 73
     0
 90
        0
 40
0.6
 41
30.0
 62
     5
 63
     7
 74
     1
 91
        4
 64
     7
 65
   257
 75
     1
175
     1
 42
1.0
 92
        0
 66
   257
 43
1.0
 76
     1
 77
     6
 78
     2
 67
     7
 79
     3
170
     0
171
     0
290
     0
174
     0
 93
        1
 44
0.0
173
     0
291
     0
 45
0.0
1001
ACAD
1000
AcDbSavedByObjectVersion
1070
     0
  0
VISUALSTYLE
  5
40
102
{ACAD_REACTORS
330
2A
102
}
102
{ACAD_XDICTIONARY
360
2D2
102
}
330
2A
100
AcDbVisualStyle
  2
X-Ray
 70
    25
 71
     2
 72
     2
 73
     1
 90
        1
 40
0.5
 41
30.0
 62
     5
 63
     7
 74
     1
 91
        0
 64
     7
 65
   257
 75
     1
175
     1
 42
1.0
 92
        8
 66
     7
 43
1.0
 76
     1
 77
     6
 78
     2
 67
     7
 79
     3
170
     0
171
     0
290
     0
174
     0
 93
       13
 44
0.0
173
     0
291
     0
 45
0.0
1001
ACAD
1000
AcDbSavedByObjectVersion
1070
     0
  0
DICTIONARYVAR
  5
2A6
102
{ACAD_REACTORS
330
29F
102
}
330
29F
100
DictionaryVariables
280
     0
  1
1:1
  0
DICTIONARYVAR
  5
2A4
102
{ACAD_REACTORS
330
29F
102
}
330
29F
100
DictionaryVariables
280
     0
  1
2
  0
DICTIONARYVAR
  5
2A5
102
{ACAD_REACTORS
330
29F
102
}
330
29F
100
DictionaryVariables
280
     0
  1
1
  0
DICTIONARYVAR
  5
2A7
102
{ACAD_REACTORS
330
29F
102
}
330
29F
100
DictionaryVariables
280
     0
  1
1
  0
DICTIONARY
  5
2DA
330
45
100
AcDbDictionary
280
     1
281
     1
  3
ACAD_XREC_ROUNDTRIP
360
2DB
  0
DICTIONARY
  5
2D8
330
44
100
AcDbDictionary
280
     1
281
     1
  3
ACAD_XREC_ROUNDTRIP
360
2D9
  0
DICTIONARY
  5
2DC
330
46
100
AcDbDictionary
280
     1
281
     1
  3
ACAD_XREC_ROUNDTRIP
360
2DD
  0
DICTIONARY
  5
2B0
330
2F
100
AcDbDictionary
280
     1
281
     1
  3
ACAD_XREC_ROUNDTRIP
360
2B1
  0
DICTIONARY
  5
2B6
330
32
100
AcDbDictionary
280
     1
281
     1
  3
ACAD_XREC_ROUNDTRIP
360
2B7
  0
DICTIONARY
  5
2BE
330
36
100
AcDbDictionary
280
     1
281
     1
  3
ACAD_XREC_ROUNDTRIP
360
2BF
  0
DICTIONARY
  5
2C6
330
3A
100
AcDbDictionary
280
     1
281
     1
  3
ACAD_XREC_ROUNDTRIP
360
2C7
  0
DICTIONARY
  5
2BA
330
34
100
AcDbDictionary
280
     1
281
     1
  3
ACAD_XREC_ROUNDTRIP
360
2BB
  0
DICTIONARY
  5
2BC
330
35
100
AcDbDictionary
280
     1
281
     1
  3
ACAD_XREC_ROUNDTRIP
360
2BD
  0
DICTIONARY
  5
2CC
330
3D
100
AcDbDictionary
280
     1
281
     1
  3
ACAD_XREC_ROUNDTRIP
360
2CD
  0
DICTIONARY
  5
2C4
330
39
100
AcDbDictionary
280
     1
281
     1
  3
ACAD_XREC_ROUNDTRIP
360
2C5
  0
DICTIONARY
  5
2A8
330
2B
100
AcDbDictionary
280
     1
281
     1
  3
ACAD_XREC_ROUNDTRIP
360
2A9
  0
DICTIONARY
  5
2AA
330
2C
100
AcDbDictionary
280
     1
281
     1
  3
ACAD_XREC_ROUNDTRIP
360
2AB
  0
DICTIONARY
  5
2AC
330
2D
100
AcDbDictionary
280
     1
281
     1
  3
ACAD_XREC_ROUNDTRIP
360
2AD
  0
DICTIONARY
  5
2AE
330
2E
100
AcDbDictionary
280
     1
281
     1
  3
ACAD_XREC_ROUNDTRIP
360
2AF
  0
DICTIONARY
  5
2B4
330
31
100
AcDbDictionary
280
     1
281
     1
  3
ACAD_XREC_ROUNDTRIP
360
2B5
  0
DICTIONARY
  5
2C8
330
3B
100
AcDbDictionary
280
     1
281
     1
  3
ACAD_XREC_ROUNDTRIP
360
2C9
  0
DICTIONARY
  5
2C2
330
38
100
AcDbDictionary
280
     1
281
     1
  3
ACAD_XREC_ROUNDTRIP
360
2C3
  0
DICTIONARY
  5
2CA
330
3C
100
AcDbDictionary
280
     1
281
     1
  3
ACAD_XREC_ROUNDTRIP
360
2CB
  0
DICTIONARY
  5
2B8
330
33
100
AcDbDictionary
280
     1
281
     1
  3
ACAD_XREC_ROUNDTRIP
360
2B9
  0
DICTIONARY
  5
2D6
330
42
100
AcDbDictionary
280
     1
281
     1
  3
ACAD_XREC_ROUNDTRIP
360
2D7
  0
DICTIONARY
  5
2D4
330
41
100
AcDbDictionary
280
     1
281
     1
  3
ACAD_XREC_ROUNDTRIP
360
2D5
  0
DICTIONARY
  5
2CE
330
3E
100
AcDbDictionary
280
     1
281
     1
  3
ACAD_XREC_ROUNDTRIP
360
2CF
  0
DICTIONARY
  5
2D0
330
3F
100
AcDbDictionary
280
     1
281
     1
  3
ACAD_XREC_ROUNDTRIP
360
2D1
  0
DICTIONARY
  5
2C0
330
37
100
AcDbDictionary
280
     1
281
     1
  3
ACAD_XREC_ROUNDTRIP
360
2C1
  0
DICTIONARY
  5
2B2
330
30
100
AcDbDictionary
280
     1
281
     1
  3
ACAD_XREC_ROUNDTRIP
360
2B3
  0
DICTIONARY
  5
2D2
330
40
100
AcDbDictionary
280
     1
281
     1
  3
ACAD_XREC_ROUNDTRIP
360
2D3
  0
XRECORD
  5
2DB
102
{ACAD_REACTORS
330
2DA
102
}
330
2DA
100
AcDbXrecord
280
     1
102
MATERIAL
148
0.0
149
0.0
149
0.0
 93
        0
 94
      127
282
     0
 72
     1
 77
     1
171
     1
175
     1
179
     1
273
     0
  0
XRECORD
  5
2D9
102
{ACAD_REACTORS
330
2D8
102
}
330
2D8
100
AcDbXrecord
280
     1
102
MATERIAL
148
0.0
149
0.0
149
0.0
 93
        0
 94
      127
282
     0
 72
     1
 77
     1
171
     1
175
     1
179
     1
273
     0
  0
XRECORD
  5
2DD
102
{ACAD_REACTORS
330
2DC
102
}
330
2DC
100
AcDbXrecord
280
     1
102
MATERIAL
148
0.0
149
0.0
149
0.0
 93
        0
 94
      127
282
     0
 72
     1
 77
     1
171
     1
175
     1
179
     1
273
     0
  0
XRECORD
  5
2B1
102
{ACAD_REACTORS
330
2B0
102
}
330
2B0
100
AcDbXrecord
280
     1
102
RTVSPropertyOp0
 70
     1
102
RTVSPropertyOp1
 70
     1
102
RTVSPropertyOp2
 70
     1
102
RTVSPropertyOp3
 70
     1
102
RTVSPropertyOp4
 70
     1
102
RTVSPropertyOp5
 70
     1
102
RTVSPropertyOp6
 70
     1
102
RTVSPropertyOp7
 70
     1
102
RTVSPropertyOp8
 70
     1
102
RTVSPropertyOp9
 70
     1
102
RTVSPropertyOp10
 70
     1
102
RTVSPropertyOp11
 70
     1
102
RTVSPropertyOp12
 70
     1
102
RTVSPropertyOp13
 70
     1
102
RTVSPropertyOp14
 70
     1
102
RTVSPropertyOp15
 70
     1
102
RTVSPropertyOp16
 70
     1
102
RTVSPropertyOp17
 70
     1
102
RTVSPropertyOp18
 70
     1
102
RTVSPropertyOp19
 70
     1
102
RTVSPropertyOp20
 70
     1
102
RTVSPropertyOp21
 70
     1
102
RTVSPropertyOp22
 70
     1
102
RTVSPropertyOp23
 70
     1
102
RTVSPropertyOp24
 70
     1
102
RTVSPropertyOp25
 70
     1
102
RTVSPropertyOp26
 70
     1
102
RTVSPropertyOp27
 70
     1
102
RTVSPropertyOp28
 70
     1
102
RTVSPropertyOp29
 70
     1
102
RTVSPropertyOp30
 70
     1
102
RTVSPropertyOp31
 70
     1
102
RTVSPropertyOp32
 70
     1
102
RTVSPropertyOp33
 70
     1
102
RTVSPropertyOp34
 70
     1
102
RTVSPropertyOp35
 70
     1
102
RTVSPropertyOp36
 70
     1
102
RTVSPropertyOp37
 70
     1
102
RTVSPropertyOp38
 70
     1
102
RTVSPropertyOp39
 70
     1
102
RTVSPropertyOp40
 70
     1
102
RTVSPropertyOp41
 70
     1
102
RTVSPropertyOp42
 70
     1
102
RTVSPropertyOp43
 70
     1
102
RTVSPropertyOp44
 70
     1
102
RTVSPropertyOp45
 70
     1
102
RTVSPropertyOp46
 70
     1
102
RTVSPropertyOp47
 70
     1
102
RTVSPropertyOp48
 70
     1
102
RTVSPropertyOp49
 70
     1
102
RTVSPropertyOp50
 70
     1
102
RTVSPropertyOp51
 70
     0
102
RTVSPropertyOp52
 70
     0
102
RTVSPropertyOp53
 70
     1
102
RTVSPropertyOp54
 70
     1
102
RTVSPropertyOp55
 70
     1
102
RTVSPropertyOp56
 70
     1
102
RTVSPropertyOp57
 70
     1
102
RTVSPost2010Prop28
280
     1
102
RTVSPost2010PropOp28
 70
     1
102
RTVSPost2010Prop29
280
     1
102
RTVSPost2010PropOp29
 70
     1
102
RTVSPost2010Prop30
280
     0
102
RTVSPost2010PropOp30
 70
     1
102
RTVSPost2010Prop31
280
     0
102
RTVSPost2010PropOp31
 70
     1
102
RTVSPost2010Prop32
280
     0
102
RTVSPost2010PropOp32
 70
     1
102
RTVSPost2010Prop33
280
     0
102
RTVSPost2010PropOp33
 70
     1
102
RTVSPost2010Prop34
280
     0
102
RTVSPost2010PropOp34
 70
     1
102
RTVSPost2010Prop35
280
     0
102
RTVSPost2010PropOp35
 70
     1
102
RTVSPost2010Prop36
280
     0
102
RTVSPost2010PropOp36
 70
     1
102
RTVSPost2010Prop37
 90
       50
102
RTVSPost2010PropOp37
 70
     1
102
RTVSPost2010Prop38
140
0.0
102
RTVSPost2010PropOp38
 70
     1
102
RTVSPost2010Prop39
140
1.0
102
RTVSPost2010PropOp39
 70
     1
102
RTVSPost2010Prop40
 90
        0
102
RTVSPost2010PropOp40
 70
     1
102
RTVSPost2010Prop41ColorIndex
 90
       18
102
RTVSPost2010Prop41ColorRGB
 90
        0
102
RTVSPost2010PropOp41
 70
     1
102
RTVSPost2010Prop42
 90
       50
102
RTVSPost2010PropOp42
 70
     1
102
RTVSPost2010Prop43
 90
        3
102
RTVSPost2010PropOp43
 70
     1
102
RTVSPost2010Prop44ColorIndex
 90
        5
102
RTVSPost2010Prop44ColorRGB
 90
      255
102
RTVSPost2010PropOp44
 70
     1
102
RTVSPost2010Prop45
280
     0
102
RTVSPost2010PropOp45
 70
     1
102
RTVSPost2010Prop46
 90
       50
102
RTVSPost2010PropOp46
 70
     1
102
RTVSPost2010Prop47
 90
       50
102
RTVSPost2010PropOp47
 70
     1
102
RTVSPost2010Prop48
 90
       50
102
RTVSPost2010PropOp48
 70
     1
102
RTVSPost2010Prop49
280
     0
102
RTVSPost2010PropOp49
 70
     1
102
RTVSPost2010Prop50
 90
       50
102
RTVSPost2010PropOp50
 70
     1
102
RTVSPost2010Prop51ColorIndex
 90
      256
102
RTVSPost2010Prop51ColorRGB
 90
-16777216
102
RTVSPost2010PropOp51
 70
     0
102
RTVSPost2010Prop52
140
1.0
102
RTVSPost2010PropOp52
 70
     0
102
RTVSPost2010Prop53
 90
        2
102
RTVSPost2010PropOp53
 70
     1
102
RTVSPost2010Prop54
  1
strokes_ogs.tif
102
RTVSPost2010PropOp54
 70
     1
102
RTVSPost2010Prop55
280
     0
102
RTVSPost2010PropOp55
 70
     1
102
RTVSPost2010Prop56
140
1.0
102
RTVSPost2010PropOp56
 70
     1
102
RTVSPost2010Prop57
140
1.0
102
RTVSPost2010PropOp57
 70
     1
  0
XRECORD
  5
2B7
102
{ACAD_REACTORS
330
2B6
102
}
330
2B6
100
AcDbXrecord
280
     1
102
RTVSPropertyOp0
 70
     1
102
RTVSPropertyOp1
 70
     1
102
RTVSPropertyOp2
 70
     1
102
RTVSPropertyOp3
 70
     1
102
RTVSPropertyOp4
 70
     1
102
RTVSPropertyOp5
 70
     1
102
RTVSPropertyOp6
 70
     1
102
RTVSPropertyOp7
 70
     1
102
RTVSPropertyOp8
 70
     1
102
RTVSPropertyOp9
 70
     1
102
RTVSPropertyOp10
 70
     1
102
RTVSPropertyOp11
 70
     1
102
RTVSPropertyOp12
 70
     1
102
RTVSPropertyOp13
 70
     1
102
RTVSPropertyOp14
 70
     1
102
RTVSPropertyOp15
 70
     1
102
RTVSPropertyOp16
 70
     1
102
RTVSPropertyOp17
 70
     1
102
RTVSPropertyOp18
 70
     1
102
RTVSPropertyOp19
 70
     1
102
RTVSPropertyOp20
 70
     1
102
RTVSPropertyOp21
 70
     1
102
RTVSPropertyOp22
 70
     1
102
RTVSPropertyOp23
 70
     1
102
RTVSPropertyOp24
 70
     1
102
RTVSPropertyOp25
 70
     1
102
RTVSPropertyOp26
 70
     1
102
RTVSPropertyOp27
 70
     1
102
RTVSPropertyOp28
 70
     1
102
RTVSPropertyOp29
 70
     1
102
RTVSPropertyOp30
 70
     1
102
RTVSPropertyOp31
 70
     1
102
RTVSPropertyOp32
 70
     1
102
RTVSPropertyOp33
 70
     1
102
RTVSPropertyOp34
 70
     1
102
RTVSPropertyOp35
 70
     1
102
RTVSPropertyOp36
 70
     1
102
RTVSPropertyOp37
 70
     1
102
RTVSPropertyOp38
 70
     1
102
RTVSPropertyOp39
 70
     1
102
RTVSPropertyOp40
 70
     1
102
RTVSPropertyOp41
 70
     1
102
RTVSPropertyOp42
 70
     1
102
RTVSPropertyOp43
 70
     1
102
RTVSPropertyOp44
 70
     1
102
RTVSPropertyOp45
 70
     1
102
RTVSPropertyOp46
 70
     1
102
RTVSPropertyOp47
 70
     1
102
RTVSPropertyOp48
 70
     1
102
RTVSPropertyOp49
 70
     1
102
RTVSPropertyOp50
 70
     1
102
RTVSPropertyOp51
 70
     0
102
RTVSPropertyOp52
 70
     0
102
RTVSPropertyOp53
 70
     1
102
RTVSPropertyOp54
 70
     1
102
RTVSPropertyOp55
 70
     1
102
RTVSPropertyOp56
 70
     1
102
RTVSPropertyOp57
 70
     1
102
RTVSPost2010Prop28
280
     0
102
RTVSPost2010PropOp28
 70
     1
102
RTVSPost2010Prop29
280
     1
102
RTVSPost2010PropOp29
 70
     1
102
RTVSPost2010Prop30
280
     1
102
RTVSPost2010PropOp30
 70
     1
102
RTVSPost2010Prop31
280
     0
102
RTVSPost2010PropOp31
 70
     1
102
RTVSPost2010Prop32
280
     0
102
RTVSPost2010PropOp32
 70
     1
102
RTVSPost2010Prop33
280
     0
102
RTVSPost2010PropOp33
 70
     1
102
RTVSPost2010Prop34
280
     0
102
RTVSPost2010PropOp34
 70
     1
102
RTVSPost2010Prop35
280
     0
102
RTVSPost2010PropOp35
 70
     1
102
RTVSPost2010Prop36
280
     0
102
RTVSPost2010PropOp36
 70
     1
102
RTVSPost2010Prop37
 90
       50
102
RTVSPost2010PropOp37
 70
     1
102
RTVSPost2010Prop38
140
0.0
102
RTVSPost2010PropOp38
 70
     1
102
RTVSPost2010Prop39
140
1.0
102
RTVSPost2010PropOp39
 70
     1
102
RTVSPost2010Prop40
 90
        0
102
RTVSPost2010PropOp40
 70
     1
102
RTVSPost2010Prop41ColorIndex
 90
       18
102
RTVSPost2010Prop41ColorRGB
 90
        0
102
RTVSPost2010PropOp41
 70
     1
102
RTVSPost2010Prop42
 90
       50
102
RTVSPost2010PropOp42
 70
     1
102
RTVSPost2010Prop43
 90
        3
102
RTVSPost2010PropOp43
 70
     1
102
RTVSPost2010Prop44ColorIndex
 90
        5
102
RTVSPost2010Prop44ColorRGB
 90
      255
102
RTVSPost2010PropOp44
 70
     1
102
RTVSPost2010Prop45
280
     0
102
RTVSPost2010PropOp45
 70
     1
102
RTVSPost2010Prop46
 90
       50
102
RTVSPost2010PropOp46
 70
     1
102
RTVSPost2010Prop47
 90
       50
102
RTVSPost2010PropOp47
 70
     1
102
RTVSPost2010Prop48
 90
       50
102
RTVSPost2010PropOp48
 70
     1
102
RTVSPost2010Prop49
280
     0
102
RTVSPost2010PropOp49
 70
     1
102
RTVSPost2010Prop50
 90
       50
102
RTVSPost2010PropOp50
 70
     1
102
RTVSPost2010Prop51ColorIndex
 90
      256
102
RTVSPost2010Prop51ColorRGB
 90
-16777216
102
RTVSPost2010PropOp51
 70
     0
102
RTVSPost2010Prop52
140
1.0
102
RTVSPost2010PropOp52
 70
     0
102
RTVSPost2010Prop53
 90
        2
102
RTVSPost2010PropOp53
 70
     1
102
RTVSPost2010Prop54
  1
strokes_ogs.tif
102
RTVSPost2010PropOp54
 70
     1
102
RTVSPost2010Prop55
280
     0
102
RTVSPost2010PropOp55
 70
     1
102
RTVSPost2010Prop56
140
1.0
102
RTVSPost2010PropOp56
 70
     1
102
RTVSPost2010Prop57
140
1.0
102
RTVSPost2010PropOp57
 70
     1
  0
XRECORD
  5
2BF
102
{ACAD_REACTORS
330
2BE
102
}
330
2BE
100
AcDbXrecord
280
     1
102
RTVSPropertyOp0
 70
     1
102
RTVSPropertyOp1
 70
     1
102
RTVSPropertyOp2
 70
     1
102
RTVSPropertyOp3
 70
     1
102
RTVSPropertyOp4
 70
     1
102
RTVSPropertyOp5
 70
     1
102
RTVSPropertyOp6
 70
     1
102
RTVSPropertyOp7
 70
     1
102
RTVSPropertyOp8
 70
     1
102
RTVSPropertyOp9
 70
     1
102
RTVSPropertyOp10
 70
     1
102
RTVSPropertyOp11
 70
     1
102
RTVSPropertyOp12
 70
     1
102
RTVSPropertyOp13
 70
     1
102
RTVSPropertyOp14
 70
     1
102
RTVSPropertyOp15
 70
     1
102
RTVSPropertyOp16
 70
     1
102
RTVSPropertyOp17
 70
     1
102
RTVSPropertyOp18
 70
     1
102
RTVSPropertyOp19
 70
     1
102
RTVSPropertyOp20
 70
     1
102
RTVSPropertyOp21
 70
     1
102
RTVSPropertyOp22
 70
     1
102
RTVSPropertyOp23
 70
     1
102
RTVSPropertyOp24
 70
     1
102
RTVSPropertyOp25
 70
     1
102
RTVSPropertyOp26
 70
     1
102
RTVSPropertyOp27
 70
     1
102
RTVSPropertyOp28
 70
     1
102
RTVSPropertyOp29
 70
     1
102
RTVSPropertyOp30
 70
     1
102
RTVSPropertyOp31
 70
     1
102
RTVSPropertyOp32
 70
     1
102
RTVSPropertyOp33
 70
     1
102
RTVSPropertyOp34
 70
     1
102
RTVSPropertyOp35
 70
     1
102
RTVSPropertyOp36
 70
     1
102
RTVSPropertyOp37
 70
     1
102
RTVSPropertyOp38
 70
     1
102
RTVSPropertyOp39
 70
     1
102
RTVSPropertyOp40
 70
     1
102
RTVSPropertyOp41
 70
     1
102
RTVSPropertyOp42
 70
     1
102
RTVSPropertyOp43
 70
     1
102
RTVSPropertyOp44
 70
     1
102
RTVSPropertyOp45
 70
     1
102
RTVSPropertyOp46
 70
     1
102
RTVSPropertyOp47
 70
     1
102
RTVSPropertyOp48
 70
     1
102
RTVSPropertyOp49
 70
     1
102
RTVSPropertyOp50
 70
     1
102
RTVSPropertyOp51
 70
     0
102
RTVSPropertyOp52
 70
     0
102
RTVSPropertyOp53
 70
     1
102
RTVSPropertyOp54
 70
     1
102
RTVSPropertyOp55
 70
     1
102
RTVSPropertyOp56
 70
     1
102
RTVSPropertyOp57
 70
     1
102
RTVSPost2010Prop28
280
     0
102
RTVSPost2010PropOp28
 70
     1
102
RTVSPost2010Prop29
280
     1
102
RTVSPost2010PropOp29
 70
     1
102
RTVSPost2010Prop30
280
     1
102
RTVSPost2010PropOp30
 70
     1
102
RTVSPost2010Prop31
280
     0
102
RTVSPost2010PropOp31
 70
     1
102
RTVSPost2010Prop32
280
     0
102
RTVSPost2010PropOp32
 70
     1
102
RTVSPost2010Prop33
280
     0
102
RTVSPost2010PropOp33
 70
     1
102
RTVSPost2010Prop34
280
     0
102
RTVSPost2010PropOp34
 70
     1
102
RTVSPost2010Prop35
280
     0
102
RTVSPost2010PropOp35
 70
     1
102
RTVSPost2010Prop36
280
     0
102
RTVSPost2010PropOp36
 70
     1
102
RTVSPost2010Prop37
 90
       50
102
RTVSPost2010PropOp37
 70
     1
102
RTVSPost2010Prop38
140
0.0
102
RTVSPost2010PropOp38
 70
     1
102
RTVSPost2010Prop39
140
1.0
102
RTVSPost2010PropOp39
 70
     1
102
RTVSPost2010Prop40
 90
        0
102
RTVSPost2010PropOp40
 70
     1
102
RTVSPost2010Prop41ColorIndex
 90
       18
102
RTVSPost2010Prop41ColorRGB
 90
        0
102
RTVSPost2010PropOp41
 70
     1
102
RTVSPost2010Prop42
 90
       50
102
RTVSPost2010PropOp42
 70
     1
102
RTVSPost2010Prop43
 90
        3
102
RTVSPost2010PropOp43
 70
     1
102
RTVSPost2010Prop44ColorIndex
 90
        5
102
RTVSPost2010Prop44ColorRGB
 90
      255
102
RTVSPost2010PropOp44
 70
     1
102
RTVSPost2010Prop45
280
     0
102
RTVSPost2010PropOp45
 70
     1
102
RTVSPost2010Prop46
 90
       50
102
RTVSPost2010PropOp46
 70
     1
102
RTVSPost2010Prop47
 90
       50
102
RTVSPost2010PropOp47
 70
     1
102
RTVSPost2010Prop48
 90
       50
102
RTVSPost2010PropOp48
 70
     1
102
RTVSPost2010Prop49
280
     0
102
RTVSPost2010PropOp49
 70
     1
102
RTVSPost2010Prop50
 90
       50
102
RTVSPost2010PropOp50
 70
     1
102
RTVSPost2010Prop51ColorIndex
 90
      256
102
RTVSPost2010Prop51ColorRGB
 90
-16777216
102
RTVSPost2010PropOp51
 70
     0
102
RTVSPost2010Prop52
140
1.0
102
RTVSPost2010PropOp52
 70
     0
102
RTVSPost2010Prop53
 90
        2
102
RTVSPost2010PropOp53
 70
     1
102
RTVSPost2010Prop54
  1
strokes_ogs.tif
102
RTVSPost2010PropOp54
 70
     1
102
RTVSPost2010Prop55
280
     0
102
RTVSPost2010PropOp55
 70
     1
102
RTVSPost2010Prop56
140
1.0
102
RTVSPost2010PropOp56
 70
     1
102
RTVSPost2010Prop57
140
1.0
102
RTVSPost2010PropOp57
 70
     1
  0
XRECORD
  5
2C7
102
{ACAD_REACTORS
330
2C6
102
}
330
2C6
100
AcDbXrecord
280
     1
102
RTVSPropertyOp0
 70
     1
102
RTVSPropertyOp1
 70
     1
102
RTVSPropertyOp2
 70
     1
102
RTVSPropertyOp3
 70
     1
102
RTVSPropertyOp4
 70
     1
102
RTVSPropertyOp5
 70
     1
102
RTVSPropertyOp6
 70
     1
102
RTVSPropertyOp7
 70
     1
102
RTVSPropertyOp8
 70
     1
102
RTVSPropertyOp9
 70
     1
102
RTVSPropertyOp10
 70
     1
102
RTVSPropertyOp11
 70
     1
102
RTVSPropertyOp12
 70
     1
102
RTVSPropertyOp13
 70
     1
102
RTVSPropertyOp14
 70
     1
102
RTVSPropertyOp15
 70
     1
102
RTVSPropertyOp16
 70
     1
102
RTVSPropertyOp17
 70
     1
102
RTVSPropertyOp18
 70
     1
102
RTVSPropertyOp19
 70
     1
102
RTVSPropertyOp20
 70
     1
102
RTVSPropertyOp21
 70
     1
102
RTVSPropertyOp22
 70
     1
102
RTVSPropertyOp23
 70
     1
102
RTVSPropertyOp24
 70
     1
102
RTVSPropertyOp25
 70
     1
102
RTVSPropertyOp26
 70
     1
102
RTVSPropertyOp27
 70
     1
102
RTVSPropertyOp28
 70
     1
102
RTVSPropertyOp29
 70
     1
102
RTVSPropertyOp30
 70
     1
102
RTVSPropertyOp31
 70
     1
102
RTVSPropertyOp32
 70
     1
102
RTVSPropertyOp33
 70
     1
102
RTVSPropertyOp34
 70
     1
102
RTVSPropertyOp35
 70
     1
102
RTVSPropertyOp36
 70
     1
102
RTVSPropertyOp37
 70
     1
102
RTVSPropertyOp38
 70
     1
102
RTVSPropertyOp39
 70
     1
102
RTVSPropertyOp40
 70
     1
102
RTVSPropertyOp41
 70
     1
102
RTVSPropertyOp42
 70
     1
102
RTVSPropertyOp43
 70
     1
102
RTVSPropertyOp44
 70
     1
102
RTVSPropertyOp45
 70
     1
102
RTVSPropertyOp46
 70
     1
102
RTVSPropertyOp47
 70
     1
102
RTVSPropertyOp48
 70
     1
102
RTVSPropertyOp49
 70
     1
102
RTVSPropertyOp50
 70
     1
102
RTVSPropertyOp51
 70
     0
102
RTVSPropertyOp52
 70
     0
102
RTVSPropertyOp53
 70
     1
102
RTVSPropertyOp54
 70
     1
102
RTVSPropertyOp55
 70
     1
102
RTVSPropertyOp56
 70
     1
102
RTVSPropertyOp57
 70
     1
102
RTVSPost2010Prop28
280
     0
102
RTVSPost2010PropOp28
 70
     1
102
RTVSPost2010Prop29
280
     1
102
RTVSPost2010PropOp29
 70
     1
102
RTVSPost2010Prop30
280
     1
102
RTVSPost2010PropOp30
 70
     1
102
RTVSPost2010Prop31
280
     0
102
RTVSPost2010PropOp31
 70
     1
102
RTVSPost2010Prop32
280
     0
102
RTVSPost2010PropOp32
 70
     1
102
RTVSPost2010Prop33
280
     0
102
RTVSPost2010PropOp33
 70
     1
102
RTVSPost2010Prop34
280
     0
102
RTVSPost2010PropOp34
 70
     1
102
RTVSPost2010Prop35
280
     0
102
RTVSPost2010PropOp35
 70
     1
102
RTVSPost2010Prop36
280
     0
102
RTVSPost2010PropOp36
 70
     1
102
RTVSPost2010Prop37
 90
       50
102
RTVSPost2010PropOp37
 70
     1
102
RTVSPost2010Prop38
140
0.0
102
RTVSPost2010PropOp38
 70
     1
102
RTVSPost2010Prop39
140
1.0
102
RTVSPost2010PropOp39
 70
     1
102
RTVSPost2010Prop40
 90
        0
102
RTVSPost2010PropOp40
 70
     1
102
RTVSPost2010Prop41ColorIndex
 90
       18
102
RTVSPost2010Prop41ColorRGB
 90
        0
102
RTVSPost2010PropOp41
 70
     1
102
RTVSPost2010Prop42
 90
       50
102
RTVSPost2010PropOp42
 70
     1
102
RTVSPost2010Prop43
 90
        3
102
RTVSPost2010PropOp43
 70
     1
102
RTVSPost2010Prop44ColorIndex
 90
        5
102
RTVSPost2010Prop44ColorRGB
 90
      255
102
RTVSPost2010PropOp44
 70
     1
102
RTVSPost2010Prop45
280
     0
102
RTVSPost2010PropOp45
 70
     1
102
RTVSPost2010Prop46
 90
       50
102
RTVSPost2010PropOp46
 70
     1
102
RTVSPost2010Prop47
 90
       50
102
RTVSPost2010PropOp47
 70
     1
102
RTVSPost2010Prop48
 90
       50
102
RTVSPost2010PropOp48
 70
     1
102
RTVSPost2010Prop49
280
     0
102
RTVSPost2010PropOp49
 70
     1
102
RTVSPost2010Prop50
 90
       50
102
RTVSPost2010PropOp50
 70
     1
102
RTVSPost2010Prop51ColorIndex
 90
      256
102
RTVSPost2010Prop51ColorRGB
 90
-16777216
102
RTVSPost2010PropOp51
 70
     0
102
RTVSPost2010Prop52
140
1.0
102
RTVSPost2010PropOp52
 70
     0
102
RTVSPost2010Prop53
 90
        2
102
RTVSPost2010PropOp53
 70
     1
102
RTVSPost2010Prop54
  1
strokes_ogs.tif
102
RTVSPost2010PropOp54
 70
     1
102
RTVSPost2010Prop55
280
     0
102
RTVSPost2010PropOp55
 70
     1
102
RTVSPost2010Prop56
140
1.0
102
RTVSPost2010PropOp56
 70
     1
102
RTVSPost2010Prop57
140
1.0
102
RTVSPost2010PropOp57
 70
     1
  0
XRECORD
  5
2BB
102
{ACAD_REACTORS
330
2BA
102
}
330
2BA
100
AcDbXrecord
280
     1
102
RTVSPropertyOp0
 70
     1
102
RTVSPropertyOp1
 70
     1
102
RTVSPropertyOp2
 70
     1
102
RTVSPropertyOp3
 70
     1
102
RTVSPropertyOp4
 70
     1
102
RTVSPropertyOp5
 70
     1
102
RTVSPropertyOp6
 70
     1
102
RTVSPropertyOp7
 70
     1
102
RTVSPropertyOp8
 70
     1
102
RTVSPropertyOp9
 70
     1
102
RTVSPropertyOp10
 70
     1
102
RTVSPropertyOp11
 70
     1
102
RTVSPropertyOp12
 70
     1
102
RTVSPropertyOp13
 70
     1
102
RTVSPropertyOp14
 70
     1
102
RTVSPropertyOp15
 70
     1
102
RTVSPropertyOp16
 70
     1
102
RTVSPropertyOp17
 70
     1
102
RTVSPropertyOp18
 70
     1
102
RTVSPropertyOp19
 70
     1
102
RTVSPropertyOp20
 70
     1
102
RTVSPropertyOp21
 70
     1
102
RTVSPropertyOp22
 70
     1
102
RTVSPropertyOp23
 70
     1
102
RTVSPropertyOp24
 70
     1
102
RTVSPropertyOp25
 70
     1
102
RTVSPropertyOp26
 70
     1
102
RTVSPropertyOp27
 70
     1
102
RTVSPropertyOp28
 70
     1
102
RTVSPropertyOp29
 70
     1
102
RTVSPropertyOp30
 70
     1
102
RTVSPropertyOp31
 70
     1
102
RTVSPropertyOp32
 70
     1
102
RTVSPropertyOp33
 70
     1
102
RTVSPropertyOp34
 70
     1
102
RTVSPropertyOp35
 70
     1
102
RTVSPropertyOp36
 70
     1
102
RTVSPropertyOp37
 70
     1
102
RTVSPropertyOp38
 70
     1
102
RTVSPropertyOp39
 70
     1
102
RTVSPropertyOp40
 70
     1
102
RTVSPropertyOp41
 70
     1
102
RTVSPropertyOp42
 70
     1
102
RTVSPropertyOp43
 70
     1
102
RTVSPropertyOp44
 70
     1
102
RTVSPropertyOp45
 70
     1
102
RTVSPropertyOp46
 70
     1
102
RTVSPropertyOp47
 70
     1
102
RTVSPropertyOp48
 70
     1
102
RTVSPropertyOp49
 70
     1
102
RTVSPropertyOp50
 70
     1
102
RTVSPropertyOp51
 70
     0
102
RTVSPropertyOp52
 70
     0
102
RTVSPropertyOp53
 70
     1
102
RTVSPropertyOp54
 70
     1
102
RTVSPropertyOp55
 70
     1
102
RTVSPropertyOp56
 70
     1
102
RTVSPropertyOp57
 70
     1
102
RTVSPost2010Prop28
280
     0
102
RTVSPost2010PropOp28
 70
     1
102
RTVSPost2010Prop29
280
     1
102
RTVSPost2010PropOp29
 70
     1
102
RTVSPost2010Prop30
280
     1
102
RTVSPost2010PropOp30
 70
     1
102
RTVSPost2010Prop31
280
     0
102
RTVSPost2010PropOp31
 70
     1
102
RTVSPost2010Prop32
280
     0
102
RTVSPost2010PropOp32
 70
     1
102
RTVSPost2010Prop33
280
     0
102
RTVSPost2010PropOp33
 70
     1
102
RTVSPost2010Prop34
280
     0
102
RTVSPost2010PropOp34
 70
     1
102
RTVSPost2010Prop35
280
     0
102
RTVSPost2010PropOp35
 70
     1
102
RTVSPost2010Prop36
280
     0
102
RTVSPost2010PropOp36
 70
     1
102
RTVSPost2010Prop37
 90
       50
102
RTVSPost2010PropOp37
 70
     1
102
RTVSPost2010Prop38
140
0.0
102
RTVSPost2010PropOp38
 70
     1
102
RTVSPost2010Prop39
140
1.0
102
RTVSPost2010PropOp39
 70
     1
102
RTVSPost2010Prop40
 90
        0
102
RTVSPost2010PropOp40
 70
     1
102
RTVSPost2010Prop41ColorIndex
 90
       18
102
RTVSPost2010Prop41ColorRGB
 90
        0
102
RTVSPost2010PropOp41
 70
     1
102
RTVSPost2010Prop42
 90
       50
102
RTVSPost2010PropOp42
 70
     1
102
RTVSPost2010Prop43
 90
        3
102
RTVSPost2010PropOp43
 70
     1
102
RTVSPost2010Prop44ColorIndex
 90
        5
102
RTVSPost2010Prop44ColorRGB
 90
      255
102
RTVSPost2010PropOp44
 70
     1
102
RTVSPost2010Prop45
280
     0
102
RTVSPost2010PropOp45
 70
     1
102
RTVSPost2010Prop46
 90
       50
102
RTVSPost2010PropOp46
 70
     1
102
RTVSPost2010Prop47
 90
       50
102
RTVSPost2010PropOp47
 70
     1
102
RTVSPost2010Prop48
 90
       50
102
RTVSPost2010PropOp48
 70
     1
102
RTVSPost2010Prop49
280
     0
102
RTVSPost2010PropOp49
 70
     1
102
RTVSPost2010Prop50
 90
       50
102
RTVSPost2010PropOp50
 70
     1
102
RTVSPost2010Prop51ColorIndex
 90
      256
102
RTVSPost2010Prop51ColorRGB
 90
-16777216
102
RTVSPost2010PropOp51
 70
     0
102
RTVSPost2010Prop52
140
1.0
102
RTVSPost2010PropOp52
 70
     0
102
RTVSPost2010Prop53
 90
        2
102
RTVSPost2010PropOp53
 70
     1
102
RTVSPost2010Prop54
  1
strokes_ogs.tif
102
RTVSPost2010PropOp54
 70
     1
102
RTVSPost2010Prop55
280
     0
102
RTVSPost2010PropOp55
 70
     1
102
RTVSPost2010Prop56
140
1.0
102
RTVSPost2010PropOp56
 70
     1
102
RTVSPost2010Prop57
140
1.0
102
RTVSPost2010PropOp57
 70
     1
  0
XRECORD
  5
2BD
102
{ACAD_REACTORS
330
2BC
102
}
330
2BC
100
AcDbXrecord
280
     1
102
RTVSPropertyOp0
 70
     1
102
RTVSPropertyOp1
 70
     1
102
RTVSPropertyOp2
 70
     1
102
RTVSPropertyOp3
 70
     1
102
RTVSPropertyOp4
 70
     1
102
RTVSPropertyOp5
 70
     1
102
RTVSPropertyOp6
 70
     1
102
RTVSPropertyOp7
 70
     1
102
RTVSPropertyOp8
 70
     1
102
RTVSPropertyOp9
 70
     1
102
RTVSPropertyOp10
 70
     1
102
RTVSPropertyOp11
 70
     1
102
RTVSPropertyOp12
 70
     1
102
RTVSPropertyOp13
 70
     1
102
RTVSPropertyOp14
 70
     1
102
RTVSPropertyOp15
 70
     1
102
RTVSPropertyOp16
 70
     1
102
RTVSPropertyOp17
 70
     1
102
RTVSPropertyOp18
 70
     1
102
RTVSPropertyOp19
 70
     1
102
RTVSPropertyOp20
 70
     1
102
RTVSPropertyOp21
 70
     1
102
RTVSPropertyOp22
 70
     1
102
RTVSPropertyOp23
 70
     1
102
RTVSPropertyOp24
 70
     1
102
RTVSPropertyOp25
 70
     1
102
RTVSPropertyOp26
 70
     1
102
RTVSPropertyOp27
 70
     1
102
RTVSPropertyOp28
 70
     1
102
RTVSPropertyOp29
 70
     1
102
RTVSPropertyOp30
 70
     1
102
RTVSPropertyOp31
 70
     1
102
RTVSPropertyOp32
 70
     1
102
RTVSPropertyOp33
 70
     1
102
RTVSPropertyOp34
 70
     1
102
RTVSPropertyOp35
 70
     1
102
RTVSPropertyOp36
 70
     1
102
RTVSPropertyOp37
 70
     1
102
RTVSPropertyOp38
 70
     1
102
RTVSPropertyOp39
 70
     1
102
RTVSPropertyOp40
 70
     1
102
RTVSPropertyOp41
 70
     1
102
RTVSPropertyOp42
 70
     1
102
RTVSPropertyOp43
 70
     1
102
RTVSPropertyOp44
 70
     1
102
RTVSPropertyOp45
 70
     1
102
RTVSPropertyOp46
 70
     1
102
RTVSPropertyOp47
 70
     1
102
RTVSPropertyOp48
 70
     1
102
RTVSPropertyOp49
 70
     1
102
RTVSPropertyOp50
 70
     1
102
RTVSPropertyOp51
 70
     0
102
RTVSPropertyOp52
 70
     0
102
RTVSPropertyOp53
 70
     1
102
RTVSPropertyOp54
 70
     1
102
RTVSPropertyOp55
 70
     1
102
RTVSPropertyOp56
 70
     1
102
RTVSPropertyOp57
 70
     1
102
RTVSPost2010Prop28
280
     0
102
RTVSPost2010PropOp28
 70
     1
102
RTVSPost2010Prop29
280
     1
102
RTVSPost2010PropOp29
 70
     1
102
RTVSPost2010Prop30
280
     1
102
RTVSPost2010PropOp30
 70
     1
102
RTVSPost2010Prop31
280
     0
102
RTVSPost2010PropOp31
 70
     1
102
RTVSPost2010Prop32
280
     0
102
RTVSPost2010PropOp32
 70
     1
102
RTVSPost2010Prop33
280
     0
102
RTVSPost2010PropOp33
 70
     1
102
RTVSPost2010Prop34
280
     0
102
RTVSPost2010PropOp34
 70
     1
102
RTVSPost2010Prop35
280
     0
102
RTVSPost2010PropOp35
 70
     1
102
RTVSPost2010Prop36
280
     0
102
RTVSPost2010PropOp36
 70
     1
102
RTVSPost2010Prop37
 90
       50
102
RTVSPost2010PropOp37
 70
     1
102
RTVSPost2010Prop38
140
0.0
102
RTVSPost2010PropOp38
 70
     1
102
RTVSPost2010Prop39
140
1.0
102
RTVSPost2010PropOp39
 70
     1
102
RTVSPost2010Prop40
 90
        0
102
RTVSPost2010PropOp40
 70
     1
102
RTVSPost2010Prop41ColorIndex
 90
       18
102
RTVSPost2010Prop41ColorRGB
 90
        0
102
RTVSPost2010PropOp41
 70
     1
102
RTVSPost2010Prop42
 90
       50
102
RTVSPost2010PropOp42
 70
     1
102
RTVSPost2010Prop43
 90
        3
102
RTVSPost2010PropOp43
 70
     1
102
RTVSPost2010Prop44ColorIndex
 90
        5
102
RTVSPost2010Prop44ColorRGB
 90
      255
102
RTVSPost2010PropOp44
 70
     1
102
RTVSPost2010Prop45
280
     0
102
RTVSPost2010PropOp45
 70
     1
102
RTVSPost2010Prop46
 90
       50
102
RTVSPost2010PropOp46
 70
     1
102
RTVSPost2010Prop47
 90
       50
102
RTVSPost2010PropOp47
 70
     1
102
RTVSPost2010Prop48
 90
       50
102
RTVSPost2010PropOp48
 70
     1
102
RTVSPost2010Prop49
280
     0
102
RTVSPost2010PropOp49
 70
     1
102
RTVSPost2010Prop50
 90
       50
102
RTVSPost2010PropOp50
 70
     1
102
RTVSPost2010Prop51ColorIndex
 90
      256
102
RTVSPost2010Prop51ColorRGB
 90
-16777216
102
RTVSPost2010PropOp51
 70
     0
102
RTVSPost2010Prop52
140
1.0
102
RTVSPost2010PropOp52
 70
     0
102
RTVSPost2010Prop53
 90
        2
102
RTVSPost2010PropOp53
 70
     1
102
RTVSPost2010Prop54
  1
strokes_ogs.tif
102
RTVSPost2010PropOp54
 70
     1
102
RTVSPost2010Prop55
280
     0
102
RTVSPost2010PropOp55
 70
     1
102
RTVSPost2010Prop56
140
1.0
102
RTVSPost2010PropOp56
 70
     1
102
RTVSPost2010Prop57
140
1.0
102
RTVSPost2010PropOp57
 70
     1
  0
XRECORD
  5
2CD
102
{ACAD_REACTORS
330
2CC
102
}
330
2CC
100
AcDbXrecord
280
     1
102
RTVSPropertyOp0
 70
     0
102
RTVSPropertyOp1
 70
     0
102
RTVSPropertyOp2
 70
     0
102
RTVSPropertyOp3
 70
     0
102
RTVSPropertyOp4
 70
     0
102
RTVSPropertyOp5
 70
     0
102
RTVSPropertyOp6
 70
     0
102
RTVSPropertyOp7
 70
     0
102
RTVSPropertyOp8
 70
     0
102
RTVSPropertyOp9
 70
     0
102
RTVSPropertyOp10
 70
     0
102
RTVSPropertyOp11
 70
     0
102
RTVSPropertyOp12
 70
     0
102
RTVSPropertyOp13
 70
     0
102
RTVSPropertyOp14
 70
     2
102
RTVSPropertyOp15
 70
     0
102
RTVSPropertyOp16
 70
     0
102
RTVSPropertyOp17
 70
     0
102
RTVSPropertyOp18
 70
     0
102
RTVSPropertyOp19
 70
     0
102
RTVSPropertyOp20
 70
     0
102
RTVSPropertyOp21
 70
     0
102
RTVSPropertyOp22
 70
     0
102
RTVSPropertyOp23
 70
     0
102
RTVSPropertyOp24
 70
     0
102
RTVSPropertyOp25
 70
     0
102
RTVSPropertyOp26
 70
     0
102
RTVSPropertyOp27
 70
     0
102
RTVSPropertyOp28
 70
     0
102
RTVSPropertyOp29
 70
     0
102
RTVSPropertyOp30
 70
     0
102
RTVSPropertyOp31
 70
     0
102
RTVSPropertyOp32
 70
     0
102
RTVSPropertyOp33
 70
     0
102
RTVSPropertyOp34
 70
     0
102
RTVSPropertyOp35
 70
     0
102
RTVSPropertyOp36
 70
     0
102
RTVSPropertyOp37
 70
     0
102
RTVSPropertyOp38
 70
     0
102
RTVSPropertyOp39
 70
     0
102
RTVSPropertyOp40
 70
     0
102
RTVSPropertyOp41
 70
     0
102
RTVSPropertyOp42
 70
     0
102
RTVSPropertyOp43
 70
     0
102
RTVSPropertyOp44
 70
     0
102
RTVSPropertyOp45
 70
     0
102
RTVSPropertyOp46
 70
     0
102
RTVSPropertyOp47
 70
     0
102
RTVSPropertyOp48
 70
     0
102
RTVSPropertyOp49
 70
     0
102
RTVSPropertyOp50
 70
     0
102
RTVSPropertyOp51
 70
     0
102
RTVSPropertyOp52
 70
     0
102
RTVSPropertyOp53
 70
     0
102
RTVSPropertyOp54
 70
     0
102
RTVSPropertyOp55
 70
     0
102
RTVSPropertyOp56
 70
     0
102
RTVSPropertyOp57
 70
     0
102
RTVSPost2010Prop28
280
     0
102
RTVSPost2010PropOp28
 70
     0
102
RTVSPost2010Prop29
280
     1
102
RTVSPost2010PropOp29
 70
     0
102
RTVSPost2010Prop30
280
     1
102
RTVSPost2010PropOp30
 70
     0
102
RTVSPost2010Prop31
280
     0
102
RTVSPost2010PropOp31
 70
     0
102
RTVSPost2010Prop32
280
     0
102
RTVSPost2010PropOp32
 70
     0
102
RTVSPost2010Prop33
280
     0
102
RTVSPost2010PropOp33
 70
     0
102
RTVSPost2010Prop34
280
     0
102
RTVSPost2010PropOp34
 70
     0
102
RTVSPost2010Prop35
280
     0
102
RTVSPost2010PropOp35
 70
     0
102
RTVSPost2010Prop36
280
     0
102
RTVSPost2010PropOp36
 70
     0
102
RTVSPost2010Prop37
 90
       50
102
RTVSPost2010PropOp37
 70
     0
102
RTVSPost2010Prop38
140
0.0
102
RTVSPost2010PropOp38
 70
     0
102
RTVSPost2010Prop39
140
1.0
102
RTVSPost2010PropOp39
 70
     0
102
RTVSPost2010Prop40
 90
        0
102
RTVSPost2010PropOp40
 70
     0
102
RTVSPost2010Prop41ColorIndex
 90
       18
102
RTVSPost2010Prop41ColorRGB
 90
        0
102
RTVSPost2010PropOp41
 70
     0
102
RTVSPost2010Prop42
 90
       50
102
RTVSPost2010PropOp42
 70
     0
102
RTVSPost2010Prop43
 90
        3
102
RTVSPost2010PropOp43
 70
     0
102
RTVSPost2010Prop44ColorIndex
 90
        5
102
RTVSPost2010Prop44ColorRGB
 90
      255
102
RTVSPost2010PropOp44
 70
     0
102
RTVSPost2010Prop45
280
     0
102
RTVSPost2010PropOp45
 70
     0
102
RTVSPost2010Prop46
 90
       50
102
RTVSPost2010PropOp46
 70
     0
102
RTVSPost2010Prop47
 90
       50
102
RTVSPost2010PropOp47
 70
     0
102
RTVSPost2010Prop48
 90
       50
102
RTVSPost2010PropOp48
 70
     0
102
RTVSPost2010Prop49
280
     0
102
RTVSPost2010PropOp49
 70
     0
102
RTVSPost2010Prop50
 90
       50
102
RTVSPost2010PropOp50
 70
     0
102
RTVSPost2010Prop51ColorIndex
 90
      256
102
RTVSPost2010Prop51ColorRGB
 90
-16777216
102
RTVSPost2010PropOp51
 70
     0
102
RTVSPost2010Prop52
140
1.0
102
RTVSPost2010PropOp52
 70
     0
102
RTVSPost2010Prop53
 90
        2
102
RTVSPost2010PropOp53
 70
     0
102
RTVSPost2010Prop54
  1
strokes_ogs.tif
102
RTVSPost2010PropOp54
 70
     0
102
RTVSPost2010Prop55
280
     0
102
RTVSPost2010PropOp55
 70
     0
102
RTVSPost2010Prop56
140
1.0
102
RTVSPost2010PropOp56
 70
     0
102
RTVSPost2010Prop57
140
1.0
102
RTVSPost2010PropOp57
 70
     0
  0
XRECORD
  5
2C5
102
{ACAD_REACTORS
330
2C4
102
}
330
2C4
100
AcDbXrecord
280
     1
102
RTVSPropertyOp0
 70
     1
102
RTVSPropertyOp1
 70
     1
102
RTVSPropertyOp2
 70
     1
102
RTVSPropertyOp3
 70
     1
102
RTVSPropertyOp4
 70
     1
102
RTVSPropertyOp5
 70
     1
102
RTVSPropertyOp6
 70
     1
102
RTVSPropertyOp7
 70
     1
102
RTVSPropertyOp8
 70
     1
102
RTVSPropertyOp9
 70
     1
102
RTVSPropertyOp10
 70
     1
102
RTVSPropertyOp11
 70
     1
102
RTVSPropertyOp12
 70
     1
102
RTVSPropertyOp13
 70
     1
102
RTVSPropertyOp14
 70
     1
102
RTVSPropertyOp15
 70
     1
102
RTVSPropertyOp16
 70
     1
102
RTVSPropertyOp17
 70
     1
102
RTVSPropertyOp18
 70
     1
102
RTVSPropertyOp19
 70
     1
102
RTVSPropertyOp20
 70
     1
102
RTVSPropertyOp21
 70
     1
102
RTVSPropertyOp22
 70
     1
102
RTVSPropertyOp23
 70
     1
102
RTVSPropertyOp24
 70
     1
102
RTVSPropertyOp25
 70
     1
102
RTVSPropertyOp26
 70
     1
102
RTVSPropertyOp27
 70
     1
102
RTVSPropertyOp28
 70
     1
102
RTVSPropertyOp29
 70
     1
102
RTVSPropertyOp30
 70
     1
102
RTVSPropertyOp31
 70
     1
102
RTVSPropertyOp32
 70
     1
102
RTVSPropertyOp33
 70
     1
102
RTVSPropertyOp34
 70
     1
102
RTVSPropertyOp35
 70
     1
102
RTVSPropertyOp36
 70
     1
102
RTVSPropertyOp37
 70
     1
102
RTVSPropertyOp38
 70
     1
102
RTVSPropertyOp39
 70
     1
102
RTVSPropertyOp40
 70
     1
102
RTVSPropertyOp41
 70
     1
102
RTVSPropertyOp42
 70
     1
102
RTVSPropertyOp43
 70
     1
102
RTVSPropertyOp44
 70
     1
102
RTVSPropertyOp45
 70
     1
102
RTVSPropertyOp46
 70
     1
102
RTVSPropertyOp47
 70
     1
102
RTVSPropertyOp48
 70
     1
102
RTVSPropertyOp49
 70
     1
102
RTVSPropertyOp50
 70
     1
102
RTVSPropertyOp51
 70
     0
102
RTVSPropertyOp52
 70
     0
102
RTVSPropertyOp53
 70
     1
102
RTVSPropertyOp54
 70
     1
102
RTVSPropertyOp55
 70
     1
102
RTVSPropertyOp56
 70
     1
102
RTVSPropertyOp57
 70
     1
102
RTVSPost2010Prop28
280
     0
102
RTVSPost2010PropOp28
 70
     1
102
RTVSPost2010Prop29
280
     1
102
RTVSPost2010PropOp29
 70
     1
102
RTVSPost2010Prop30
280
     1
102
RTVSPost2010PropOp30
 70
     1
102
RTVSPost2010Prop31
280
     0
102
RTVSPost2010PropOp31
 70
     1
102
RTVSPost2010Prop32
280
     0
102
RTVSPost2010PropOp32
 70
     1
102
RTVSPost2010Prop33
280
     0
102
RTVSPost2010PropOp33
 70
     1
102
RTVSPost2010Prop34
280
     0
102
RTVSPost2010PropOp34
 70
     1
102
RTVSPost2010Prop35
280
     0
102
RTVSPost2010PropOp35
 70
     1
102
RTVSPost2010Prop36
280
     0
102
RTVSPost2010PropOp36
 70
     1
102
RTVSPost2010Prop37
 90
       50
102
RTVSPost2010PropOp37
 70
     1
102
RTVSPost2010Prop38
140
0.0
102
RTVSPost2010PropOp38
 70
     1
102
RTVSPost2010Prop39
140
1.0
102
RTVSPost2010PropOp39
 70
     1
102
RTVSPost2010Prop40
 90
        0
102
RTVSPost2010PropOp40
 70
     1
102
RTVSPost2010Prop41ColorIndex
 90
       18
102
RTVSPost2010Prop41ColorRGB
 90
        0
102
RTVSPost2010PropOp41
 70
     1
102
RTVSPost2010Prop42
 90
       50
102
RTVSPost2010PropOp42
 70
     1
102
RTVSPost2010Prop43
 90
        3
102
RTVSPost2010PropOp43
 70
     1
102
RTVSPost2010Prop44ColorIndex
 90
        5
102
RTVSPost2010Prop44ColorRGB
 90
      255
102
RTVSPost2010PropOp44
 70
     1
102
RTVSPost2010Prop45
280
     0
102
RTVSPost2010PropOp45
 70
     1
102
RTVSPost2010Prop46
 90
       50
102
RTVSPost2010PropOp46
 70
     1
102
RTVSPost2010Prop47
 90
       50
102
RTVSPost2010PropOp47
 70
     1
102
RTVSPost2010Prop48
 90
       50
102
RTVSPost2010PropOp48
 70
     1
102
RTVSPost2010Prop49
280
     0
102
RTVSPost2010PropOp49
 70
     1
102
RTVSPost2010Prop50
 90
       50
102
RTVSPost2010PropOp50
 70
     1
102
RTVSPost2010Prop51ColorIndex
 90
      256
102
RTVSPost2010Prop51ColorRGB
 90
-16777216
102
RTVSPost2010PropOp51
 70
     0
102
RTVSPost2010Prop52
140
1.0
102
RTVSPost2010PropOp52
 70
     0
102
RTVSPost2010Prop53
 90
        2
102
RTVSPost2010PropOp53
 70
     1
102
RTVSPost2010Prop54
  1
strokes_ogs.tif
102
RTVSPost2010PropOp54
 70
     1
102
RTVSPost2010Prop55
280
     0
102
RTVSPost2010PropOp55
 70
     1
102
RTVSPost2010Prop56
140
1.0
102
RTVSPost2010PropOp56
 70
     1
102
RTVSPost2010Prop57
140
1.0
102
RTVSPost2010PropOp57
 70
     1
  0
XRECORD
  5
2A9
102
{ACAD_REACTORS
330
2A8
102
}
330
2A8
100
AcDbXrecord
280
     1
102
RTVSPropertyOp0
 70
     1
102
RTVSPropertyOp1
 70
     1
102
RTVSPropertyOp2
 70
     1
102
RTVSPropertyOp3
 70
     1
102
RTVSPropertyOp4
 70
     1
102
RTVSPropertyOp5
 70
     1
102
RTVSPropertyOp6
 70
     1
102
RTVSPropertyOp7
 70
     1
102
RTVSPropertyOp8
 70
     1
102
RTVSPropertyOp9
 70
     1
102
RTVSPropertyOp10
 70
     1
102
RTVSPropertyOp11
 70
     1
102
RTVSPropertyOp12
 70
     1
102
RTVSPropertyOp13
 70
     1
102
RTVSPropertyOp14
 70
     1
102
RTVSPropertyOp15
 70
     1
102
RTVSPropertyOp16
 70
     1
102
RTVSPropertyOp17
 70
     1
102
RTVSPropertyOp18
 70
     1
102
RTVSPropertyOp19
 70
     1
102
RTVSPropertyOp20
 70
     1
102
RTVSPropertyOp21
 70
     1
102
RTVSPropertyOp22
 70
     1
102
RTVSPropertyOp23
 70
     1
102
RTVSPropertyOp24
 70
     1
102
RTVSPropertyOp25
 70
     1
102
RTVSPropertyOp26
 70
     1
102
RTVSPropertyOp27
 70
     1
102
RTVSPropertyOp28
 70
     1
102
RTVSPropertyOp29
 70
     1
102
RTVSPropertyOp30
 70
     1
102
RTVSPropertyOp31
 70
     1
102
RTVSPropertyOp32
 70
     1
102
RTVSPropertyOp33
 70
     1
102
RTVSPropertyOp34
 70
     1
102
RTVSPropertyOp35
 70
     1
102
RTVSPropertyOp36
 70
     1
102
RTVSPropertyOp37
 70
     1
102
RTVSPropertyOp38
 70
     1
102
RTVSPropertyOp39
 70
     1
102
RTVSPropertyOp40
 70
     1
102
RTVSPropertyOp41
 70
     1
102
RTVSPropertyOp42
 70
     1
102
RTVSPropertyOp43
 70
     1
102
RTVSPropertyOp44
 70
     1
102
RTVSPropertyOp45
 70
     1
102
RTVSPropertyOp46
 70
     1
102
RTVSPropertyOp47
 70
     1
102
RTVSPropertyOp48
 70
     1
102
RTVSPropertyOp49
 70
     1
102
RTVSPropertyOp50
 70
     1
102
RTVSPropertyOp51
 70
     0
102
RTVSPropertyOp52
 70
     0
102
RTVSPropertyOp53
 70
     1
102
RTVSPropertyOp54
 70
     1
102
RTVSPropertyOp55
 70
     1
102
RTVSPropertyOp56
 70
     1
102
RTVSPropertyOp57
 70
     1
102
RTVSPost2010Prop28
280
     0
102
RTVSPost2010PropOp28
 70
     1
102
RTVSPost2010Prop29
280
     1
102
RTVSPost2010PropOp29
 70
     1
102
RTVSPost2010Prop30
280
     1
102
RTVSPost2010PropOp30
 70
     1
102
RTVSPost2010Prop31
280
     0
102
RTVSPost2010PropOp31
 70
     1
102
RTVSPost2010Prop32
280
     0
102
RTVSPost2010PropOp32
 70
     1
102
RTVSPost2010Prop33
280
     0
102
RTVSPost2010PropOp33
 70
     1
102
RTVSPost2010Prop34
280
     0
102
RTVSPost2010PropOp34
 70
     1
102
RTVSPost2010Prop35
280
     0
102
RTVSPost2010PropOp35
 70
     1
102
RTVSPost2010Prop36
280
     0
102
RTVSPost2010PropOp36
 70
     1
102
RTVSPost2010Prop37
 90
       50
102
RTVSPost2010PropOp37
 70
     1
102
RTVSPost2010Prop38
140
0.0
102
RTVSPost2010PropOp38
 70
     1
102
RTVSPost2010Prop39
140
1.0
102
RTVSPost2010PropOp39
 70
     1
102
RTVSPost2010Prop40
 90
        0
102
RTVSPost2010PropOp40
 70
     1
102
RTVSPost2010Prop41ColorIndex
 90
       18
102
RTVSPost2010Prop41ColorRGB
 90
        0
102
RTVSPost2010PropOp41
 70
     1
102
RTVSPost2010Prop42
 90
       50
102
RTVSPost2010PropOp42
 70
     1
102
RTVSPost2010Prop43
 90
        3
102
RTVSPost2010PropOp43
 70
     1
102
RTVSPost2010Prop44ColorIndex
 90
        5
102
RTVSPost2010Prop44ColorRGB
 90
      255
102
RTVSPost2010PropOp44
 70
     1
102
RTVSPost2010Prop45
280
     0
102
RTVSPost2010PropOp45
 70
     1
102
RTVSPost2010Prop46
 90
       50
102
RTVSPost2010PropOp46
 70
     1
102
RTVSPost2010Prop47
 90
       50
102
RTVSPost2010PropOp47
 70
     1
102
RTVSPost2010Prop48
 90
       50
102
RTVSPost2010PropOp48
 70
     1
102
RTVSPost2010Prop49
280
     0
102
RTVSPost2010PropOp49
 70
     1
102
RTVSPost2010Prop50
 90
       50
102
RTVSPost2010PropOp50
 70
     1
102
RTVSPost2010Prop51ColorIndex
 90
      256
102
RTVSPost2010Prop51ColorRGB
 90
-16777216
102
RTVSPost2010PropOp51
 70
     0
102
RTVSPost2010Prop52
140
1.0
102
RTVSPost2010PropOp52
 70
     0
102
RTVSPost2010Prop53
 90
        2
102
RTVSPost2010PropOp53
 70
     1
102
RTVSPost2010Prop54
  1
strokes_ogs.tif
102
RTVSPost2010PropOp54
 70
     1
102
RTVSPost2010Prop55
280
     0
102
RTVSPost2010PropOp55
 70
     1
102
RTVSPost2010Prop56
140
1.0
102
RTVSPost2010PropOp56
 70
     1
102
RTVSPost2010Prop57
140
1.0
102
RTVSPost2010PropOp57
 70
     1
  0
XRECORD
  5
2AB
102
{ACAD_REACTORS
330
2AA
102
}
330
2AA
100
AcDbXrecord
280
     1
102
RTVSPropertyOp0
 70
     1
102
RTVSPropertyOp1
 70
     1
102
RTVSPropertyOp2
 70
     1
102
RTVSPropertyOp3
 70
     1
102
RTVSPropertyOp4
 70
     1
102
RTVSPropertyOp5
 70
     1
102
RTVSPropertyOp6
 70
     1
102
RTVSPropertyOp7
 70
     1
102
RTVSPropertyOp8
 70
     1
102
RTVSPropertyOp9
 70
     1
102
RTVSPropertyOp10
 70
     1
102
RTVSPropertyOp11
 70
     1
102
RTVSPropertyOp12
 70
     1
102
RTVSPropertyOp13
 70
     1
102
RTVSPropertyOp14
 70
     1
102
RTVSPropertyOp15
 70
     1
102
RTVSPropertyOp16
 70
     1
102
RTVSPropertyOp17
 70
     1
102
RTVSPropertyOp18
 70
     1
102
RTVSPropertyOp19
 70
     1
102
RTVSPropertyOp20
 70
     1
102
RTVSPropertyOp21
 70
     1
102
RTVSPropertyOp22
 70
     1
102
RTVSPropertyOp23
 70
     1
102
RTVSPropertyOp24
 70
     1
102
RTVSPropertyOp25
 70
     1
102
RTVSPropertyOp26
 70
     1
102
RTVSPropertyOp27
 70
     1
102
RTVSPropertyOp28
 70
     1
102
RTVSPropertyOp29
 70
     1
102
RTVSPropertyOp30
 70
     1
102
RTVSPropertyOp31
 70
     1
102
RTVSPropertyOp32
 70
     1
102
RTVSPropertyOp33
 70
     1
102
RTVSPropertyOp34
 70
     1
102
RTVSPropertyOp35
 70
     1
102
RTVSPropertyOp36
 70
     1
102
RTVSPropertyOp37
 70
     1
102
RTVSPropertyOp38
 70
     1
102
RTVSPropertyOp39
 70
     1
102
RTVSPropertyOp40
 70
     1
102
RTVSPropertyOp41
 70
     1
102
RTVSPropertyOp42
 70
     1
102
RTVSPropertyOp43
 70
     1
102
RTVSPropertyOp44
 70
     1
102
RTVSPropertyOp45
 70
     1
102
RTVSPropertyOp46
 70
     1
102
RTVSPropertyOp47
 70
     1
102
RTVSPropertyOp48
 70
     1
102
RTVSPropertyOp49
 70
     1
102
RTVSPropertyOp50
 70
     1
102
RTVSPropertyOp51
 70
     0
102
RTVSPropertyOp52
 70
     0
102
RTVSPropertyOp53
 70
     1
102
RTVSPropertyOp54
 70
     1
102
RTVSPropertyOp55
 70
     1
102
RTVSPropertyOp56
 70
     1
102
RTVSPropertyOp57
 70
     1
102
RTVSPost2010Prop28
280
     0
102
RTVSPost2010PropOp28
 70
     1
102
RTVSPost2010Prop29
280
     1
102
RTVSPost2010PropOp29
 70
     1
102
RTVSPost2010Prop30
280
     1
102
RTVSPost2010PropOp30
 70
     1
102
RTVSPost2010Prop31
280
     0
102
RTVSPost2010PropOp31
 70
     1
102
RTVSPost2010Prop32
280
     0
102
RTVSPost2010PropOp32
 70
     1
102
RTVSPost2010Prop33
280
     0
102
RTVSPost2010PropOp33
 70
     1
102
RTVSPost2010Prop34
280
     0
102
RTVSPost2010PropOp34
 70
     1
102
RTVSPost2010Prop35
280
     0
102
RTVSPost2010PropOp35
 70
     1
102
RTVSPost2010Prop36
280
     0
102
RTVSPost2010PropOp36
 70
     1
102
RTVSPost2010Prop37
 90
       50
102
RTVSPost2010PropOp37
 70
     1
102
RTVSPost2010Prop38
140
0.0
102
RTVSPost2010PropOp38
 70
     1
102
RTVSPost2010Prop39
140
1.0
102
RTVSPost2010PropOp39
 70
     1
102
RTVSPost2010Prop40
 90
        0
102
RTVSPost2010PropOp40
 70
     1
102
RTVSPost2010Prop41ColorIndex
 90
       18
102
RTVSPost2010Prop41ColorRGB
 90
        0
102
RTVSPost2010PropOp41
 70
     1
102
RTVSPost2010Prop42
 90
       50
102
RTVSPost2010PropOp42
 70
     1
102
RTVSPost2010Prop43
 90
        3
102
RTVSPost2010PropOp43
 70
     1
102
RTVSPost2010Prop44ColorIndex
 90
        5
102
RTVSPost2010Prop44ColorRGB
 90
      255
102
RTVSPost2010PropOp44
 70
     1
102
RTVSPost2010Prop45
280
     0
102
RTVSPost2010PropOp45
 70
     1
102
RTVSPost2010Prop46
 90
       50
102
RTVSPost2010PropOp46
 70
     1
102
RTVSPost2010Prop47
 90
       50
102
RTVSPost2010PropOp47
 70
     1
102
RTVSPost2010Prop48
 90
       50
102
RTVSPost2010PropOp48
 70
     1
102
RTVSPost2010Prop49
280
     0
102
RTVSPost2010PropOp49
 70
     1
102
RTVSPost2010Prop50
 90
       50
102
RTVSPost2010PropOp50
 70
     1
102
RTVSPost2010Prop51ColorIndex
 90
      256
102
RTVSPost2010Prop51ColorRGB
 90
-16777216
102
RTVSPost2010PropOp51
 70
     0
102
RTVSPost2010Prop52
140
1.0
102
RTVSPost2010PropOp52
 70
     0
102
RTVSPost2010Prop53
 90
        2
102
RTVSPost2010PropOp53
 70
     1
102
RTVSPost2010Prop54
  1
strokes_ogs.tif
102
RTVSPost2010PropOp54
 70
     1
102
RTVSPost2010Prop55
280
     0
102
RTVSPost2010PropOp55
 70
     1
102
RTVSPost2010Prop56
140
1.0
102
RTVSPost2010PropOp56
 70
     1
102
RTVSPost2010Prop57
140
1.0
102
RTVSPost2010PropOp57
 70
     1
  0
XRECORD
  5
2AD
102
{ACAD_REACTORS
330
2AC
102
}
330
2AC
100
AcDbXrecord
280
     1
102
RTVSPropertyOp0
 70
     1
102
RTVSPropertyOp1
 70
     1
102
RTVSPropertyOp2
 70
     1
102
RTVSPropertyOp3
 70
     1
102
RTVSPropertyOp4
 70
     1
102
RTVSPropertyOp5
 70
     1
102
RTVSPropertyOp6
 70
     1
102
RTVSPropertyOp7
 70
     1
102
RTVSPropertyOp8
 70
     1
102
RTVSPropertyOp9
 70
     1
102
RTVSPropertyOp10
 70
     1
102
RTVSPropertyOp11
 70
     1
102
RTVSPropertyOp12
 70
     1
102
RTVSPropertyOp13
 70
     1
102
RTVSPropertyOp14
 70
     1
102
RTVSPropertyOp15
 70
     1
102
RTVSPropertyOp16
 70
     1
102
RTVSPropertyOp17
 70
     1
102
RTVSPropertyOp18
 70
     1
102
RTVSPropertyOp19
 70
     1
102
RTVSPropertyOp20
 70
     1
102
RTVSPropertyOp21
 70
     1
102
RTVSPropertyOp22
 70
     1
102
RTVSPropertyOp23
 70
     1
102
RTVSPropertyOp24
 70
     1
102
RTVSPropertyOp25
 70
     1
102
RTVSPropertyOp26
 70
     1
102
RTVSPropertyOp27
 70
     1
102
RTVSPropertyOp28
 70
     1
102
RTVSPropertyOp29
 70
     1
102
RTVSPropertyOp30
 70
     1
102
RTVSPropertyOp31
 70
     1
102
RTVSPropertyOp32
 70
     1
102
RTVSPropertyOp33
 70
     1
102
RTVSPropertyOp34
 70
     1
102
RTVSPropertyOp35
 70
     1
102
RTVSPropertyOp36
 70
     1
102
RTVSPropertyOp37
 70
     1
102
RTVSPropertyOp38
 70
     1
102
RTVSPropertyOp39
 70
     1
102
RTVSPropertyOp40
 70
     1
102
RTVSPropertyOp41
 70
     1
102
RTVSPropertyOp42
 70
     1
102
RTVSPropertyOp43
 70
     1
102
RTVSPropertyOp44
 70
     1
102
RTVSPropertyOp45
 70
     1
102
RTVSPropertyOp46
 70
     1
102
RTVSPropertyOp47
 70
     1
102
RTVSPropertyOp48
 70
     1
102
RTVSPropertyOp49
 70
     1
102
RTVSPropertyOp50
 70
     1
102
RTVSPropertyOp51
 70
     0
102
RTVSPropertyOp52
 70
     0
102
RTVSPropertyOp53
 70
     1
102
RTVSPropertyOp54
 70
     1
102
RTVSPropertyOp55
 70
     1
102
RTVSPropertyOp56
 70
     1
102
RTVSPropertyOp57
 70
     1
102
RTVSPost2010Prop28
280
     0
102
RTVSPost2010PropOp28
 70
     1
102
RTVSPost2010Prop29
280
     1
102
RTVSPost2010PropOp29
 70
     1
102
RTVSPost2010Prop30
280
     1
102
RTVSPost2010PropOp30
 70
     1
102
RTVSPost2010Prop31
280
     0
102
RTVSPost2010PropOp31
 70
     1
102
RTVSPost2010Prop32
280
     0
102
RTVSPost2010PropOp32
 70
     1
102
RTVSPost2010Prop33
280
     0
102
RTVSPost2010PropOp33
 70
     1
102
RTVSPost2010Prop34
280
     0
102
RTVSPost2010PropOp34
 70
     1
102
RTVSPost2010Prop35
280
     0
102
RTVSPost2010PropOp35
 70
     1
102
RTVSPost2010Prop36
280
     0
102
RTVSPost2010PropOp36
 70
     1
102
RTVSPost2010Prop37
 90
       50
102
RTVSPost2010PropOp37
 70
     1
102
RTVSPost2010Prop38
140
0.0
102
RTVSPost2010PropOp38
 70
     1
102
RTVSPost2010Prop39
140
1.0
102
RTVSPost2010PropOp39
 70
     1
102
RTVSPost2010Prop40
 90
        0
102
RTVSPost2010PropOp40
 70
     1
102
RTVSPost2010Prop41ColorIndex
 90
       18
102
RTVSPost2010Prop41ColorRGB
 90
        0
102
RTVSPost2010PropOp41
 70
     1
102
RTVSPost2010Prop42
 90
       50
102
RTVSPost2010PropOp42
 70
     1
102
RTVSPost2010Prop43
 90
        3
102
RTVSPost2010PropOp43
 70
     1
102
RTVSPost2010Prop44ColorIndex
 90
        5
102
RTVSPost2010Prop44ColorRGB
 90
      255
102
RTVSPost2010PropOp44
 70
     1
102
RTVSPost2010Prop45
280
     0
102
RTVSPost2010PropOp45
 70
     1
102
RTVSPost2010Prop46
 90
       50
102
RTVSPost2010PropOp46
 70
     1
102
RTVSPost2010Prop47
 90
       50
102
RTVSPost2010PropOp47
 70
     1
102
RTVSPost2010Prop48
 90
       50
102
RTVSPost2010PropOp48
 70
     1
102
RTVSPost2010Prop49
280
     0
102
RTVSPost2010PropOp49
 70
     1
102
RTVSPost2010Prop50
 90
       50
102
RTVSPost2010PropOp50
 70
     1
102
RTVSPost2010Prop51ColorIndex
 90
      256
102
RTVSPost2010Prop51ColorRGB
 90
-16777216
102
RTVSPost2010PropOp51
 70
     0
102
RTVSPost2010Prop52
140
1.0
102
RTVSPost2010PropOp52
 70
     0
102
RTVSPost2010Prop53
 90
        2
102
RTVSPost2010PropOp53
 70
     1
102
RTVSPost2010Prop54
  1
strokes_ogs.tif
102
RTVSPost2010PropOp54
 70
     1
102
RTVSPost2010Prop55
280
     0
102
RTVSPost2010PropOp55
 70
     1
102
RTVSPost2010Prop56
140
1.0
102
RTVSPost2010PropOp56
 70
     1
102
RTVSPost2010Prop57
140
1.0
102
RTVSPost2010PropOp57
 70
     1
  0
XRECORD
  5
2AF
102
{ACAD_REACTORS
330
2AE
102
}
330
2AE
100
AcDbXrecord
280
     1
102
RTVSPropertyOp0
 70
     1
102
RTVSPropertyOp1
 70
     1
102
RTVSPropertyOp2
 70
     1
102
RTVSPropertyOp3
 70
     1
102
RTVSPropertyOp4
 70
     1
102
RTVSPropertyOp5
 70
     1
102
RTVSPropertyOp6
 70
     1
102
RTVSPropertyOp7
 70
     1
102
RTVSPropertyOp8
 70
     1
102
RTVSPropertyOp9
 70
     1
102
RTVSPropertyOp10
 70
     1
102
RTVSPropertyOp11
 70
     1
102
RTVSPropertyOp12
 70
     1
102
RTVSPropertyOp13
 70
     1
102
RTVSPropertyOp14
 70
     1
102
RTVSPropertyOp15
 70
     1
102
RTVSPropertyOp16
 70
     1
102
RTVSPropertyOp17
 70
     1
102
RTVSPropertyOp18
 70
     1
102
RTVSPropertyOp19
 70
     1
102
RTVSPropertyOp20
 70
     1
102
RTVSPropertyOp21
 70
     1
102
RTVSPropertyOp22
 70
     1
102
RTVSPropertyOp23
 70
     1
102
RTVSPropertyOp24
 70
     1
102
RTVSPropertyOp25
 70
     1
102
RTVSPropertyOp26
 70
     1
102
RTVSPropertyOp27
 70
     1
102
RTVSPropertyOp28
 70
     1
102
RTVSPropertyOp29
 70
     1
102
RTVSPropertyOp30
 70
     1
102
RTVSPropertyOp31
 70
     1
102
RTVSPropertyOp32
 70
     1
102
RTVSPropertyOp33
 70
     1
102
RTVSPropertyOp34
 70
     1
102
RTVSPropertyOp35
 70
     1
102
RTVSPropertyOp36
 70
     1
102
RTVSPropertyOp37
 70
     1
102
RTVSPropertyOp38
 70
     1
102
RTVSPropertyOp39
 70
     1
102
RTVSPropertyOp40
 70
     1
102
RTVSPropertyOp41
 70
     1
102
RTVSPropertyOp42
 70
     1
102
RTVSPropertyOp43
 70
     1
102
RTVSPropertyOp44
 70
     1
102
RTVSPropertyOp45
 70
     1
102
RTVSPropertyOp46
 70
     1
102
RTVSPropertyOp47
 70
     1
102
RTVSPropertyOp48
 70
     1
102
RTVSPropertyOp49
 70
     1
102
RTVSPropertyOp50
 70
     1
102
RTVSPropertyOp51
 70
     0
102
RTVSPropertyOp52
 70
     0
102
RTVSPropertyOp53
 70
     1
102
RTVSPropertyOp54
 70
     1
102
RTVSPropertyOp55
 70
     1
102
RTVSPropertyOp56
 70
     1
102
RTVSPropertyOp57
 70
     1
102
RTVSPost2010Prop28
280
     0
102
RTVSPost2010PropOp28
 70
     1
102
RTVSPost2010Prop29
280
     1
102
RTVSPost2010PropOp29
 70
     1
102
RTVSPost2010Prop30
280
     1
102
RTVSPost2010PropOp30
 70
     1
102
RTVSPost2010Prop31
280
     0
102
RTVSPost2010PropOp31
 70
     1
102
RTVSPost2010Prop32
280
     0
102
RTVSPost2010PropOp32
 70
     1
102
RTVSPost2010Prop33
280
     0
102
RTVSPost2010PropOp33
 70
     1
102
RTVSPost2010Prop34
280
     0
102
RTVSPost2010PropOp34
 70
     1
102
RTVSPost2010Prop35
280
     0
102
RTVSPost2010PropOp35
 70
     1
102
RTVSPost2010Prop36
280
     0
102
RTVSPost2010PropOp36
 70
     1
102
RTVSPost2010Prop37
 90
       50
102
RTVSPost2010PropOp37
 70
     1
102
RTVSPost2010Prop38
140
0.0
102
RTVSPost2010PropOp38
 70
     1
102
RTVSPost2010Prop39
140
1.0
102
RTVSPost2010PropOp39
 70
     1
102
RTVSPost2010Prop40
 90
        0
102
RTVSPost2010PropOp40
 70
     1
102
RTVSPost2010Prop41ColorIndex
 90
       18
102
RTVSPost2010Prop41ColorRGB
 90
        0
102
RTVSPost2010PropOp41
 70
     1
102
RTVSPost2010Prop42
 90
       50
102
RTVSPost2010PropOp42
 70
     1
102
RTVSPost2010Prop43
 90
        3
102
RTVSPost2010PropOp43
 70
     1
102
RTVSPost2010Prop44ColorIndex
 90
        5
102
RTVSPost2010Prop44ColorRGB
 90
      255
102
RTVSPost2010PropOp44
 70
     1
102
RTVSPost2010Prop45
280
     0
102
RTVSPost2010PropOp45
 70
     1
102
RTVSPost2010Prop46
 90
       50
102
RTVSPost2010PropOp46
 70
     1
102
RTVSPost2010Prop47
 90
       50
102
RTVSPost2010PropOp47
 70
     1
102
RTVSPost2010Prop48
 90
       50
102
RTVSPost2010PropOp48
 70
     1
102
RTVSPost2010Prop49
280
     0
102
RTVSPost2010PropOp49
 70
     1
102
RTVSPost2010Prop50
 90
       50
102
RTVSPost2010PropOp50
 70
     1
102
RTVSPost2010Prop51ColorIndex
 90
      256
102
RTVSPost2010Prop51ColorRGB
 90
-16777216
102
RTVSPost2010PropOp51
 70
     0
102
RTVSPost2010Prop52
140
1.0
102
RTVSPost2010PropOp52
 70
     0
102
RTVSPost2010Prop53
 90
        2
102
RTVSPost2010PropOp53
 70
     1
102
RTVSPost2010Prop54
  1
strokes_ogs.tif
102
RTVSPost2010PropOp54
 70
     1
102
RTVSPost2010Prop55
280
     0
102
RTVSPost2010PropOp55
 70
     1
102
RTVSPost2010Prop56
140
1.0
102
RTVSPost2010PropOp56
 70
     1
102
RTVSPost2010Prop57
140
1.0
102
RTVSPost2010PropOp57
 70
     1
  0
XRECORD
  5
2B5
102
{ACAD_REACTORS
330
2B4
102
}
330
2B4
100
AcDbXrecord
280
     1
102
RTVSPropertyOp0
 70
     1
102
RTVSPropertyOp1
 70
     1
102
RTVSPropertyOp2
 70
     1
102
RTVSPropertyOp3
 70
     1
102
RTVSPropertyOp4
 70
     1
102
RTVSPropertyOp5
 70
     1
102
RTVSPropertyOp6
 70
     1
102
RTVSPropertyOp7
 70
     1
102
RTVSPropertyOp8
 70
     1
102
RTVSPropertyOp9
 70
     1
102
RTVSPropertyOp10
 70
     1
102
RTVSPropertyOp11
 70
     1
102
RTVSPropertyOp12
 70
     1
102
RTVSPropertyOp13
 70
     1
102
RTVSPropertyOp14
 70
     1
102
RTVSPropertyOp15
 70
     1
102
RTVSPropertyOp16
 70
     1
102
RTVSPropertyOp17
 70
     1
102
RTVSPropertyOp18
 70
     1
102
RTVSPropertyOp19
 70
     1
102
RTVSPropertyOp20
 70
     1
102
RTVSPropertyOp21
 70
     1
102
RTVSPropertyOp22
 70
     1
102
RTVSPropertyOp23
 70
     1
102
RTVSPropertyOp24
 70
     1
102
RTVSPropertyOp25
 70
     1
102
RTVSPropertyOp26
 70
     1
102
RTVSPropertyOp27
 70
     1
102
RTVSPropertyOp28
 70
     1
102
RTVSPropertyOp29
 70
     1
102
RTVSPropertyOp30
 70
     1
102
RTVSPropertyOp31
 70
     1
102
RTVSPropertyOp32
 70
     1
102
RTVSPropertyOp33
 70
     1
102
RTVSPropertyOp34
 70
     1
102
RTVSPropertyOp35
 70
     1
102
RTVSPropertyOp36
 70
     1
102
RTVSPropertyOp37
 70
     1
102
RTVSPropertyOp38
 70
     1
102
RTVSPropertyOp39
 70
     1
102
RTVSPropertyOp40
 70
     1
102
RTVSPropertyOp41
 70
     1
102
RTVSPropertyOp42
 70
     1
102
RTVSPropertyOp43
 70
     1
102
RTVSPropertyOp44
 70
     1
102
RTVSPropertyOp45
 70
     1
102
RTVSPropertyOp46
 70
     1
102
RTVSPropertyOp47
 70
     1
102
RTVSPropertyOp48
 70
     1
102
RTVSPropertyOp49
 70
     1
102
RTVSPropertyOp50
 70
     1
102
RTVSPropertyOp51
 70
     0
102
RTVSPropertyOp52
 70
     0
102
RTVSPropertyOp53
 70
     1
102
RTVSPropertyOp54
 70
     1
102
RTVSPropertyOp55
 70
     1
102
RTVSPropertyOp56
 70
     1
102
RTVSPropertyOp57
 70
     1
102
RTVSPost2010Prop28
280
     0
102
RTVSPost2010PropOp28
 70
     1
102
RTVSPost2010Prop29
280
     1
102
RTVSPost2010PropOp29
 70
     1
102
RTVSPost2010Prop30
280
     1
102
RTVSPost2010PropOp30
 70
     1
102
RTVSPost2010Prop31
280
     0
102
RTVSPost2010PropOp31
 70
     1
102
RTVSPost2010Prop32
280
     0
102
RTVSPost2010PropOp32
 70
     1
102
RTVSPost2010Prop33
280
     0
102
RTVSPost2010PropOp33
 70
     1
102
RTVSPost2010Prop34
280
     0
102
RTVSPost2010PropOp34
 70
     1
102
RTVSPost2010Prop35
280
     0
102
RTVSPost2010PropOp35
 70
     1
102
RTVSPost2010Prop36
280
     0
102
RTVSPost2010PropOp36
 70
     1
102
RTVSPost2010Prop37
 90
       50
102
RTVSPost2010PropOp37
 70
     1
102
RTVSPost2010Prop38
140
0.0
102
RTVSPost2010PropOp38
 70
     1
102
RTVSPost2010Prop39
140
1.0
102
RTVSPost2010PropOp39
 70
     1
102
RTVSPost2010Prop40
 90
        0
102
RTVSPost2010PropOp40
 70
     1
102
RTVSPost2010Prop41ColorIndex
 90
       18
102
RTVSPost2010Prop41ColorRGB
 90
        0
102
RTVSPost2010PropOp41
 70
     1
102
RTVSPost2010Prop42
 90
       50
102
RTVSPost2010PropOp42
 70
     1
102
RTVSPost2010Prop43
 90
        3
102
RTVSPost2010PropOp43
 70
     1
102
RTVSPost2010Prop44ColorIndex
 90
        5
102
RTVSPost2010Prop44ColorRGB
 90
      255
102
RTVSPost2010PropOp44
 70
     1
102
RTVSPost2010Prop45
280
     0
102
RTVSPost2010PropOp45
 70
     1
102
RTVSPost2010Prop46
 90
       50
102
RTVSPost2010PropOp46
 70
     1
102
RTVSPost2010Prop47
 90
       50
102
RTVSPost2010PropOp47
 70
     1
102
RTVSPost2010Prop48
 90
       50
102
RTVSPost2010PropOp48
 70
     1
102
RTVSPost2010Prop49
280
     0
102
RTVSPost2010PropOp49
 70
     1
102
RTVSPost2010Prop50
 90
       50
102
RTVSPost2010PropOp50
 70
     1
102
RTVSPost2010Prop51ColorIndex
 90
      256
102
RTVSPost2010Prop51ColorRGB
 90
-16777216
102
RTVSPost2010PropOp51
 70
     0
102
RTVSPost2010Prop52
140
1.0
102
RTVSPost2010PropOp52
 70
     0
102
RTVSPost2010Prop53
 90
        2
102
RTVSPost2010PropOp53
 70
     1
102
RTVSPost2010Prop54
  1
strokes_ogs.tif
102
RTVSPost2010PropOp54
 70
     1
102
RTVSPost2010Prop55
280
     0
102
RTVSPost2010PropOp55
 70
     1
102
RTVSPost2010Prop56
140
1.0
102
RTVSPost2010PropOp56
 70
     1
102
RTVSPost2010Prop57
140
1.0
102
RTVSPost2010PropOp57
 70
     1
  0
XRECORD
  5
2C9
102
{ACAD_REACTORS
330
2C8
102
}
330
2C8
100
AcDbXrecord
280
     1
102
RTVSPropertyOp0
 70
     0
102
RTVSPropertyOp1
 70
     0
102
RTVSPropertyOp2
 70
     0
102
RTVSPropertyOp3
 70
     0
102
RTVSPropertyOp4
 70
     0
102
RTVSPropertyOp5
 70
     0
102
RTVSPropertyOp6
 70
     0
102
RTVSPropertyOp7
 70
     0
102
RTVSPropertyOp8
 70
     0
102
RTVSPropertyOp9
 70
     0
102
RTVSPropertyOp10
 70
     0
102
RTVSPropertyOp11
 70
     0
102
RTVSPropertyOp12
 70
     0
102
RTVSPropertyOp13
 70
     0
102
RTVSPropertyOp14
 70
     2
102
RTVSPropertyOp15
 70
     0
102
RTVSPropertyOp16
 70
     0
102
RTVSPropertyOp17
 70
     0
102
RTVSPropertyOp18
 70
     0
102
RTVSPropertyOp19
 70
     0
102
RTVSPropertyOp20
 70
     0
102
RTVSPropertyOp21
 70
     0
102
RTVSPropertyOp22
 70
     0
102
RTVSPropertyOp23
 70
     0
102
RTVSPropertyOp24
 70
     0
102
RTVSPropertyOp25
 70
     0
102
RTVSPropertyOp26
 70
     0
102
RTVSPropertyOp27
 70
     0
102
RTVSPropertyOp28
 70
     0
102
RTVSPropertyOp29
 70
     0
102
RTVSPropertyOp30
 70
     0
102
RTVSPropertyOp31
 70
     0
102
RTVSPropertyOp32
 70
     0
102
RTVSPropertyOp33
 70
     0
102
RTVSPropertyOp34
 70
     0
102
RTVSPropertyOp35
 70
     0
102
RTVSPropertyOp36
 70
     0
102
RTVSPropertyOp37
 70
     0
102
RTVSPropertyOp38
 70
     0
102
RTVSPropertyOp39
 70
     0
102
RTVSPropertyOp40
 70
     0
102
RTVSPropertyOp41
 70
     0
102
RTVSPropertyOp42
 70
     0
102
RTVSPropertyOp43
 70
     0
102
RTVSPropertyOp44
 70
     0
102
RTVSPropertyOp45
 70
     0
102
RTVSPropertyOp46
 70
     0
102
RTVSPropertyOp47
 70
     0
102
RTVSPropertyOp48
 70
     0
102
RTVSPropertyOp49
 70
     0
102
RTVSPropertyOp50
 70
     0
102
RTVSPropertyOp51
 70
     0
102
RTVSPropertyOp52
 70
     0
102
RTVSPropertyOp53
 70
     0
102
RTVSPropertyOp54
 70
     0
102
RTVSPropertyOp55
 70
     0
102
RTVSPropertyOp56
 70
     0
102
RTVSPropertyOp57
 70
     0
102
RTVSPost2010Prop28
280
     0
102
RTVSPost2010PropOp28
 70
     0
102
RTVSPost2010Prop29
280
     1
102
RTVSPost2010PropOp29
 70
     0
102
RTVSPost2010Prop30
280
     1
102
RTVSPost2010PropOp30
 70
     0
102
RTVSPost2010Prop31
280
     0
102
RTVSPost2010PropOp31
 70
     0
102
RTVSPost2010Prop32
280
     0
102
RTVSPost2010PropOp32
 70
     0
102
RTVSPost2010Prop33
280
     0
102
RTVSPost2010PropOp33
 70
     0
102
RTVSPost2010Prop34
280
     0
102
RTVSPost2010PropOp34
 70
     0
102
RTVSPost2010Prop35
280
     0
102
RTVSPost2010PropOp35
 70
     0
102
RTVSPost2010Prop36
280
     0
102
RTVSPost2010PropOp36
 70
     0
102
RTVSPost2010Prop37
 90
       50
102
RTVSPost2010PropOp37
 70
     0
102
RTVSPost2010Prop38
140
0.0
102
RTVSPost2010PropOp38
 70
     0
102
RTVSPost2010Prop39
140
1.0
102
RTVSPost2010PropOp39
 70
     0
102
RTVSPost2010Prop40
 90
        0
102
RTVSPost2010PropOp40
 70
     0
102
RTVSPost2010Prop41ColorIndex
 90
       18
102
RTVSPost2010Prop41ColorRGB
 90
        0
102
RTVSPost2010PropOp41
 70
     0
102
RTVSPost2010Prop42
 90
       50
102
RTVSPost2010PropOp42
 70
     0
102
RTVSPost2010Prop43
 90
        3
102
RTVSPost2010PropOp43
 70
     0
102
RTVSPost2010Prop44ColorIndex
 90
        5
102
RTVSPost2010Prop44ColorRGB
 90
      255
102
RTVSPost2010PropOp44
 70
     0
102
RTVSPost2010Prop45
280
     0
102
RTVSPost2010PropOp45
 70
     0
102
RTVSPost2010Prop46
 90
       50
102
RTVSPost2010PropOp46
 70
     0
102
RTVSPost2010Prop47
 90
       50
102
RTVSPost2010PropOp47
 70
     0
102
RTVSPost2010Prop48
 90
       50
102
RTVSPost2010PropOp48
 70
     0
102
RTVSPost2010Prop49
280
     0
102
RTVSPost2010PropOp49
 70
     0
102
RTVSPost2010Prop50
 90
       50
102
RTVSPost2010PropOp50
 70
     0
102
RTVSPost2010Prop51ColorIndex
 90
      256
102
RTVSPost2010Prop51ColorRGB
 90
-16777216
102
RTVSPost2010PropOp51
 70
     0
102
RTVSPost2010Prop52
140
1.0
102
RTVSPost2010PropOp52
 70
     0
102
RTVSPost2010Prop53
 90
        2
102
RTVSPost2010PropOp53
 70
     0
102
RTVSPost2010Prop54
  1
strokes_ogs.tif
102
RTVSPost2010PropOp54
 70
     0
102
RTVSPost2010Prop55
280
     0
102
RTVSPost2010PropOp55
 70
     0
102
RTVSPost2010Prop56
140
1.0
102
RTVSPost2010PropOp56
 70
     0
102
RTVSPost2010Prop57
140
1.0
102
RTVSPost2010PropOp57
 70
     0
  0
XRECORD
  5
2C3
102
{ACAD_REACTORS
330
2C2
102
}
330
2C2
100
AcDbXrecord
280
     1
102
RTVSPropertyOp0
 70
     1
102
RTVSPropertyOp1
 70
     1
102
RTVSPropertyOp2
 70
     1
102
RTVSPropertyOp3
 70
     1
102
RTVSPropertyOp4
 70
     1
102
RTVSPropertyOp5
 70
     1
102
RTVSPropertyOp6
 70
     1
102
RTVSPropertyOp7
 70
     1
102
RTVSPropertyOp8
 70
     1
102
RTVSPropertyOp9
 70
     1
102
RTVSPropertyOp10
 70
     1
102
RTVSPropertyOp11
 70
     1
102
RTVSPropertyOp12
 70
     1
102
RTVSPropertyOp13
 70
     1
102
RTVSPropertyOp14
 70
     1
102
RTVSPropertyOp15
 70
     1
102
RTVSPropertyOp16
 70
     1
102
RTVSPropertyOp17
 70
     1
102
RTVSPropertyOp18
 70
     1
102
RTVSPropertyOp19
 70
     1
102
RTVSPropertyOp20
 70
     1
102
RTVSPropertyOp21
 70
     1
102
RTVSPropertyOp22
 70
     1
102
RTVSPropertyOp23
 70
     1
102
RTVSPropertyOp24
 70
     1
102
RTVSPropertyOp25
 70
     1
102
RTVSPropertyOp26
 70
     1
102
RTVSPropertyOp27
 70
     1
102
RTVSPropertyOp28
 70
     1
102
RTVSPropertyOp29
 70
     1
102
RTVSPropertyOp30
 70
     1
102
RTVSPropertyOp31
 70
     1
102
RTVSPropertyOp32
 70
     1
102
RTVSPropertyOp33
 70
     1
102
RTVSPropertyOp34
 70
     1
102
RTVSPropertyOp35
 70
     1
102
RTVSPropertyOp36
 70
     1
102
RTVSPropertyOp37
 70
     1
102
RTVSPropertyOp38
 70
     1
102
RTVSPropertyOp39
 70
     1
102
RTVSPropertyOp40
 70
     1
102
RTVSPropertyOp41
 70
     1
102
RTVSPropertyOp42
 70
     1
102
RTVSPropertyOp43
 70
     1
102
RTVSPropertyOp44
 70
     1
102
RTVSPropertyOp45
 70
     1
102
RTVSPropertyOp46
 70
     1
102
RTVSPropertyOp47
 70
     1
102
RTVSPropertyOp48
 70
     1
102
RTVSPropertyOp49
 70
     1
102
RTVSPropertyOp50
 70
     1
102
RTVSPropertyOp51
 70
     0
102
RTVSPropertyOp52
 70
     0
102
RTVSPropertyOp53
 70
     1
102
RTVSPropertyOp54
 70
     1
102
RTVSPropertyOp55
 70
     1
102
RTVSPropertyOp56
 70
     1
102
RTVSPropertyOp57
 70
     1
102
RTVSPost2010Prop28
280
     0
102
RTVSPost2010PropOp28
 70
     1
102
RTVSPost2010Prop29
280
     1
102
RTVSPost2010PropOp29
 70
     1
102
RTVSPost2010Prop30
280
     1
102
RTVSPost2010PropOp30
 70
     1
102
RTVSPost2010Prop31
280
     0
102
RTVSPost2010PropOp31
 70
     1
102
RTVSPost2010Prop32
280
     0
102
RTVSPost2010PropOp32
 70
     1
102
RTVSPost2010Prop33
280
     0
102
RTVSPost2010PropOp33
 70
     1
102
RTVSPost2010Prop34
280
     0
102
RTVSPost2010PropOp34
 70
     1
102
RTVSPost2010Prop35
280
     0
102
RTVSPost2010PropOp35
 70
     1
102
RTVSPost2010Prop36
280
     0
102
RTVSPost2010PropOp36
 70
     1
102
RTVSPost2010Prop37
 90
       50
102
RTVSPost2010PropOp37
 70
     1
102
RTVSPost2010Prop38
140
0.0
102
RTVSPost2010PropOp38
 70
     1
102
RTVSPost2010Prop39
140
1.0
102
RTVSPost2010PropOp39
 70
     1
102
RTVSPost2010Prop40
 90
        0
102
RTVSPost2010PropOp40
 70
     1
102
RTVSPost2010Prop41ColorIndex
 90
       18
102
RTVSPost2010Prop41ColorRGB
 90
        0
102
RTVSPost2010PropOp41
 70
     1
102
RTVSPost2010Prop42
 90
       50
102
RTVSPost2010PropOp42
 70
     1
102
RTVSPost2010Prop43
 90
        3
102
RTVSPost2010PropOp43
 70
     1
102
RTVSPost2010Prop44ColorIndex
 90
        5
102
RTVSPost2010Prop44ColorRGB
 90
      255
102
RTVSPost2010PropOp44
 70
     1
102
RTVSPost2010Prop45
280
     0
102
RTVSPost2010PropOp45
 70
     1
102
RTVSPost2010Prop46
 90
       50
102
RTVSPost2010PropOp46
 70
     1
102
RTVSPost2010Prop47
 90
       50
102
RTVSPost2010PropOp47
 70
     1
102
RTVSPost2010Prop48
 90
       50
102
RTVSPost2010PropOp48
 70
     1
102
RTVSPost2010Prop49
280
     0
102
RTVSPost2010PropOp49
 70
     1
102
RTVSPost2010Prop50
 90
       50
102
RTVSPost2010PropOp50
 70
     1
102
RTVSPost2010Prop51ColorIndex
 90
      256
102
RTVSPost2010Prop51ColorRGB
 90
-16777216
102
RTVSPost2010PropOp51
 70
     0
102
RTVSPost2010Prop52
140
1.0
102
RTVSPost2010PropOp52
 70
     0
102
RTVSPost2010Prop53
 90
        2
102
RTVSPost2010PropOp53
 70
     1
102
RTVSPost2010Prop54
  1
strokes_ogs.tif
102
RTVSPost2010PropOp54
 70
     1
102
RTVSPost2010Prop55
280
     0
102
RTVSPost2010PropOp55
 70
     1
102
RTVSPost2010Prop56
140
1.0
102
RTVSPost2010PropOp56
 70
     1
102
RTVSPost2010Prop57
140
1.0
102
RTVSPost2010PropOp57
 70
     1
  0
XRECORD
  5
2CB
102
{ACAD_REACTORS
330
2CA
102
}
330
2CA
100
AcDbXrecord
280
     1
102
RTVSPropertyOp0
 70
     0
102
RTVSPropertyOp1
 70
     0
102
RTVSPropertyOp2
 70
     0
102
RTVSPropertyOp3
 70
     0
102
RTVSPropertyOp4
 70
     0
102
RTVSPropertyOp5
 70
     0
102
RTVSPropertyOp6
 70
     0
102
RTVSPropertyOp7
 70
     0
102
RTVSPropertyOp8
 70
     0
102
RTVSPropertyOp9
 70
     0
102
RTVSPropertyOp10
 70
     0
102
RTVSPropertyOp11
 70
     0
102
RTVSPropertyOp12
 70
     0
102
RTVSPropertyOp13
 70
     0
102
RTVSPropertyOp14
 70
     2
102
RTVSPropertyOp15
 70
     0
102
RTVSPropertyOp16
 70
     0
102
RTVSPropertyOp17
 70
     0
102
RTVSPropertyOp18
 70
     0
102
RTVSPropertyOp19
 70
     0
102
RTVSPropertyOp20
 70
     0
102
RTVSPropertyOp21
 70
     0
102
RTVSPropertyOp22
 70
     0
102
RTVSPropertyOp23
 70
     0
102
RTVSPropertyOp24
 70
     0
102
RTVSPropertyOp25
 70
     0
102
RTVSPropertyOp26
 70
     0
102
RTVSPropertyOp27
 70
     0
102
RTVSPropertyOp28
 70
     0
102
RTVSPropertyOp29
 70
     0
102
RTVSPropertyOp30
 70
     0
102
RTVSPropertyOp31
 70
     0
102
RTVSPropertyOp32
 70
     0
102
RTVSPropertyOp33
 70
     0
102
RTVSPropertyOp34
 70
     0
102
RTVSPropertyOp35
 70
     0
102
RTVSPropertyOp36
 70
     0
102
RTVSPropertyOp37
 70
     0
102
RTVSPropertyOp38
 70
     0
102
RTVSPropertyOp39
 70
     0
102
RTVSPropertyOp40
 70
     0
102
RTVSPropertyOp41
 70
     0
102
RTVSPropertyOp42
 70
     0
102
RTVSPropertyOp43
 70
     0
102
RTVSPropertyOp44
 70
     0
102
RTVSPropertyOp45
 70
     0
102
RTVSPropertyOp46
 70
     0
102
RTVSPropertyOp47
 70
     0
102
RTVSPropertyOp48
 70
     0
102
RTVSPropertyOp49
 70
     0
102
RTVSPropertyOp50
 70
     0
102
RTVSPropertyOp51
 70
     0
102
RTVSPropertyOp52
 70
     0
102
RTVSPropertyOp53
 70
     0
102
RTVSPropertyOp54
 70
     0
102
RTVSPropertyOp55
 70
     0
102
RTVSPropertyOp56
 70
     0
102
RTVSPropertyOp57
 70
     0
102
RTVSPost2010Prop28
280
     0
102
RTVSPost2010PropOp28
 70
     0
102
RTVSPost2010Prop29
280
     1
102
RTVSPost2010PropOp29
 70
     0
102
RTVSPost2010Prop30
280
     1
102
RTVSPost2010PropOp30
 70
     0
102
RTVSPost2010Prop31
280
     0
102
RTVSPost2010PropOp31
 70
     0
102
RTVSPost2010Prop32
280
     0
102
RTVSPost2010PropOp32
 70
     0
102
RTVSPost2010Prop33
280
     0
102
RTVSPost2010PropOp33
 70
     0
102
RTVSPost2010Prop34
280
     0
102
RTVSPost2010PropOp34
 70
     0
102
RTVSPost2010Prop35
280
     0
102
RTVSPost2010PropOp35
 70
     0
102
RTVSPost2010Prop36
280
     0
102
RTVSPost2010PropOp36
 70
     0
102
RTVSPost2010Prop37
 90
       50
102
RTVSPost2010PropOp37
 70
     0
102
RTVSPost2010Prop38
140
0.0
102
RTVSPost2010PropOp38
 70
     0
102
RTVSPost2010Prop39
140
1.0
102
RTVSPost2010PropOp39
 70
     0
102
RTVSPost2010Prop40
 90
        0
102
RTVSPost2010PropOp40
 70
     0
102
RTVSPost2010Prop41ColorIndex
 90
       18
102
RTVSPost2010Prop41ColorRGB
 90
        0
102
RTVSPost2010PropOp41
 70
     0
102
RTVSPost2010Prop42
 90
       50
102
RTVSPost2010PropOp42
 70
     0
102
RTVSPost2010Prop43
 90
        3
102
RTVSPost2010PropOp43
 70
     0
102
RTVSPost2010Prop44ColorIndex
 90
        5
102
RTVSPost2010Prop44ColorRGB
 90
      255
102
RTVSPost2010PropOp44
 70
     0
102
RTVSPost2010Prop45
280
     0
102
RTVSPost2010PropOp45
 70
     0
102
RTVSPost2010Prop46
 90
       50
102
RTVSPost2010PropOp46
 70
     0
102
RTVSPost2010Prop47
 90
       50
102
RTVSPost2010PropOp47
 70
     0
102
RTVSPost2010Prop48
 90
       50
102
RTVSPost2010PropOp48
 70
     0
102
RTVSPost2010Prop49
280
     0
102
RTVSPost2010PropOp49
 70
     0
102
RTVSPost2010Prop50
 90
       50
102
RTVSPost2010PropOp50
 70
     0
102
RTVSPost2010Prop51ColorIndex
 90
      256
102
RTVSPost2010Prop51ColorRGB
 90
-16777216
102
RTVSPost2010PropOp51
 70
     0
102
RTVSPost2010Prop52
140
1.0
102
RTVSPost2010PropOp52
 70
     0
102
RTVSPost2010Prop53
 90
        2
102
RTVSPost2010PropOp53
 70
     0
102
RTVSPost2010Prop54
  1
strokes_ogs.tif
102
RTVSPost2010PropOp54
 70
     0
102
RTVSPost2010Prop55
280
     0
102
RTVSPost2010PropOp55
 70
     0
102
RTVSPost2010Prop56
140
1.0
102
RTVSPost2010PropOp56
 70
     0
102
RTVSPost2010Prop57
140
1.0
102
RTVSPost2010PropOp57
 70
     0
  0
XRECORD
  5
2B9
102
{ACAD_REACTORS
330
2B8
102
}
330
2B8
100
AcDbXrecord
280
     1
102
RTVSPropertyOp0
 70
     1
102
RTVSPropertyOp1
 70
     1
102
RTVSPropertyOp2
 70
     1
102
RTVSPropertyOp3
 70
     1
102
RTVSPropertyOp4
 70
     1
102
RTVSPropertyOp5
 70
     1
102
RTVSPropertyOp6
 70
     1
102
RTVSPropertyOp7
 70
     1
102
RTVSPropertyOp8
 70
     1
102
RTVSPropertyOp9
 70
     1
102
RTVSPropertyOp10
 70
     1
102
RTVSPropertyOp11
 70
     1
102
RTVSPropertyOp12
 70
     1
102
RTVSPropertyOp13
 70
     1
102
RTVSPropertyOp14
 70
     1
102
RTVSPropertyOp15
 70
     1
102
RTVSPropertyOp16
 70
     1
102
RTVSPropertyOp17
 70
     1
102
RTVSPropertyOp18
 70
     1
102
RTVSPropertyOp19
 70
     1
102
RTVSPropertyOp20
 70
     1
102
RTVSPropertyOp21
 70
     1
102
RTVSPropertyOp22
 70
     1
102
RTVSPropertyOp23
 70
     1
102
RTVSPropertyOp24
 70
     1
102
RTVSPropertyOp25
 70
     1
102
RTVSPropertyOp26
 70
     1
102
RTVSPropertyOp27
 70
     1
102
RTVSPropertyOp28
 70
     1
102
RTVSPropertyOp29
 70
     1
102
RTVSPropertyOp30
 70
     1
102
RTVSPropertyOp31
 70
     1
102
RTVSPropertyOp32
 70
     1
102
RTVSPropertyOp33
 70
     1
102
RTVSPropertyOp34
 70
     1
102
RTVSPropertyOp35
 70
     1
102
RTVSPropertyOp36
 70
     1
102
RTVSPropertyOp37
 70
     1
102
RTVSPropertyOp38
 70
     1
102
RTVSPropertyOp39
 70
     1
102
RTVSPropertyOp40
 70
     1
102
RTVSPropertyOp41
 70
     1
102
RTVSPropertyOp42
 70
     1
102
RTVSPropertyOp43
 70
     1
102
RTVSPropertyOp44
 70
     1
102
RTVSPropertyOp45
 70
     1
102
RTVSPropertyOp46
 70
     1
102
RTVSPropertyOp47
 70
     1
102
RTVSPropertyOp48
 70
     1
102
RTVSPropertyOp49
 70
     1
102
RTVSPropertyOp50
 70
     1
102
RTVSPropertyOp51
 70
     0
102
RTVSPropertyOp52
 70
     0
102
RTVSPropertyOp53
 70
     1
102
RTVSPropertyOp54
 70
     1
102
RTVSPropertyOp55
 70
     1
102
RTVSPropertyOp56
 70
     1
102
RTVSPropertyOp57
 70
     1
102
RTVSPost2010Prop28
280
     0
102
RTVSPost2010PropOp28
 70
     1
102
RTVSPost2010Prop29
280
     1
102
RTVSPost2010PropOp29
 70
     1
102
RTVSPost2010Prop30
280
     1
102
RTVSPost2010PropOp30
 70
     1
102
RTVSPost2010Prop31
280
     0
102
RTVSPost2010PropOp31
 70
     1
102
RTVSPost2010Prop32
280
     0
102
RTVSPost2010PropOp32
 70
     1
102
RTVSPost2010Prop33
280
     0
102
RTVSPost2010PropOp33
 70
     1
102
RTVSPost2010Prop34
280
     0
102
RTVSPost2010PropOp34
 70
     1
102
RTVSPost2010Prop35
280
     0
102
RTVSPost2010PropOp35
 70
     1
102
RTVSPost2010Prop36
280
     0
102
RTVSPost2010PropOp36
 70
     1
102
RTVSPost2010Prop37
 90
       50
102
RTVSPost2010PropOp37
 70
     1
102
RTVSPost2010Prop38
140
0.0
102
RTVSPost2010PropOp38
 70
     1
102
RTVSPost2010Prop39
140
1.0
102
RTVSPost2010PropOp39
 70
     1
102
RTVSPost2010Prop40
 90
        0
102
RTVSPost2010PropOp40
 70
     1
102
RTVSPost2010Prop41ColorIndex
 90
       18
102
RTVSPost2010Prop41ColorRGB
 90
        0
102
RTVSPost2010PropOp41
 70
     1
102
RTVSPost2010Prop42
 90
       50
102
RTVSPost2010PropOp42
 70
     1
102
RTVSPost2010Prop43
 90
        3
102
RTVSPost2010PropOp43
 70
     1
102
RTVSPost2010Prop44ColorIndex
 90
        5
102
RTVSPost2010Prop44ColorRGB
 90
      255
102
RTVSPost2010PropOp44
 70
     1
102
RTVSPost2010Prop45
280
     0
102
RTVSPost2010PropOp45
 70
     1
102
RTVSPost2010Prop46
 90
       50
102
RTVSPost2010PropOp46
 70
     1
102
RTVSPost2010Prop47
 90
       50
102
RTVSPost2010PropOp47
 70
     1
102
RTVSPost2010Prop48
 90
       50
102
RTVSPost2010PropOp48
 70
     1
102
RTVSPost2010Prop49
280
     0
102
RTVSPost2010PropOp49
 70
     1
102
RTVSPost2010Prop50
 90
       50
102
RTVSPost2010PropOp50
 70
     1
102
RTVSPost2010Prop51ColorIndex
 90
      256
102
RTVSPost2010Prop51ColorRGB
 90
-16777216
102
RTVSPost2010PropOp51
 70
     0
102
RTVSPost2010Prop52
140
1.0
102
RTVSPost2010PropOp52
 70
     0
102
RTVSPost2010Prop53
 90
        2
102
RTVSPost2010PropOp53
 70
     1
102
RTVSPost2010Prop54
  1
strokes_ogs.tif
102
RTVSPost2010PropOp54
 70
     1
102
RTVSPost2010Prop55
280
     0
102
RTVSPost2010PropOp55
 70
     1
102
RTVSPost2010Prop56
140
1.0
102
RTVSPost2010PropOp56
 70
     1
102
RTVSPost2010Prop57
140
1.0
102
RTVSPost2010PropOp57
 70
     1
  0
XRECORD
  5
2D7
102
{ACAD_REACTORS
330
2D6
102
}
330
2D6
100
AcDbXrecord
280
     1
102
RTVSPropertyOp0
 70
     1
102
RTVSPropertyOp1
 70
     1
102
RTVSPropertyOp2
 70
     1
102
RTVSPropertyOp3
 70
     1
102
RTVSPropertyOp4
 70
     1
102
RTVSPropertyOp5
 70
     1
102
RTVSPropertyOp6
 70
     1
102
RTVSPropertyOp7
 70
     1
102
RTVSPropertyOp8
 70
     1
102
RTVSPropertyOp9
 70
     1
102
RTVSPropertyOp10
 70
     1
102
RTVSPropertyOp11
 70
     1
102
RTVSPropertyOp12
 70
     1
102
RTVSPropertyOp13
 70
     1
102
RTVSPropertyOp14
 70
     1
102
RTVSPropertyOp15
 70
     1
102
RTVSPropertyOp16
 70
     1
102
RTVSPropertyOp17
 70
     1
102
RTVSPropertyOp18
 70
     1
102
RTVSPropertyOp19
 70
     1
102
RTVSPropertyOp20
 70
     1
102
RTVSPropertyOp21
 70
     1
102
RTVSPropertyOp22
 70
     1
102
RTVSPropertyOp23
 70
     1
102
RTVSPropertyOp24
 70
     1
102
RTVSPropertyOp25
 70
     1
102
RTVSPropertyOp26
 70
     1
102
RTVSPropertyOp27
 70
     1
102
RTVSPropertyOp28
 70
     1
102
RTVSPropertyOp29
 70
     1
102
RTVSPropertyOp30
 70
     1
102
RTVSPropertyOp31
 70
     1
102
RTVSPropertyOp32
 70
     1
102
RTVSPropertyOp33
 70
     1
102
RTVSPropertyOp34
 70
     1
102
RTVSPropertyOp35
 70
     1
102
RTVSPropertyOp36
 70
     1
102
RTVSPropertyOp37
 70
     1
102
RTVSPropertyOp38
 70
     1
102
RTVSPropertyOp39
 70
     1
102
RTVSPropertyOp40
 70
     1
102
RTVSPropertyOp41
 70
     1
102
RTVSPropertyOp42
 70
     1
102
RTVSPropertyOp43
 70
     1
102
RTVSPropertyOp44
 70
     1
102
RTVSPropertyOp45
 70
     1
102
RTVSPropertyOp46
 70
     1
102
RTVSPropertyOp47
 70
     1
102
RTVSPropertyOp48
 70
     1
102
RTVSPropertyOp49
 70
     1
102
RTVSPropertyOp50
 70
     1
102
RTVSPropertyOp51
 70
     0
102
RTVSPropertyOp52
 70
     0
102
RTVSPropertyOp53
 70
     1
102
RTVSPropertyOp54
 70
     1
102
RTVSPropertyOp55
 70
     1
102
RTVSPropertyOp56
 70
     1
102
RTVSPropertyOp57
 70
     1
102
RTVSPost2010Prop28
280
     0
102
RTVSPost2010PropOp28
 70
     1
102
RTVSPost2010Prop29
280
     1
102
RTVSPost2010PropOp29
 70
     1
102
RTVSPost2010Prop30
280
     1
102
RTVSPost2010PropOp30
 70
     1
102
RTVSPost2010Prop31
280
     0
102
RTVSPost2010PropOp31
 70
     1
102
RTVSPost2010Prop32
280
     0
102
RTVSPost2010PropOp32
 70
     1
102
RTVSPost2010Prop33
280
     0
102
RTVSPost2010PropOp33
 70
     1
102
RTVSPost2010Prop34
280
     0
102
RTVSPost2010PropOp34
 70
     1
102
RTVSPost2010Prop35
280
     0
102
RTVSPost2010PropOp35
 70
     1
102
RTVSPost2010Prop36
280
     0
102
RTVSPost2010PropOp36
 70
     1
102
RTVSPost2010Prop37
 90
       50
102
RTVSPost2010PropOp37
 70
     1
102
RTVSPost2010Prop38
140
0.0
102
RTVSPost2010PropOp38
 70
     1
102
RTVSPost2010Prop39
140
1.0
102
RTVSPost2010PropOp39
 70
     1
102
RTVSPost2010Prop40
 90
        0
102
RTVSPost2010PropOp40
 70
     1
102
RTVSPost2010Prop41ColorIndex
 90
       18
102
RTVSPost2010Prop41ColorRGB
 90
        0
102
RTVSPost2010PropOp41
 70
     1
102
RTVSPost2010Prop42
 90
       50
102
RTVSPost2010PropOp42
 70
     1
102
RTVSPost2010Prop43
 90
        3
102
RTVSPost2010PropOp43
 70
     1
102
RTVSPost2010Prop44ColorIndex
 90
        5
102
RTVSPost2010Prop44ColorRGB
 90
      255
102
RTVSPost2010PropOp44
 70
     1
102
RTVSPost2010Prop45
280
     0
102
RTVSPost2010PropOp45
 70
     1
102
RTVSPost2010Prop46
 90
       50
102
RTVSPost2010PropOp46
 70
     1
102
RTVSPost2010Prop47
 90
       50
102
RTVSPost2010PropOp47
 70
     1
102
RTVSPost2010Prop48
 90
       50
102
RTVSPost2010PropOp48
 70
     1
102
RTVSPost2010Prop49
280
     0
102
RTVSPost2010PropOp49
 70
     1
102
RTVSPost2010Prop50
 90
       50
102
RTVSPost2010PropOp50
 70
     1
102
RTVSPost2010Prop51ColorIndex
 90
      256
102
RTVSPost2010Prop51ColorRGB
 90
-16777216
102
RTVSPost2010PropOp51
 70
     0
102
RTVSPost2010Prop52
140
1.0
102
RTVSPost2010PropOp52
 70
     0
102
RTVSPost2010Prop53
 90
        2
102
RTVSPost2010PropOp53
 70
     1
102
RTVSPost2010Prop54
  1
strokes_ogs.tif
102
RTVSPost2010PropOp54
 70
     1
102
RTVSPost2010Prop55
280
     0
102
RTVSPost2010PropOp55
 70
     1
102
RTVSPost2010Prop56
140
1.0
102
RTVSPost2010PropOp56
 70
     1
102
RTVSPost2010Prop57
140
1.0
102
RTVSPost2010PropOp57
 70
     1
  0
XRECORD
  5
2D5
102
{ACAD_REACTORS
330
2D4
102
}
330
2D4
100
AcDbXrecord
280
     1
102
RTVSPropertyOp0
 70
     1
102
RTVSPropertyOp1
 70
     1
102
RTVSPropertyOp2
 70
     1
102
RTVSPropertyOp3
 70
     1
102
RTVSPropertyOp4
 70
     1
102
RTVSPropertyOp5
 70
     1
102
RTVSPropertyOp6
 70
     1
102
RTVSPropertyOp7
 70
     1
102
RTVSPropertyOp8
 70
     1
102
RTVSPropertyOp9
 70
     1
102
RTVSPropertyOp10
 70
     1
102
RTVSPropertyOp11
 70
     1
102
RTVSPropertyOp12
 70
     1
102
RTVSPropertyOp13
 70
     1
102
RTVSPropertyOp14
 70
     1
102
RTVSPropertyOp15
 70
     1
102
RTVSPropertyOp16
 70
     1
102
RTVSPropertyOp17
 70
     1
102
RTVSPropertyOp18
 70
     1
102
RTVSPropertyOp19
 70
     1
102
RTVSPropertyOp20
 70
     1
102
RTVSPropertyOp21
 70
     1
102
RTVSPropertyOp22
 70
     1
102
RTVSPropertyOp23
 70
     1
102
RTVSPropertyOp24
 70
     1
102
RTVSPropertyOp25
 70
     1
102
RTVSPropertyOp26
 70
     1
102
RTVSPropertyOp27
 70
     1
102
RTVSPropertyOp28
 70
     1
102
RTVSPropertyOp29
 70
     1
102
RTVSPropertyOp30
 70
     1
102
RTVSPropertyOp31
 70
     1
102
RTVSPropertyOp32
 70
     1
102
RTVSPropertyOp33
 70
     1
102
RTVSPropertyOp34
 70
     1
102
RTVSPropertyOp35
 70
     1
102
RTVSPropertyOp36
 70
     1
102
RTVSPropertyOp37
 70
     1
102
RTVSPropertyOp38
 70
     1
102
RTVSPropertyOp39
 70
     1
102
RTVSPropertyOp40
 70
     1
102
RTVSPropertyOp41
 70
     1
102
RTVSPropertyOp42
 70
     1
102
RTVSPropertyOp43
 70
     1
102
RTVSPropertyOp44
 70
     1
102
RTVSPropertyOp45
 70
     1
102
RTVSPropertyOp46
 70
     1
102
RTVSPropertyOp47
 70
     1
102
RTVSPropertyOp48
 70
     1
102
RTVSPropertyOp49
 70
     1
102
RTVSPropertyOp50
 70
     1
102
RTVSPropertyOp51
 70
     0
102
RTVSPropertyOp52
 70
     0
102
RTVSPropertyOp53
 70
     1
102
RTVSPropertyOp54
 70
     1
102
RTVSPropertyOp55
 70
     1
102
RTVSPropertyOp56
 70
     1
102
RTVSPropertyOp57
 70
     1
102
RTVSPost2010Prop28
280
     0
102
RTVSPost2010PropOp28
 70
     1
102
RTVSPost2010Prop29
280
     1
102
RTVSPost2010PropOp29
 70
     1
102
RTVSPost2010Prop30
280
     1
102
RTVSPost2010PropOp30
 70
     1
102
RTVSPost2010Prop31
280
     0
102
RTVSPost2010PropOp31
 70
     1
102
RTVSPost2010Prop32
280
     0
102
RTVSPost2010PropOp32
 70
     1
102
RTVSPost2010Prop33
280
     0
102
RTVSPost2010PropOp33
 70
     1
102
RTVSPost2010Prop34
280
     0
102
RTVSPost2010PropOp34
 70
     1
102
RTVSPost2010Prop35
280
     0
102
RTVSPost2010PropOp35
 70
     1
102
RTVSPost2010Prop36
280
     0
102
RTVSPost2010PropOp36
 70
     1
102
RTVSPost2010Prop37
 90
       50
102
RTVSPost2010PropOp37
 70
     1
102
RTVSPost2010Prop38
140
0.0
102
RTVSPost2010PropOp38
 70
     1
102
RTVSPost2010Prop39
140
1.0
102
RTVSPost2010PropOp39
 70
     1
102
RTVSPost2010Prop40
 90
        0
102
RTVSPost2010PropOp40
 70
     1
102
RTVSPost2010Prop41ColorIndex
 90
       18
102
RTVSPost2010Prop41ColorRGB
 90
        0
102
RTVSPost2010PropOp41
 70
     1
102
RTVSPost2010Prop42
 90
       50
102
RTVSPost2010PropOp42
 70
     1
102
RTVSPost2010Prop43
 90
        3
102
RTVSPost2010PropOp43
 70
     1
102
RTVSPost2010Prop44ColorIndex
 90
        5
102
RTVSPost2010Prop44ColorRGB
 90
      255
102
RTVSPost2010PropOp44
 70
     1
102
RTVSPost2010Prop45
280
     0
102
RTVSPost2010PropOp45
 70
     1
102
RTVSPost2010Prop46
 90
       50
102
RTVSPost2010PropOp46
 70
     1
102
RTVSPost2010Prop47
 90
       50
102
RTVSPost2010PropOp47
 70
     1
102
RTVSPost2010Prop48
 90
       50
102
RTVSPost2010PropOp48
 70
     1
102
RTVSPost2010Prop49
280
     0
102
RTVSPost2010PropOp49
 70
     1
102
RTVSPost2010Prop50
 90
       50
102
RTVSPost2010PropOp50
 70
     1
102
RTVSPost2010Prop51ColorIndex
 90
      256
102
RTVSPost2010Prop51ColorRGB
 90
-16777216
102
RTVSPost2010PropOp51
 70
     0
102
RTVSPost2010Prop52
140
1.0
102
RTVSPost2010PropOp52
 70
     0
102
RTVSPost2010Prop53
 90
        2
102
RTVSPost2010PropOp53
 70
     1
102
RTVSPost2010Prop54
  1
strokes_ogs.tif
102
RTVSPost2010PropOp54
 70
     1
102
RTVSPost2010Prop55
280
     0
102
RTVSPost2010PropOp55
 70
     1
102
RTVSPost2010Prop56
140
1.0
102
RTVSPost2010PropOp56
 70
     1
102
RTVSPost2010Prop57
140
1.0
102
RTVSPost2010PropOp57
 70
     1
  0
XRECORD
  5
2CF
102
{ACAD_REACTORS
330
2CE
102
}
330
2CE
100
AcDbXrecord
280
     1
102
RTVSPropertyOp0
 70
     1
102
RTVSPropertyOp1
 70
     1
102
RTVSPropertyOp2
 70
     1
102
RTVSPropertyOp3
 70
     1
102
RTVSPropertyOp4
 70
     1
102
RTVSPropertyOp5
 70
     1
102
RTVSPropertyOp6
 70
     1
102
RTVSPropertyOp7
 70
     1
102
RTVSPropertyOp8
 70
     1
102
RTVSPropertyOp9
 70
     1
102
RTVSPropertyOp10
 70
     1
102
RTVSPropertyOp11
 70
     1
102
RTVSPropertyOp12
 70
     1
102
RTVSPropertyOp13
 70
     1
102
RTVSPropertyOp14
 70
     1
102
RTVSPropertyOp15
 70
     1
102
RTVSPropertyOp16
 70
     1
102
RTVSPropertyOp17
 70
     1
102
RTVSPropertyOp18
 70
     1
102
RTVSPropertyOp19
 70
     1
102
RTVSPropertyOp20
 70
     1
102
RTVSPropertyOp21
 70
     1
102
RTVSPropertyOp22
 70
     1
102
RTVSPropertyOp23
 70
     1
102
RTVSPropertyOp24
 70
     1
102
RTVSPropertyOp25
 70
     1
102
RTVSPropertyOp26
 70
     1
102
RTVSPropertyOp27
 70
     1
102
RTVSPropertyOp28
 70
     1
102
RTVSPropertyOp29
 70
     1
102
RTVSPropertyOp30
 70
     1
102
RTVSPropertyOp31
 70
     1
102
RTVSPropertyOp32
 70
     1
102
RTVSPropertyOp33
 70
     1
102
RTVSPropertyOp34
 70
     1
102
RTVSPropertyOp35
 70
     1
102
RTVSPropertyOp36
 70
     1
102
RTVSPropertyOp37
 70
     1
102
RTVSPropertyOp38
 70
     1
102
RTVSPropertyOp39
 70
     1
102
RTVSPropertyOp40
 70
     1
102
RTVSPropertyOp41
 70
     1
102
RTVSPropertyOp42
 70
     1
102
RTVSPropertyOp43
 70
     1
102
RTVSPropertyOp44
 70
     1
102
RTVSPropertyOp45
 70
     1
102
RTVSPropertyOp46
 70
     1
102
RTVSPropertyOp47
 70
     1
102
RTVSPropertyOp48
 70
     1
102
RTVSPropertyOp49
 70
     1
102
RTVSPropertyOp50
 70
     1
102
RTVSPropertyOp51
 70
     0
102
RTVSPropertyOp52
 70
     0
102
RTVSPropertyOp53
 70
     1
102
RTVSPropertyOp54
 70
     1
102
RTVSPropertyOp55
 70
     1
102
RTVSPropertyOp56
 70
     1
102
RTVSPropertyOp57
 70
     1
102
RTVSPost2010Prop28
280
     0
102
RTVSPost2010PropOp28
 70
     1
102
RTVSPost2010Prop29
280
     1
102
RTVSPost2010PropOp29
 70
     1
102
RTVSPost2010Prop30
280
     1
102
RTVSPost2010PropOp30
 70
     1
102
RTVSPost2010Prop31
280
     0
102
RTVSPost2010PropOp31
 70
     1
102
RTVSPost2010Prop32
280
     0
102
RTVSPost2010PropOp32
 70
     1
102
RTVSPost2010Prop33
280
     0
102
RTVSPost2010PropOp33
 70
     1
102
RTVSPost2010Prop34
280
     0
102
RTVSPost2010PropOp34
 70
     1
102
RTVSPost2010Prop35
280
     0
102
RTVSPost2010PropOp35
 70
     1
102
RTVSPost2010Prop36
280
     0
102
RTVSPost2010PropOp36
 70
     1
102
RTVSPost2010Prop37
 90
       50
102
RTVSPost2010PropOp37
 70
     1
102
RTVSPost2010Prop38
140
0.0
102
RTVSPost2010PropOp38
 70
     1
102
RTVSPost2010Prop39
140
1.0
102
RTVSPost2010PropOp39
 70
     1
102
RTVSPost2010Prop40
 90
        0
102
RTVSPost2010PropOp40
 70
     1
102
RTVSPost2010Prop41ColorIndex
 90
       18
102
RTVSPost2010Prop41ColorRGB
 90
        0
102
RTVSPost2010PropOp41
 70
     1
102
RTVSPost2010Prop42
 90
       50
102
RTVSPost2010PropOp42
 70
     1
102
RTVSPost2010Prop43
 90
        3
102
RTVSPost2010PropOp43
 70
     1
102
RTVSPost2010Prop44ColorIndex
 90
        5
102
RTVSPost2010Prop44ColorRGB
 90
      255
102
RTVSPost2010PropOp44
 70
     1
102
RTVSPost2010Prop45
280
     0
102
RTVSPost2010PropOp45
 70
     1
102
RTVSPost2010Prop46
 90
       50
102
RTVSPost2010PropOp46
 70
     1
102
RTVSPost2010Prop47
 90
       50
102
RTVSPost2010PropOp47
 70
     1
102
RTVSPost2010Prop48
 90
       50
102
RTVSPost2010PropOp48
 70
     1
102
RTVSPost2010Prop49
280
     0
102
RTVSPost2010PropOp49
 70
     1
102
RTVSPost2010Prop50
 90
       50
102
RTVSPost2010PropOp50
 70
     1
102
RTVSPost2010Prop51ColorIndex
 90
      256
102
RTVSPost2010Prop51ColorRGB
 90
-16777216
102
RTVSPost2010PropOp51
 70
     0
102
RTVSPost2010Prop52
140
1.0
102
RTVSPost2010PropOp52
 70
     0
102
RTVSPost2010Prop53
 90
        2
102
RTVSPost2010PropOp53
 70
     1
102
RTVSPost2010Prop54
  1
strokes_ogs.tif
102
RTVSPost2010PropOp54
 70
     1
102
RTVSPost2010Prop55
280
     0
102
RTVSPost2010PropOp55
 70
     1
102
RTVSPost2010Prop56
140
1.0
102
RTVSPost2010PropOp56
 70
     1
102
RTVSPost2010Prop57
140
1.0
102
RTVSPost2010PropOp57
 70
     1
  0
XRECORD
  5
2D1
102
{ACAD_REACTORS
330
2D0
102
}
330
2D0
100
AcDbXrecord
280
     1
102
RTVSPropertyOp0
 70
     1
102
RTVSPropertyOp1
 70
     1
102
RTVSPropertyOp2
 70
     1
102
RTVSPropertyOp3
 70
     1
102
RTVSPropertyOp4
 70
     1
102
RTVSPropertyOp5
 70
     1
102
RTVSPropertyOp6
 70
     1
102
RTVSPropertyOp7
 70
     1
102
RTVSPropertyOp8
 70
     1
102
RTVSPropertyOp9
 70
     1
102
RTVSPropertyOp10
 70
     1
102
RTVSPropertyOp11
 70
     1
102
RTVSPropertyOp12
 70
     1
102
RTVSPropertyOp13
 70
     1
102
RTVSPropertyOp14
 70
     1
102
RTVSPropertyOp15
 70
     1
102
RTVSPropertyOp16
 70
     1
102
RTVSPropertyOp17
 70
     1
102
RTVSPropertyOp18
 70
     1
102
RTVSPropertyOp19
 70
     1
102
RTVSPropertyOp20
 70
     1
102
RTVSPropertyOp21
 70
     1
102
RTVSPropertyOp22
 70
     1
102
RTVSPropertyOp23
 70
     1
102
RTVSPropertyOp24
 70
     1
102
RTVSPropertyOp25
 70
     1
102
RTVSPropertyOp26
 70
     1
102
RTVSPropertyOp27
 70
     1
102
RTVSPropertyOp28
 70
     1
102
RTVSPropertyOp29
 70
     1
102
RTVSPropertyOp30
 70
     1
102
RTVSPropertyOp31
 70
     1
102
RTVSPropertyOp32
 70
     1
102
RTVSPropertyOp33
 70
     1
102
RTVSPropertyOp34
 70
     1
102
RTVSPropertyOp35
 70
     1
102
RTVSPropertyOp36
 70
     1
102
RTVSPropertyOp37
 70
     1
102
RTVSPropertyOp38
 70
     1
102
RTVSPropertyOp39
 70
     1
102
RTVSPropertyOp40
 70
     1
102
RTVSPropertyOp41
 70
     1
102
RTVSPropertyOp42
 70
     1
102
RTVSPropertyOp43
 70
     1
102
RTVSPropertyOp44
 70
     1
102
RTVSPropertyOp45
 70
     1
102
RTVSPropertyOp46
 70
     1
102
RTVSPropertyOp47
 70
     1
102
RTVSPropertyOp48
 70
     1
102
RTVSPropertyOp49
 70
     1
102
RTVSPropertyOp50
 70
     1
102
RTVSPropertyOp51
 70
     0
102
RTVSPropertyOp52
 70
     0
102
RTVSPropertyOp53
 70
     1
102
RTVSPropertyOp54
 70
     1
102
RTVSPropertyOp55
 70
     1
102
RTVSPropertyOp56
 70
     1
102
RTVSPropertyOp57
 70
     1
102
RTVSPost2010Prop28
280
     0
102
RTVSPost2010PropOp28
 70
     1
102
RTVSPost2010Prop29
280
     1
102
RTVSPost2010PropOp29
 70
     1
102
RTVSPost2010Prop30
280
     1
102
RTVSPost2010PropOp30
 70
     1
102
RTVSPost2010Prop31
280
     0
102
RTVSPost2010PropOp31
 70
     1
102
RTVSPost2010Prop32
280
     0
102
RTVSPost2010PropOp32
 70
     1
102
RTVSPost2010Prop33
280
     0
102
RTVSPost2010PropOp33
 70
     1
102
RTVSPost2010Prop34
280
     0
102
RTVSPost2010PropOp34
 70
     1
102
RTVSPost2010Prop35
280
     0
102
RTVSPost2010PropOp35
 70
     1
102
RTVSPost2010Prop36
280
     0
102
RTVSPost2010PropOp36
 70
     1
102
RTVSPost2010Prop37
 90
       50
102
RTVSPost2010PropOp37
 70
     1
102
RTVSPost2010Prop38
140
0.0
102
RTVSPost2010PropOp38
 70
     1
102
RTVSPost2010Prop39
140
1.0
102
RTVSPost2010PropOp39
 70
     1
102
RTVSPost2010Prop40
 90
        0
102
RTVSPost2010PropOp40
 70
     1
102
RTVSPost2010Prop41ColorIndex
 90
       18
102
RTVSPost2010Prop41ColorRGB
 90
        0
102
RTVSPost2010PropOp41
 70
     1
102
RTVSPost2010Prop42
 90
       50
102
RTVSPost2010PropOp42
 70
     1
102
RTVSPost2010Prop43
 90
        3
102
RTVSPost2010PropOp43
 70
     1
102
RTVSPost2010Prop44ColorIndex
 90
        5
102
RTVSPost2010Prop44ColorRGB
 90
      255
102
RTVSPost2010PropOp44
 70
     1
102
RTVSPost2010Prop45
280
     0
102
RTVSPost2010PropOp45
 70
     1
102
RTVSPost2010Prop46
 90
       50
102
RTVSPost2010PropOp46
 70
     1
102
RTVSPost2010Prop47
 90
       50
102
RTVSPost2010PropOp47
 70
     1
102
RTVSPost2010Prop48
 90
       50
102
RTVSPost2010PropOp48
 70
     1
102
RTVSPost2010Prop49
280
     0
102
RTVSPost2010PropOp49
 70
     1
102
RTVSPost2010Prop50
 90
       50
102
RTVSPost2010PropOp50
 70
     1
102
RTVSPost2010Prop51ColorIndex
 90
      256
102
RTVSPost2010Prop51ColorRGB
 90
-16777216
102
RTVSPost2010PropOp51
 70
     0
102
RTVSPost2010Prop52
140
1.0
102
RTVSPost2010PropOp52
 70
     0
102
RTVSPost2010Prop53
 90
        2
102
RTVSPost2010PropOp53
 70
     1
102
RTVSPost2010Prop54
  1
strokes_ogs.tif
102
RTVSPost2010PropOp54
 70
     1
102
RTVSPost2010Prop55
280
     0
102
RTVSPost2010PropOp55
 70
     1
102
RTVSPost2010Prop56
140
1.0
102
RTVSPost2010PropOp56
 70
     1
102
RTVSPost2010Prop57
140
1.0
102
RTVSPost2010PropOp57
 70
     1
  0
XRECORD
  5
2C1
102
{ACAD_REACTORS
330
2C0
102
}
330
2C0
100
AcDbXrecord
280
     1
102
RTVSPropertyOp0
 70
     1
102
RTVSPropertyOp1
 70
     1
102
RTVSPropertyOp2
 70
     1
102
RTVSPropertyOp3
 70
     1
102
RTVSPropertyOp4
 70
     1
102
RTVSPropertyOp5
 70
     1
102
RTVSPropertyOp6
 70
     1
102
RTVSPropertyOp7
 70
     1
102
RTVSPropertyOp8
 70
     1
102
RTVSPropertyOp9
 70
     1
102
RTVSPropertyOp10
 70
     1
102
RTVSPropertyOp11
 70
     1
102
RTVSPropertyOp12
 70
     1
102
RTVSPropertyOp13
 70
     1
102
RTVSPropertyOp14
 70
     1
102
RTVSPropertyOp15
 70
     1
102
RTVSPropertyOp16
 70
     1
102
RTVSPropertyOp17
 70
     1
102
RTVSPropertyOp18
 70
     1
102
RTVSPropertyOp19
 70
     1
102
RTVSPropertyOp20
 70
     1
102
RTVSPropertyOp21
 70
     1
102
RTVSPropertyOp22
 70
     1
102
RTVSPropertyOp23
 70
     1
102
RTVSPropertyOp24
 70
     1
102
RTVSPropertyOp25
 70
     1
102
RTVSPropertyOp26
 70
     1
102
RTVSPropertyOp27
 70
     1
102
RTVSPropertyOp28
 70
     1
102
RTVSPropertyOp29
 70
     1
102
RTVSPropertyOp30
 70
     1
102
RTVSPropertyOp31
 70
     1
102
RTVSPropertyOp32
 70
     1
102
RTVSPropertyOp33
 70
     1
102
RTVSPropertyOp34
 70
     1
102
RTVSPropertyOp35
 70
     1
102
RTVSPropertyOp36
 70
     1
102
RTVSPropertyOp37
 70
     1
102
RTVSPropertyOp38
 70
     1
102
RTVSPropertyOp39
 70
     1
102
RTVSPropertyOp40
 70
     1
102
RTVSPropertyOp41
 70
     1
102
RTVSPropertyOp42
 70
     1
102
RTVSPropertyOp43
 70
     1
102
RTVSPropertyOp44
 70
     1
102
RTVSPropertyOp45
 70
     1
102
RTVSPropertyOp46
 70
     1
102
RTVSPropertyOp47
 70
     1
102
RTVSPropertyOp48
 70
     1
102
RTVSPropertyOp49
 70
     1
102
RTVSPropertyOp50
 70
     1
102
RTVSPropertyOp51
 70
     0
102
RTVSPropertyOp52
 70
     0
102
RTVSPropertyOp53
 70
     1
102
RTVSPropertyOp54
 70
     1
102
RTVSPropertyOp55
 70
     1
102
RTVSPropertyOp56
 70
     1
102
RTVSPropertyOp57
 70
     1
102
RTVSPost2010Prop28
280
     0
102
RTVSPost2010PropOp28
 70
     1
102
RTVSPost2010Prop29
280
     1
102
RTVSPost2010PropOp29
 70
     1
102
RTVSPost2010Prop30
280
     1
102
RTVSPost2010PropOp30
 70
     1
102
RTVSPost2010Prop31
280
     0
102
RTVSPost2010PropOp31
 70
     1
102
RTVSPost2010Prop32
280
     0
102
RTVSPost2010PropOp32
 70
     1
102
RTVSPost2010Prop33
280
     0
102
RTVSPost2010PropOp33
 70
     1
102
RTVSPost2010Prop34
280
     0
102
RTVSPost2010PropOp34
 70
     1
102
RTVSPost2010Prop35
280
     0
102
RTVSPost2010PropOp35
 70
     1
102
RTVSPost2010Prop36
280
     0
102
RTVSPost2010PropOp36
 70
     1
102
RTVSPost2010Prop37
 90
       50
102
RTVSPost2010PropOp37
 70
     1
102
RTVSPost2010Prop38
140
0.0
102
RTVSPost2010PropOp38
 70
     1
102
RTVSPost2010Prop39
140
1.0
102
RTVSPost2010PropOp39
 70
     1
102
RTVSPost2010Prop40
 90
        0
102
RTVSPost2010PropOp40
 70
     1
102
RTVSPost2010Prop41ColorIndex
 90
       18
102
RTVSPost2010Prop41ColorRGB
 90
        0
102
RTVSPost2010PropOp41
 70
     1
102
RTVSPost2010Prop42
 90
       50
102
RTVSPost2010PropOp42
 70
     1
102
RTVSPost2010Prop43
 90
        3
102
RTVSPost2010PropOp43
 70
     1
102
RTVSPost2010Prop44ColorIndex
 90
        5
102
RTVSPost2010Prop44ColorRGB
 90
      255
102
RTVSPost2010PropOp44
 70
     1
102
RTVSPost2010Prop45
280
     0
102
RTVSPost2010PropOp45
 70
     1
102
RTVSPost2010Prop46
 90
       50
102
RTVSPost2010PropOp46
 70
     1
102
RTVSPost2010Prop47
 90
       50
102
RTVSPost2010PropOp47
 70
     1
102
RTVSPost2010Prop48
 90
       50
102
RTVSPost2010PropOp48
 70
     1
102
RTVSPost2010Prop49
280
     0
102
RTVSPost2010PropOp49
 70
     1
102
RTVSPost2010Prop50
 90
       50
102
RTVSPost2010PropOp50
 70
     1
102
RTVSPost2010Prop51ColorIndex
 90
      256
102
RTVSPost2010Prop51ColorRGB
 90
-16777216
102
RTVSPost2010PropOp51
 70
     0
102
RTVSPost2010Prop52
140
1.0
102
RTVSPost2010PropOp52
 70
     0
102
RTVSPost2010Prop53
 90
        2
102
RTVSPost2010PropOp53
 70
     1
102
RTVSPost2010Prop54
  1
strokes_ogs.tif
102
RTVSPost2010PropOp54
 70
     1
102
RTVSPost2010Prop55
280
     0
102
RTVSPost2010PropOp55
 70
     1
102
RTVSPost2010Prop56
140
1.0
102
RTVSPost2010PropOp56
 70
     1
102
RTVSPost2010Prop57
140
1.0
102
RTVSPost2010PropOp57
 70
     1
  0
XRECORD
  5
2B3
102
{ACAD_REACTORS
330
2B2
102
}
330
2B2
100
AcDbXrecord
280
     1
102
RTVSPropertyOp0
 70
     1
102
RTVSPropertyOp1
 70
     1
102
RTVSPropertyOp2
 70
     1
102
RTVSPropertyOp3
 70
     1
102
RTVSPropertyOp4
 70
     1
102
RTVSPropertyOp5
 70
     1
102
RTVSPropertyOp6
 70
     1
102
RTVSPropertyOp7
 70
     1
102
RTVSPropertyOp8
 70
     1
102
RTVSPropertyOp9
 70
     1
102
RTVSPropertyOp10
 70
     1
102
RTVSPropertyOp11
 70
     1
102
RTVSPropertyOp12
 70
     1
102
RTVSPropertyOp13
 70
     1
102
RTVSPropertyOp14
 70
     1
102
RTVSPropertyOp15
 70
     1
102
RTVSPropertyOp16
 70
     1
102
RTVSPropertyOp17
 70
     1
102
RTVSPropertyOp18
 70
     1
102
RTVSPropertyOp19
 70
     1
102
RTVSPropertyOp20
 70
     1
102
RTVSPropertyOp21
 70
     1
102
RTVSPropertyOp22
 70
     1
102
RTVSPropertyOp23
 70
     1
102
RTVSPropertyOp24
 70
     1
102
RTVSPropertyOp25
 70
     1
102
RTVSPropertyOp26
 70
     1
102
RTVSPropertyOp27
 70
     1
102
RTVSPropertyOp28
 70
     1
102
RTVSPropertyOp29
 70
     1
102
RTVSPropertyOp30
 70
     1
102
RTVSPropertyOp31
 70
     1
102
RTVSPropertyOp32
 70
     1
102
RTVSPropertyOp33
 70
     1
102
RTVSPropertyOp34
 70
     1
102
RTVSPropertyOp35
 70
     1
102
RTVSPropertyOp36
 70
     1
102
RTVSPropertyOp37
 70
     1
102
RTVSPropertyOp38
 70
     1
102
RTVSPropertyOp39
 70
     1
102
RTVSPropertyOp40
 70
     1
102
RTVSPropertyOp41
 70
     1
102
RTVSPropertyOp42
 70
     1
102
RTVSPropertyOp43
 70
     1
102
RTVSPropertyOp44
 70
     1
102
RTVSPropertyOp45
 70
     1
102
RTVSPropertyOp46
 70
     1
102
RTVSPropertyOp47
 70
     1
102
RTVSPropertyOp48
 70
     1
102
RTVSPropertyOp49
 70
     1
102
RTVSPropertyOp50
 70
     1
102
RTVSPropertyOp51
 70
     0
102
RTVSPropertyOp52
 70
     0
102
RTVSPropertyOp53
 70
     1
102
RTVSPropertyOp54
 70
     1
102
RTVSPropertyOp55
 70
     1
102
RTVSPropertyOp56
 70
     1
102
RTVSPropertyOp57
 70
     1
102
RTVSPost2010Prop28
280
     0
102
RTVSPost2010PropOp28
 70
     1
102
RTVSPost2010Prop29
280
     1
102
RTVSPost2010PropOp29
 70
     1
102
RTVSPost2010Prop30
280
     1
102
RTVSPost2010PropOp30
 70
     1
102
RTVSPost2010Prop31
280
     0
102
RTVSPost2010PropOp31
 70
     1
102
RTVSPost2010Prop32
280
     0
102
RTVSPost2010PropOp32
 70
     1
102
RTVSPost2010Prop33
280
     0
102
RTVSPost2010PropOp33
 70
     1
102
RTVSPost2010Prop34
280
     0
102
RTVSPost2010PropOp34
 70
     1
102
RTVSPost2010Prop35
280
     0
102
RTVSPost2010PropOp35
 70
     1
102
RTVSPost2010Prop36
280
     0
102
RTVSPost2010PropOp36
 70
     1
102
RTVSPost2010Prop37
 90
       50
102
RTVSPost2010PropOp37
 70
     1
102
RTVSPost2010Prop38
140
0.0
102
RTVSPost2010PropOp38
 70
     1
102
RTVSPost2010Prop39
140
1.0
102
RTVSPost2010PropOp39
 70
     1
102
RTVSPost2010Prop40
 90
        0
102
RTVSPost2010PropOp40
 70
     1
102
RTVSPost2010Prop41ColorIndex
 90
       18
102
RTVSPost2010Prop41ColorRGB
 90
        0
102
RTVSPost2010PropOp41
 70
     1
102
RTVSPost2010Prop42
 90
       50
102
RTVSPost2010PropOp42
 70
     1
102
RTVSPost2010Prop43
 90
        3
102
RTVSPost2010PropOp43
 70
     1
102
RTVSPost2010Prop44ColorIndex
 90
        5
102
RTVSPost2010Prop44ColorRGB
 90
      255
102
RTVSPost2010PropOp44
 70
     1
102
RTVSPost2010Prop45
280
     0
102
RTVSPost2010PropOp45
 70
     1
102
RTVSPost2010Prop46
 90
       50
102
RTVSPost2010PropOp46
 70
     1
102
RTVSPost2010Prop47
 90
       50
102
RTVSPost2010PropOp47
 70
     1
102
RTVSPost2010Prop48
 90
       50
102
RTVSPost2010PropOp48
 70
     1
102
RTVSPost2010Prop49
280
     0
102
RTVSPost2010PropOp49
 70
     1
102
RTVSPost2010Prop50
 90
       50
102
RTVSPost2010PropOp50
 70
     1
102
RTVSPost2010Prop51ColorIndex
 90
      256
102
RTVSPost2010Prop51ColorRGB
 90
-16777216
102
RTVSPost2010PropOp51
 70
     0
102
RTVSPost2010Prop52
140
1.0
102
RTVSPost2010PropOp52
 70
     0
102
RTVSPost2010Prop53
 90
        2
102
RTVSPost2010PropOp53
 70
     1
102
RTVSPost2010Prop54
  1
strokes_ogs.tif
102
RTVSPost2010PropOp54
 70
     1
102
RTVSPost2010Prop55
280
     0
102
RTVSPost2010PropOp55
 70
     1
102
RTVSPost2010Prop56
140
1.0
102
RTVSPost2010PropOp56
 70
     1
102
RTVSPost2010Prop57
140
1.0
102
RTVSPost2010PropOp57
 70
     1
  0
XRECORD
  5
2D3
102
{ACAD_REACTORS
330
2D2
102
}
330
2D2
100
AcDbXrecord
280
     1
102
RTVSPropertyOp0
 70
     1
102
RTVSPropertyOp1
 70
     1
102
RTVSPropertyOp2
 70
     1
102
RTVSPropertyOp3
 70
     1
102
RTVSPropertyOp4
 70
     1
102
RTVSPropertyOp5
 70
     1
102
RTVSPropertyOp6
 70
     1
102
RTVSPropertyOp7
 70
     1
102
RTVSPropertyOp8
 70
     1
102
RTVSPropertyOp9
 70
     1
102
RTVSPropertyOp10
 70
     1
102
RTVSPropertyOp11
 70
     1
102
RTVSPropertyOp12
 70
     1
102
RTVSPropertyOp13
 70
     1
102
RTVSPropertyOp14
 70
     1
102
RTVSPropertyOp15
 70
     1
102
RTVSPropertyOp16
 70
     1
102
RTVSPropertyOp17
 70
     1
102
RTVSPropertyOp18
 70
     1
102
RTVSPropertyOp19
 70
     1
102
RTVSPropertyOp20
 70
     1
102
RTVSPropertyOp21
 70
     1
102
RTVSPropertyOp22
 70
     1
102
RTVSPropertyOp23
 70
     1
102
RTVSPropertyOp24
 70
     1
102
RTVSPropertyOp25
 70
     1
102
RTVSPropertyOp26
 70
     1
102
RTVSPropertyOp27
 70
     1
102
RTVSPropertyOp28
 70
     1
102
RTVSPropertyOp29
 70
     1
102
RTVSPropertyOp30
 70
     1
102
RTVSPropertyOp31
 70
     1
102
RTVSPropertyOp32
 70
     1
102
RTVSPropertyOp33
 70
     1
102
RTVSPropertyOp34
 70
     1
102
RTVSPropertyOp35
 70
     1
102
RTVSPropertyOp36
 70
     1
102
RTVSPropertyOp37
 70
     1
102
RTVSPropertyOp38
 70
     1
102
RTVSPropertyOp39
 70
     1
102
RTVSPropertyOp40
 70
     1
102
RTVSPropertyOp41
 70
     1
102
RTVSPropertyOp42
 70
     1
102
RTVSPropertyOp43
 70
     1
102
RTVSPropertyOp44
 70
     1
102
RTVSPropertyOp45
 70
     1
102
RTVSPropertyOp46
 70
     1
102
RTVSPropertyOp47
 70
     1
102
RTVSPropertyOp48
 70
     1
102
RTVSPropertyOp49
 70
     1
102
RTVSPropertyOp50
 70
     1
102
RTVSPropertyOp51
 70
     0
102
RTVSPropertyOp52
 70
     0
102
RTVSPropertyOp53
 70
     1
102
RTVSPropertyOp54
 70
     1
102
RTVSPropertyOp55
 70
     1
102
RTVSPropertyOp56
 70
     1
102
RTVSPropertyOp57
 70
     1
102
RTVSPost2010Prop28
280
     0
102
RTVSPost2010PropOp28
 70
     1
102
RTVSPost2010Prop29
280
     1
102
RTVSPost2010PropOp29
 70
     1
102
RTVSPost2010Prop30
280
     1
102
RTVSPost2010PropOp30
 70
     1
102
RTVSPost2010Prop31
280
     0
102
RTVSPost2010PropOp31
 70
     1
102
RTVSPost2010Prop32
280
     0
102
RTVSPost2010PropOp32
 70
     1
102
RTVSPost2010Prop33
280
     0
102
RTVSPost2010PropOp33
 70
     1
102
RTVSPost2010Prop34
280
     0
102
RTVSPost2010PropOp34
 70
     1
102
RTVSPost2010Prop35
280
     0
102
RTVSPost2010PropOp35
 70
     1
102
RTVSPost2010Prop36
280
     0
102
RTVSPost2010PropOp36
 70
     1
102
RTVSPost2010Prop37
 90
       50
102
RTVSPost2010PropOp37
 70
     1
102
RTVSPost2010Prop38
140
0.0
102
RTVSPost2010PropOp38
 70
     1
102
RTVSPost2010Prop39
140
1.0
102
RTVSPost2010PropOp39
 70
     1
102
RTVSPost2010Prop40
 90
        0
102
RTVSPost2010PropOp40
 70
     1
102
RTVSPost2010Prop41ColorIndex
 90
       18
102
RTVSPost2010Prop41ColorRGB
 90
        0
102
RTVSPost2010PropOp41
 70
     1
102
RTVSPost2010Prop42
 90
       50
102
RTVSPost2010PropOp42
 70
     1
102
RTVSPost2010Prop43
 90
        3
102
RTVSPost2010PropOp43
 70
     1
102
RTVSPost2010Prop44ColorIndex
 90
        5
102
RTVSPost2010Prop44ColorRGB
 90
      255
102
RTVSPost2010PropOp44
 70
     1
102
RTVSPost2010Prop45
280
     0
102
RTVSPost2010PropOp45
 70
     1
102
RTVSPost2010Prop46
 90
       50
102
RTVSPost2010PropOp46
 70
     1
102
RTVSPost2010Prop47
 90
       50
102
RTVSPost2010PropOp47
 70
     1
102
RTVSPost2010Prop48
 90
       50
102
RTVSPost2010PropOp48
 70
     1
102
RTVSPost2010Prop49
280
     0
102
RTVSPost2010PropOp49
 70
     1
102
RTVSPost2010Prop50
 90
       50
102
RTVSPost2010PropOp50
 70
     1
102
RTVSPost2010Prop51ColorIndex
 90
      256
102
RTVSPost2010Prop51ColorRGB
 90
-16777216
102
RTVSPost2010PropOp51
 70
     0
102
RTVSPost2010Prop52
140
1.0
102
RTVSPost2010PropOp52
 70
     0
102
RTVSPost2010Prop53
 90
        2
102
RTVSPost2010PropOp53
 70
     1
102
RTVSPost2010Prop54
  1
strokes_ogs.tif
102
RTVSPost2010PropOp54
 70
     1
102
RTVSPost2010Prop55
280
     0
102
RTVSPost2010PropOp55
 70
     1
102
RTVSPost2010Prop56
140
1.0
102
RTVSPost2010PropOp56
 70
     1
102
RTVSPost2010Prop57
140
1.0
102
RTVSPost2010PropOp57
 70
     1
  0
ENDSEC
  0
EOF
