  0
SECTION
  2
HEADER
  9
$ACADVER
  1
AC1015
  9
$ACADMAINTVER
 70
     6
  9
$DWGCODEPAGE
  3
ANSI_1252
  9
$INSBASE
 10
0.0
 20
0.0
 30
0.0
  9
$EXTMIN
 10
0.01443056233802
 20
0.0
 30
0.0
  9
$EXTMAX
 10
38000.0144305623
 20
23326.9848969854
 30
0.0
  9
$LIMMIN
 10
0.0
 20
0.0
  9
$LIMMAX
 10
12.0
 20
9.0
  9
$ORTHOMODE
 70
     0
  9
$REGENMODE
 70
     1
  9
$FILLMODE
 70
     1
  9
$QTEXTMODE
 70
     0
  9
$MIRRTEXT
 70
     1
  9
$LTSCALE
 40
1.0
  9
$ATTMODE
 70
     1
  9
$TEXTSIZE
 40
0.2
  9
$TRACEWID
 40
0.05
  9
$TEXTSTYLE
  7
Standard
  9
$CLAYER
  8
0
  9
$CELTYPE
  6
ByLayer
  9
$CECOLOR
 62
   256
  9
$CELTSCALE
 40
1.0
  9
$DISPSILH
 70
     0
  9
$DIMSCALE
 40
1.0
  9
$DIMASZ
 40
0.18
  9
$DIMEXO
 40
0.0625
  9
$DIMDLI
 40
0.38
  9
$DIMRND
 40
0.0
  9
$DIMDLE
 40
0.0
  9
$DIMEXE
 40
0.18
  9
$DIMTP
 40
0.0
  9
$DIMTM
 40
0.0
  9
$DIMTXT
 40
0.18
  9
$DIMCEN
 40
0.09
  9
$DIMTSZ
 40
0.0
  9
$DIMTOL
 70
     0
  9
$DIMLIM
 70
     0
  9
$DIMTIH
 70
     1
  9
$DIMTOH
 70
     1
  9
$DIMSE1
 70
     0
  9
$DIMSE2
 70
     0
  9
$DIMTAD
 70
     0
  9
$DIMZIN
 70
     0
  9
$DIMBLK
  1

  9
$DIMASO
 70
     1
  9
$DIMSHO
 70
     1
  9
$DIMPOST
  1

  9
$DIMAPOST
  1

  9
$DIMALT
 70
     0
  9
$DIMALTD
 70
     2
  9
$DIMALTF
 40
25.4
  9
$DIMLFAC
 40
1.0
  9
$DIMTOFL
 70
     0
  9
$DIMTVP
 40
0.0
  9
$DIMTIX
 70
     0
  9
$DIMSOXD
 70
     0
  9
$DIMSAH
 70
     0
  9
$DIMBLK1
  1

  9
$DIMBLK2
  1

  9
$DIMSTYLE
  2
Standard
  9
$DIMCLRD
 70
     0
  9
$DIMCLRE
 70
     0
  9
$DIMCLRT
 70
     0
  9
$DIMTFAC
 40
1.0
  9
$DIMGAP
 40
0.09
  9
$DIMJUST
 70
     0
  9
$DIMSD1
 70
     0
  9
$DIMSD2
 70
     0
  9
$DIMTOLJ
 70
     1
  9
$DIMTZIN
 70
     0
  9
$DIMALTZ
 70
     0
  9
$DIMALTTZ
 70
     0
  9
$DIMUPT
 70
     0
  9
$DIMDEC
 70
     4
  9
$DIMTDEC
 70
     4
  9
$DIMALTU
 70
     2
  9
$DIMALTTD
 70
     2
  9
$DIMTXSTY
  7
Standard
  9
$DIMAUNIT
 70
     0
  9
$DIMADEC
 70
     0
  9
$DIMALTRND
 40
0.0
  9
$DIMAZIN
 70
     0
  9
$DIMDSEP
 70
    46
  9
$DIMATFIT
 70
     3
  9
$DIMFRAC
 70
     0
  9
$DIMLDRBLK
  1

  9
$DIMLUNIT
 70
     2
  9
$DIMLWD
 70
    -2
  9
$DIMLWE
 70
    -2
  9
$DIMTMOVE
 70
     0
  9
$LUNITS
 70
     2
  9
$LUPREC
 70
     4
  9
$SKETCHINC
 40
0.1
  9
$FILLETRAD
 40
0.5
  9
$AUNITS
 70
     0
  9
$AUPREC
 70
     0
  9
$MENU
  1
.
  9
$ELEVATION
 40
0.0
  9
$PELEVATION
 40
0.0
  9
$THICKNESS
 40
0.0
  9
$LIMCHECK
 70
     0
  9
$CHAMFERA
 40
0.5
  9
$CHAMFERB
 40
0.5
  9
$CHAMFERC
 40
1.0
  9
$CHAMFERD
 40
0.0
  9
$SKPOLY
 70
     0
  9
$TDCREATE
 40
2453795.599371389
  9
$TDUCREATE
 40
2453795.557704722
  9
$TDUPDATE
 40
2453795.599371401
  9
$TDUUPDATE
 40
2453795.557704734
  9
$TDINDWG
 40
0.0000000116
  9
$TDUSRTIMER
 40
0.0000000116
  9
$USRTIMER
 70
     1
  9
$ANGBASE
 50
0.0
  9
$ANGDIR
 70
     0
  9
$PDMODE
 70
     0
  9
$PDSIZE
 40
0.0
  9
$PLINEWID
 40
0.0
  9
$SPLFRAME
 70
     0
  9
$SPLINETYPE
 70
     6
  9
$SPLINESEGS
 70
     8
  9
$HANDSEED
  5
5D4
  9
$SURFTAB1
 70
     6
  9
$SURFTAB2
 70
     6
  9
$SURFTYPE
 70
     6
  9
$SURFU
 70
     6
  9
$SURFV
 70
     6
  9
$UCSBASE
  2

  9
$UCSNAME
  2

  9
$UCSORG
 10
0.0
 20
0.0
 30
0.0
  9
$UCSXDIR
 10
1.0
 20
0.0
 30
0.0
  9
$UCSYDIR
 10
0.0
 20
1.0
 30
0.0
  9
$UCSORTHOREF
  2

  9
$UCSORTHOVIEW
 70
     0
  9
$UCSORGTOP
 10
0.0
 20
0.0
 30
0.0
  9
$UCSORGBOTTOM
 10
0.0
 20
0.0
 30
0.0
  9
$UCSORGLEFT
 10
0.0
 20
0.0
 30
0.0
  9
$UCSORGRIGHT
 10
0.0
 20
0.0
 30
0.0
  9
$UCSORGFRONT
 10
0.0
 20
0.0
 30
0.0
  9
$UCSORGBACK
 10
0.0
 20
0.0
 30
0.0
  9
$PUCSBASE
  2

  9
$PUCSNAME
  2

  9
$PUCSORG
 10
0.0
 20
0.0
 30
0.0
  9
$PUCSXDIR
 10
1.0
 20
0.0
 30
0.0
  9
$PUCSYDIR
 10
0.0
 20
1.0
 30
0.0
  9
$PUCSORTHOREF
  2

  9
$PUCSORTHOVIEW
 70
     0
  9
$PUCSORGTOP
 10
0.0
 20
0.0
 30
0.0
  9
$PUCSORGBOTTOM
 10
0.0
 20
0.0
 30
0.0
  9
$PUCSORGLEFT
 10
0.0
 20
0.0
 30
0.0
  9
$PUCSORGRIGHT
 10
0.0
 20
0.0
 30
0.0
  9
$PUCSORGFRONT
 10
0.0
 20
0.0
 30
0.0
  9
$PUCSORGBACK
 10
0.0
 20
0.0
 30
0.0
  9
$USERI1
 70
     0
  9
$USERI2
 70
     0
  9
$USERI3
 70
     0
  9
$USERI4
 70
     0
  9
$USERI5
 70
     0
  9
$USERR1
 40
13.01
  9
$USERR2
 40
0.0
  9
$USERR3
 40
0.0
  9
$USERR4
 40
0.0
  9
$USERR5
 40
0.0
  9
$WORLDVIEW
 70
     1
  9
$SHADEDGE
 70
     3
  9
$SHADEDIF
 70
    70
  9
$TILEMODE
 70
     1
  9
$MAXACTVP
 70
    64
  9
$PINSBASE
 10
0.0
 20
0.0
 30
0.0
  9
$PLIMCHECK
 70
     0
  9
$PEXTMIN
 10
1.00000000000000E+20
 20
1.00000000000000E+20
 30
1.00000000000000E+20
  9
$PEXTMAX
 10
-1.00000000000000E+20
 20
-1.00000000000000E+20
 30
-1.00000000000000E+20
  9
$PLIMMIN
 10
0.0
 20
0.0
  9
$PLIMMAX
 10
12.0
 20
9.0
  9
$UNITMODE
 70
     0
  9
$VISRETAIN
 70
     1
  9
$PLINEGEN
 70
     0
  9
$PSLTSCALE
 70
     1
  9
$TREEDEPTH
 70
  3020
  9
$CMLSTYLE
  2
Standard
  9
$CMLJUST
 70
     0
  9
$CMLSCALE
 40
1.0
  9
$PROXYGRAPHICS
 70
     1
  9
$MEASUREMENT
 70
     1
  9
$CELWEIGHT
370
    -1
  9
$ENDCAPS
280
     0
  9
$JOINSTYLE
280
     0
  9
$LWDISPLAY
290
     0
  9
$INSUNITS
 70
     1
  9
$HYPERLINKBASE
  1

  9
$STYLESHEET
  1

  9
$XEDIT
290
     1
  9
$CEPSNTYPE
380
     0
  9
$PSTYLEMODE
290
     0
  9
$FINGERPRINTGUID
  2
{FAEB1C30-E019-11D5-929B-00C0DF256EC4}
  9
$VERSIONGUID
  2
{FAEB1C32-E019-11D5-929B-00C0DF256EC4}
  9
$EXTNAMES
290
     1
  9
$PSVPSCALE
 40
0.0
  9
$OLESTARTUP
290
     0
  0
ENDSEC
  0
SECTION
  2
CLASSES
  0
CLASS
  1
ACDBDICTIONARYWDFLT
  2
AcDbDictionaryWithDefault
  3
ObjectDBX Classes
 90
        0
280
     0
281
     0
  0
CLASS
  1
TABLESTYLE
  2
AcDbTableStyle
  3
ObjectDBX Classes
 90
     2047
280
     0
281
     0
  0
CLASS
  1
DICTIONARYVAR
  2
AcDbDictionaryVar
  3
ObjectDBX Classes
 90
        0
280
     0
281
     0
  0
CLASS
  1

  2
exOdDbCircle
  3

 90
        0
280
     0
281
     1
  0
CLASS
  1

  2
exOdDbSpline
  3

 90
        0
280
     0
281
     1
  0
CLASS
  1

  2
exOdDbPolyline
  3

 90
        0
280
     0
281
     1
  0
CLASS
  1
ACDBPLACEHOLDER
  2
AcDbPlaceHolder
  3
ObjectDBX Classes
 90
        0
280
     0
281
     0
  0
CLASS
  1
LAYOUT
  2
AcDbLayout
  3
ObjectDBX Classes
 90
        0
280
     0
281
     0
  0
ENDSEC
  0
SECTION
  2
TABLES
  0
TABLE
  2
VPORT
  5
8
330
0
100
AcDbSymbolTable
 70
     2
  0
VPORT
  5
29
330
8
100
AcDbSymbolTableRecord
100
AcDbViewportTableRecord
  2
*Active
 70
     0
 10
0.0
 20
0.0
 11
1.0
 21
1.0
 12
19000.01443056232
 22
11663.4924484927
 13
0.0
 23
0.0
 14
0.5
 24
0.5
 15
0.5
 25
0.5
 16
0.0
 26
0.0
 36
1.0
 17
0.0
 27
0.0
 37
0.0
 40
26081.33704735375
 41
1.60267857142857
 42
50.0
 43
0.0
 44
0.0
 50
0.0
 51
0.0
 71
     0
 72
   100
 73
     1
 74
     3
 75
     0
 76
     0
 77
     0
 78
     0
281
     0
 65
     1
110
0.0
120
0.0
130
0.0
111
1.0
121
0.0
131
0.0
112
0.0
122
1.0
132
0.0
 79
     0
146
0.0
  0
ENDTAB
  0
TABLE
  2
LTYPE
  5
5
330
0
100
AcDbSymbolTable
 70
     8
  0
LTYPE
  5
14
330
5
100
AcDbSymbolTableRecord
100
AcDbLinetypeTableRecord
  2
ByBlock
 70
     0
  3

 72
    65
 73
     0
 40
0.0
  0
LTYPE
  5
15
330
5
100
AcDbSymbolTableRecord
100
AcDbLinetypeTableRecord
  2
ByLayer
 70
     0
  3

 72
    65
 73
     0
 40
0.0
  0
LTYPE
  5
16
330
5
100
AcDbSymbolTableRecord
100
AcDbLinetypeTableRecord
  2
Continuous
 70
     0
  3
Solid line
 72
    65
 73
     0
 40
0.0
  0
LTYPE
  5
2E
330
5
100
AcDbSymbolTableRecord
100
AcDbLinetypeTableRecord
  2
DASHED
 70
     0
  3
Dashed
 72
    65
 73
     2
 40
15.0
 49
7.0
 74
     0
 49
-8.0
 74
     0
  0
LTYPE
  5
2F
330
5
100
AcDbSymbolTableRecord
100
AcDbLinetypeTableRecord
  2
DOTTED
 70
     0
  3
Dotted
 72
    65
 73
     2
 40
1.0
 49
0.0
 74
     0
 49
-1.0
 74
     0
  0
LTYPE
  5
30
330
5
100
AcDbSymbolTableRecord
100
AcDbLinetypeTableRecord
  2
DOT_CENTER
 70
     0
  3
Dot_Center
 72
    65
 73
     4
 40
14.0
 49
12.0
 74
     0
 49
-1.0
 74
     0
 49
0.0
 74
     0
 49
-1.0
 74
     0
  0
LTYPE
  5
31
330
5
100
AcDbSymbolTableRecord
100
AcDbLinetypeTableRecord
  2
LONG_DASHED
 70
     0
  3
Long_Dashed
 72
    65
 73
     2
 40
15.0
 49
10.0
 74
     0
 49
-5.0
 74
     0
  0
LTYPE
  5
32
330
5
100
AcDbSymbolTableRecord
100
AcDbLinetypeTableRecord
  2
DASH_CENTER
 70
     0
  3
Dash_Center
 72
    65
 73
     4
 40
14.0
 49
11.0
 74
     0
 49
-1.0
 74
     0
 49
1.0
 74
     0
 49
-1.0
 74
     0
  0
LTYPE
  5
33
330
5
100
AcDbSymbolTableRecord
100
AcDbLinetypeTableRecord
  2
PHANTOM
 70
     0
  3
Phantom
 72
    65
 73
     6
 40
13.0
 49
10.0
 74
     0
 49
-1.0
 74
     0
 49
0.0
 74
     0
 49
-1.0
 74
     0
 49
0.0
 74
     0
 49
-1.0
 74
     0
  0
LTYPE
  5
34
330
5
100
AcDbSymbolTableRecord
100
AcDbLinetypeTableRecord
  2
CENTER_DASH_DASH
 70
     0
  3
Center_Dash_Dash
 72
    65
 73
     6
 40
14.0
 49
9.0
 74
     0
 49
-1.0
 74
     0
 49
1.0
 74
     0
 49
-1.0
 74
     0
 49
1.0
 74
     0
 49
-1.0
 74
     0
  0
ENDTAB
  0
TABLE
  2
LAYER
  5
2
330
0
100
AcDbSymbolTable
 70
     3
  0
LAYER
  5
10
330
2
100
AcDbSymbolTableRecord
100
AcDbLayerTableRecord
  2
0
 70
     0
 62
     7
  6
Continuous
370
    -3
390
F
  0
LAYER
  5
35
330
2
100
AcDbSymbolTableRecord
100
AcDbLayerTableRecord
  2
1
 70
     0
 62
     7
  6
Continuous
370
    -3
390
F
  0
LAYER
  5
36
330
2
100
AcDbSymbolTableRecord
100
AcDbLayerTableRecord
  2
VOLLE_LIJNEN
 70
     0
 62
     7
  6
Continuous
370
    -3
390
F
  0
ENDTAB
  0
TABLE
  2
STYLE
  5
3
330
0
100
AcDbSymbolTable
 70
     1
  0
STYLE
  5
11
330
3
100
AcDbSymbolTableRecord
100
AcDbTextStyleTableRecord
  2
Standard
 70
     0
 40
0.0
 41
1.0
 50
0.0
 71
     0
 42
0.2
  3
txt
  4

  0
ENDTAB
  0
TABLE
  2
VIEW
  5
6
330
0
100
AcDbSymbolTable
 70
     0
  0
ENDTAB
  0
TABLE
  2
UCS
  5
7
330
0
100
AcDbSymbolTable
 70
     0
  0
ENDTAB
  0
TABLE
  2
APPID
  5
9
330
0
100
AcDbSymbolTable
 70
     1
  0
APPID
  5
12
330
9
100
AcDbSymbolTableRecord
100
AcDbRegAppTableRecord
  2
ACAD
 70
     0
  0
ENDTAB
  0
TABLE
  2
DIMSTYLE
  5
A
330
0
100
AcDbSymbolTable
 70
     1
100
AcDbDimStyleTable
  0
DIMSTYLE
105
27
330
A
100
AcDbSymbolTableRecord
100
AcDbDimStyleTableRecord
  2
Standard
 70
     0
340
11
  0
ENDTAB
  0
TABLE
  2
BLOCK_RECORD
  5
1
330
0
100
AcDbSymbolTable
 70
     1
  0
BLOCK_RECORD
  5
1F
330
1
100
AcDbSymbolTableRecord
100
AcDbBlockTableRecord
  2
*Model_Space
340
22
  0
BLOCK_RECORD
  5
1B
330
1
100
AcDbSymbolTableRecord
100
AcDbBlockTableRecord
  2
*Paper_Space
340
1E
  0
BLOCK_RECORD
  5
23
330
1
100
AcDbSymbolTableRecord
100
AcDbBlockTableRecord
  2
*Paper_Space0
340
26
  0
ENDTAB
  0
ENDSEC
  0
SECTION
  2
BLOCKS
  0
BLOCK
  5
20
330
1F
100
AcDbEntity
  8
0
100
AcDbBlockBegin
  2
*Model_Space
 70
     0
 71
     0
 10
0.0
 20
0.0
 30
0.0
  3
*Model_Space
  1

  0
ENDBLK
  5
21
330
1F
100
AcDbEntity
  8
0
100
AcDbBlockEnd
  0
BLOCK
  5
1C
330
1B
100
AcDbEntity
 67
     1
  8
0
100
AcDbBlockBegin
  2
*Paper_Space
 70
     0
 71
     0
 10
0.0
 20
0.0
 30
0.0
  3
*Paper_Space
  1

  0
ENDBLK
  5
1D
330
1B
100
AcDbEntity
 67
     1
  8
0
100
AcDbBlockEnd
  0
BLOCK
  5
24
330
23
100
AcDbEntity
  8
0
100
AcDbBlockBegin
  2
*Paper_Space0
 70
     0
 71
     0
 10
0.0
 20
0.0
 30
0.0
  3
*Paper_Space0
  1

  0
ENDBLK
  5
25
330
23
100
AcDbEntity
  8
0
100
AcDbBlockEnd
  0
ENDSEC
  0
SECTION
  2
ENTITIES
  0
LINE
  5
3F
330
1F
100
AcDbEntity
  8
VOLLE_LIJNEN
  6
Continuous
 62
     4
100
AcDbLine
 10
9805.06773490924
 20
4644.6771199681
 30
0.0
 11
9805.06773490924
 21
4672.091219426
 31
0.0
  0
LINE
  5
40
330
1F
100
AcDbEntity
  8
VOLLE_LIJNEN
  6
Continuous
 62
     4
100
AcDbLine
 10
9863.45511384304
 20
4672.091219426
 30
0.0
 11
9863.45511384304
 21
4644.6771199681
 31
0.0
  0
LINE
  5
41
330
1F
100
AcDbEntity
  8
VOLLE_LIJNEN
  6
Continuous
 62
     4
100
AcDbLine
 10
9090.600116686041
 20
4644.6771199681
 30
0.0
 11
9090.600116686041
 21
4672.091219426
 31
0.0
  0
LINE
  5
42
330
1F
100
AcDbEntity
  8
VOLLE_LIJNEN
  6
Continuous
 62
     4
100
AcDbLine
 10
9138.27503111524
 20
4544.9226587914
 30
0.0
 11
9101.32982404505
 21
4544.9226587914
 31
0.0
  0
LINE
  5
43
330
1F
100
AcDbEntity
  8
VOLLE_LIJNEN
  6
Continuous
 62
     4
100
AcDbLine
 10
9099.32982404505
 20
4539.8346173051
 30
0.0
 11
9140.27503111524
 21
4539.8346173051
 31
0.0
  0
LINE
  5
44
330
1F
100
AcDbEntity
  8
VOLLE_LIJNEN
  6
Continuous
 62
     4
100
AcDbLine
 10
9099.32982404505
 20
4542.9226587914
 30
0.0
 11
9099.32982404505
 21
4539.8346173051
 31
0.0
  0
LINE
  5
45
330
1F
100
AcDbEntity
  8
VOLLE_LIJNEN
  6
Continuous
 62
     4
100
AcDbLine
 10
9140.27503111524
 20
4539.8346173051
 30
0.0
 11
9140.27503111524
 21
4542.9226587914
 31
0.0
  0
LINE
  5
46
330
1F
100
AcDbEntity
  8
VOLLE_LIJNEN
  6
Continuous
 62
     4
100
AcDbLine
 10
9132.061884690551
 20
4644.6771199681
 30
0.0
 11
9132.061884690551
 21
4622.1727459104
 31
0.0
  0
LINE
  5
47
330
1F
100
AcDbEntity
  8
VOLLE_LIJNEN
  6
Continuous
 62
     4
100
AcDbLine
 10
9107.47409901054
 20
4622.1727459104
 30
0.0
 11
9107.47409901054
 21
4644.6771199681
 31
0.0
  0
LINE
  5
48
330
1F
100
AcDbEntity
  8
VOLLE_LIJNEN
  6
Continuous
 62
     4
100
AcDbLine
 10
9108.54163161894
 20
4622.1727459104
 30
0.0
 11
9091.581559970249
 21
4622.1727459104
 31
0.0
  0
LINE
  5
49
330
1F
100
AcDbEntity
  8
VOLLE_LIJNEN
  6
Continuous
 62
     4
100
AcDbLine
 10
9148.970302744639
 20
4644.6771199681
 30
0.0
 11
9148.970302744639
 21
4672.091219426
 31
0.0
  0
LINE
  5
4A
330
1F
100
AcDbEntity
  8
VOLLE_LIJNEN
  6
Continuous
 62
     4
100
AcDbLine
 10
9090.600116686041
 20
4644.6771199681
 30
0.0
 11
9148.970302744639
 21
4644.6771199681
 31
0.0
  0
LINE
  5
4B
330
1F
100
AcDbEntity
  8
VOLLE_LIJNEN
  6
Continuous
 62
     4
100
AcDbLine
 10
9131.06322354144
 20
4622.1727459104
 30
0.0
 11
9147.93720586595
 21
4622.1727459104
 31
0.0
  0
LINE
  5
4C
330
1F
100
AcDbEntity
  8
1
  6
Continuous
 62
     4
100
AcDbLine
 10
9131.06322354144
 20
4622.1727459104
 30
0.0
 11
9131.06322354144
 21
4499.2337675311
 31
0.0
  0
LINE
  5
4D
330
1F
100
AcDbEntity
  8
1
  6
Continuous
 62
     4
100
AcDbLine
 10
9147.93720586595
 20
4499.2337675311
 30
0.0
 11
9147.93720586595
 21
4622.1727459104
 31
0.0
  0
LINE
  5
4E
330
1F
100
AcDbEntity
  8
1
  6
Continuous
 62
     4
100
AcDbLine
 10
9108.54163161894
 20
4622.1727459104
 30
0.0
 11
9108.54163161894
 21
4499.2337675311
 31
0.0
  0
LINE
  5
4F
330
1F
100
AcDbEntity
  8
1
  6
Continuous
 62
     4
100
AcDbLine
 10
9091.581559970249
 20
4499.2337675311
 30
0.0
 11
9091.581559970249
 21
4622.1727459104
 31
0.0
  0
LINE
  5
50
330
1F
100
AcDbEntity
  8
VOLLE_LIJNEN
  6
Continuous
 62
     4
100
AcDbLine
 10
9147.93720586595
 20
4499.2337675311
 30
0.0
 11
9131.06322354144
 21
4499.2337675311
 31
0.0
  0
LINE
  5
51
330
1F
100
AcDbEntity
  8
VOLLE_LIJNEN
  6
Continuous
 62
     4
100
AcDbLine
 10
9091.581559970249
 20
4499.2337675311
 30
0.0
 11
9108.54163161894
 21
4499.2337675311
 31
0.0
  0
LINE
  5
52
330
1F
100
AcDbEntity
  8
VOLLE_LIJNEN
  6
Continuous
 62
     4
100
AcDbLine
 10
9806.06637106865
 20
4499.2337675311
 30
0.0
 11
9823.026442717341
 21
4499.2337675311
 31
0.0
  0
LINE
  5
53
330
1F
100
AcDbEntity
  8
VOLLE_LIJNEN
  6
Continuous
 62
     4
100
AcDbLine
 10
9862.42201696434
 20
4499.2337675311
 30
0.0
 11
9845.54803463984
 21
4499.2337675311
 31
0.0
  0
LINE
  5
54
330
1F
100
AcDbEntity
  8
1
  6
Continuous
 62
     4
100
AcDbLine
 10
9806.06637106865
 20
4499.2337675311
 30
0.0
 11
9806.06637106865
 21
4622.1727459104
 31
0.0
  0
LINE
  5
55
330
1F
100
AcDbEntity
  8
1
  6
Continuous
 62
     4
100
AcDbLine
 10
9823.026442717341
 20
4622.1727459104
 30
0.0
 11
9823.026442717341
 21
4499.2337675311
 31
0.0
  0
LINE
  5
56
330
1F
100
AcDbEntity
  8
1
  6
Continuous
 62
     4
100
AcDbLine
 10
9862.42201696434
 20
4499.2337675311
 30
0.0
 11
9862.42201696434
 21
4622.1727459104
 31
0.0
  0
LINE
  5
57
330
1F
100
AcDbEntity
  8
1
  6
Continuous
 62
     4
100
AcDbLine
 10
9845.54803463984
 20
4622.1727459104
 30
0.0
 11
9845.54803463984
 21
4499.2337675311
 31
0.0
  0
LINE
  5
58
330
1F
100
AcDbEntity
  8
VOLLE_LIJNEN
  6
Continuous
 62
     4
100
AcDbLine
 10
9845.54803463984
 20
4622.1727459104
 30
0.0
 11
9862.42201696434
 21
4622.1727459104
 31
0.0
  0
LINE
  5
59
330
1F
100
AcDbEntity
  8
VOLLE_LIJNEN
  6
Continuous
 62
     4
100
AcDbLine
 10
9805.084927784441
 20
4644.6771199681
 30
0.0
 11
9863.45511384304
 21
4644.6771199681
 31
0.0
  0
LINE
  5
5A
330
1F
100
AcDbEntity
  8
VOLLE_LIJNEN
  6
Continuous
 62
     4
100
AcDbLine
 10
9863.45511384304
 20
4644.6771199681
 30
0.0
 11
9863.45511384304
 21
4672.091219426
 31
0.0
  0
LINE
  5
5B
330
1F
100
AcDbEntity
  8
VOLLE_LIJNEN
  6
Continuous
 62
     4
100
AcDbLine
 10
9823.026442717341
 20
4622.1727459104
 30
0.0
 11
9806.06637106865
 21
4622.1727459104
 31
0.0
  0
LINE
  5
5C
330
1F
100
AcDbEntity
  8
VOLLE_LIJNEN
  6
Continuous
 62
     4
100
AcDbLine
 10
9821.958910108941
 20
4622.1727459104
 30
0.0
 11
9821.958910108941
 21
4644.6771199681
 31
0.0
  0
LINE
  5
5D
330
1F
100
AcDbEntity
  8
VOLLE_LIJNEN
  6
Continuous
 62
     4
100
AcDbLine
 10
9846.54669578894
 20
4644.6771199681
 30
0.0
 11
9846.54669578894
 21
4622.1727459104
 31
0.0
  0
LINE
  5
5E
330
1F
100
AcDbEntity
  8
VOLLE_LIJNEN
  6
Continuous
 62
     4
100
AcDbLine
 10
9854.759842213651
 20
4539.8346173051
 30
0.0
 11
9854.759842213651
 21
4542.9226587914
 31
0.0
  0
LINE
  5
5F
330
1F
100
AcDbEntity
  8
VOLLE_LIJNEN
  6
Continuous
 62
     4
100
AcDbLine
 10
9813.81463514345
 20
4542.9226587914
 30
0.0
 11
9813.81463514345
 21
4539.8346173051
 31
0.0
  0
LINE
  5
60
330
1F
100
AcDbEntity
  8
VOLLE_LIJNEN
  6
Continuous
 62
     4
100
AcDbLine
 10
9813.81463514345
 20
4539.8346173051
 30
0.0
 11
9854.759842213651
 21
4539.8346173051
 31
0.0
  0
LINE
  5
61
330
1F
100
AcDbEntity
  8
VOLLE_LIJNEN
  6
Continuous
 62
     4
100
AcDbLine
 10
9852.759842213651
 20
4544.9226587914
 30
0.0
 11
9815.81463514345
 21
4544.9226587914
 31
0.0
  0
LINE
  5
62
330
1F
100
AcDbEntity
  8
VOLLE_LIJNEN
  6
Continuous
 62
     4
100
AcDbLine
 10
9805.084927784441
 20
4644.6771199681
 30
0.0
 11
9805.084927784441
 21
4672.091219426
 31
0.0
  0
LINE
  5
63
330
1F
100
AcDbEntity
  8
VOLLE_LIJNEN
  6
Continuous
 62
     4
100
AcDbLine
 10
6817.63491139914
 20
4644.6771204637
 30
0.0
 11
6817.63491139914
 21
4672.0912199216
 31
0.0
  0
LINE
  5
64
330
1F
100
AcDbEntity
  8
VOLLE_LIJNEN
  6
Continuous
 62
     4
100
AcDbLine
 10
6875.98785460334
 20
4644.6771204637
 30
0.0
 11
6875.98785460334
 21
4672.0912199216
 31
0.0
  0
LINE
  5
65
330
1F
100
AcDbEntity
  8
VOLLE_LIJNEN
  6
Continuous
 62
     4
100
AcDbLine
 10
6142.39391789244
 20
4672.0912199216
 30
0.0
 11
6142.39391789244
 21
4644.6771204637
 31
0.0
  0
LINE
  5
66
330
1F
100
AcDbEntity
  8
VOLLE_LIJNEN
  6
Continuous
 62
     4
100
AcDbLine
 10
6125.48552482784
 20
4600.9253014695
 30
0.0
 11
6125.48552482784
 21
4635.9043559478
 31
0.0
  0
LINE
  5
67
330
1F
100
AcDbEntity
  8
VOLLE_LIJNEN
  6
Continuous
 62
     4
100
AcDbLine
 10
6113.20883735784
 20
4641.9910585832
 30
0.0
 11
6176.48623983784
 21
4624.1958830065
 31
0.0
  0
LINE
  5
68
330
1F
100
AcDbEntity
  8
VOLLE_LIJNEN
  6
Continuous
 62
     4
100
AcDbLine
 10
6125.48552482784
 20
4638.5473856611
 30
0.0
 11
6125.48552482784
 21
4642.6625553111
 31
0.0
  0
LINE
  5
69
330
1F
100
AcDbEntity
  8
VOLLE_LIJNEN
  6
Continuous
 62
     4
100
AcDbLine
 10
6125.48552482784
 20
4635.9043559478
 30
0.0
 11
6168.11813262975
 21
4623.894582867
 31
0.0
  0
LINE
  5
6A
330
1F
100
AcDbEntity
  8
VOLLE_LIJNEN
  6
Continuous
 62
     4
100
AcDbLine
 10
6168.11813262975
 20
4623.894582867
 30
0.0
 11
6170.95915529354
 21
4623.1111325333
 31
0.0
  0
LINE
  5
6B
330
1F
100
AcDbEntity
  8
VOLLE_LIJNEN
  6
Continuous
 62
     4
100
AcDbLine
 10
6176.48623983784
 20
4624.1958830065
 30
0.0
 11
6191.84500007914
 21
4619.6932989033
 31
0.0
  0
LINE
  5
6C
330
1F
100
AcDbEntity
  8
VOLLE_LIJNEN
  6
Continuous
 62
     4
100
AcDbLine
 10
6125.48552482784
 20
4599.280957895
 30
0.0
 11
6125.48552482784
 21
4600.9253014695
 31
0.0
  0
LINE
  5
6D
330
1F
100
AcDbEntity
  8
VOLLE_LIJNEN
  6
Continuous
 62
     4
100
AcDbLine
 10
6244.65366586384
 20
4541.375679176
 30
0.0
 11
6241.10668575274
 21
4528.0831126921
 31
0.0
  0
LINE
  5
6E
330
1F
100
AcDbEntity
  8
VOLLE_LIJNEN
  6
Continuous
 62
     4
100
AcDbLine
 10
6239.23162646292
 20
4544.922659287
 30
0.0
 11
6264.36599315034
 21
4544.922659287
 31
0.0
  0
LINE
  5
6F
330
1F
100
AcDbEntity
  8
VOLLE_LIJNEN
  6
Continuous
 62
     4
100
AcDbLine
 10
6266.36599315034
 20
4542.922659287
 30
0.0
 11
6266.36599315034
 21
4541.6511650131
 31
0.0
  0
LINE
  5
70
330
1F
100
AcDbEntity
  8
VOLLE_LIJNEN
  6
Continuous
 62
     4
100
AcDbLine
 10
6262.76735944484
 20
4541.375679176
 30
0.0
 11
6244.65366586384
 21
4541.375679176
 31
0.0
  0
LINE
  5
71
330
1F
100
AcDbEntity
  8
VOLLE_LIJNEN
  6
Continuous
 62
     4
100
AcDbLine
 10
6232.39967316706
 20
4531.01022468
 30
0.0
 11
6228.39955166244
 21
4531.01022468
 31
0.0
  0
LINE
  5
72
330
1F
100
AcDbEntity
  8
VOLLE_LIJNEN
  6
Continuous
 62
     4
100
AcDbLine
 10
6226.28167932094
 20
4516.6759648799
 30
0.0
 11
6217.48312549224
 21
4516.6759648799
 31
0.0
  0
LINE
  5
73
330
1F
100
AcDbEntity
  8
VOLLE_LIJNEN
  6
Continuous
 62
     4
100
AcDbLine
 10
6234.33035301863
 20
4532.48823300311
 30
0.0
 11
6236.73322314094
 21
4541.375679176
 31
0.0
  0
LINE
  5
74
330
1F
100
AcDbEntity
  8
VOLLE_LIJNEN
  6
Continuous
 62
     4
100
AcDbLine
 10
6236.73322314094
 20
4541.375679176
 30
0.0
 11
6237.30291608395
 21
4543.45188161647
 31
0.0
  0
LINE
  5
75
330
1F
100
AcDbEntity
  8
VOLLE_LIJNEN
  6
Continuous
 62
     4
100
AcDbLine
 10
6100.93214988794
 20
4642.6625553111
 30
0.0
 11
6100.93214988794
 21
4550.4239045393
 31
0.0
  0
LINE
  5
76
330
1F
100
AcDbEntity
  8
VOLLE_LIJNEN
  6
Continuous
 62
     4
100
AcDbLine
 10
6084.02375682334
 20
4644.6771204637
 30
0.0
 11
6084.02375682334
 21
4672.0912199216
 31
0.0
  0
LINE
  5
77
330
1F
100
AcDbEntity
  8
VOLLE_LIJNEN
  6
Continuous
 62
     4
100
AcDbLine
 10
6100.93214988794
 20
4550.4239045393
 30
0.0
 11
6112.02077969584
 21
4550.4239045393
 31
0.0
  0
LINE
  5
78
330
1F
100
AcDbEntity
  8
1
  6
Continuous
 62
     4
100
AcDbLine
 10
6084.02375682334
 20
4644.6771204637
 30
0.0
 11
6142.39391789244
 21
4644.6771204637
 31
0.0
  0
LINE
  5
79
330
1F
100
AcDbEntity
  8
1
  6
Continuous
 62
     4
100
AcDbLine
 10
6817.63491139914
 20
4644.6771204637
 30
0.0
 11
6876.00507246824
 21
4644.6771204637
 31
0.0
  0
LINE
  5
7A
330
1F
100
AcDbEntity
  8
VOLLE_LIJNEN
  6
Continuous
 62
     4
100
AcDbLine
 10
6834.54330446374
 20
4550.4239045393
 30
0.0
 11
6845.63193427164
 21
4550.4239045393
 31
0.0
  0
LINE
  5
7B
330
1F
100
AcDbEntity
  8
VOLLE_LIJNEN
  6
Continuous
 62
     4
100
AcDbLine
 10
6834.54330446374
 20
4642.6625553111
 30
0.0
 11
6834.54330446374
 21
4550.4239045393
 31
0.0
  0
LINE
  5
7C
330
1F
100
AcDbEntity
  8
VOLLE_LIJNEN
  6
Continuous
 62
     4
100
AcDbLine
 10
6970.34437771674
 20
4541.375679176
 30
0.0
 11
6970.91407065975
 21
4543.45188161647
 31
0.0
  0
LINE
  5
7D
330
1F
100
AcDbEntity
  8
VOLLE_LIJNEN
  6
Continuous
 62
     4
100
AcDbLine
 10
6967.94150759443
 20
4532.48823300311
 30
0.0
 11
6970.34437771674
 21
4541.375679176
 31
0.0
  0
LINE
  5
7E
330
1F
100
AcDbEntity
  8
VOLLE_LIJNEN
  6
Continuous
 62
     4
100
AcDbLine
 10
6959.89283389674
 20
4516.6759648799
 30
0.0
 11
6951.09428006804
 21
4516.6759648799
 31
0.0
  0
LINE
  5
7F
330
1F
100
AcDbEntity
  8
VOLLE_LIJNEN
  6
Continuous
 62
     4
100
AcDbLine
 10
6966.01082774286
 20
4531.01022468
 30
0.0
 11
6962.01070623824
 21
4531.01022468
 31
0.0
  0
LINE
  5
80
330
1F
100
AcDbEntity
  8
VOLLE_LIJNEN
  6
Continuous
 62
     4
100
AcDbLine
 10
6996.37851402064
 20
4541.375679176
 30
0.0
 11
6978.26482043964
 21
4541.375679176
 31
0.0
  0
LINE
  5
81
330
1F
100
AcDbEntity
  8
VOLLE_LIJNEN
  6
Continuous
 62
     4
100
AcDbLine
 10
6999.97714772614
 20
4542.922659287
 30
0.0
 11
6999.97714772614
 21
4541.6511650131
 31
0.0
  0
LINE
  5
82
330
1F
100
AcDbEntity
  8
VOLLE_LIJNEN
  6
Continuous
 62
     4
100
AcDbLine
 10
6972.84278103873
 20
4544.922659287
 30
0.0
 11
6997.97714772614
 21
4544.922659287
 31
0.0
  0
LINE
  5
83
330
1F
100
AcDbEntity
  8
VOLLE_LIJNEN
  6
Continuous
 62
     4
100
AcDbLine
 10
6978.26482043964
 20
4541.375679176
 30
0.0
 11
6974.71784032854
 21
4528.0831126921
 31
0.0
  0
LINE
  5
84
330
1F
100
AcDbEntity
  8
VOLLE_LIJNEN
  6
Continuous
 62
     4
100
AcDbLine
 10
6859.09667940364
 20
4599.280957895
 30
0.0
 11
6859.09667940364
 21
4600.9253014695
 31
0.0
  0
LINE
  5
85
330
1F
100
AcDbEntity
  8
VOLLE_LIJNEN
  6
Continuous
 62
     4
100
AcDbLine
 10
6910.09739441364
 20
4624.1958830065
 30
0.0
 11
6925.45615465494
 21
4619.6932989033
 31
0.0
  0
LINE
  5
86
330
1F
100
AcDbEntity
  8
VOLLE_LIJNEN
  6
Continuous
 62
     4
100
AcDbLine
 10
6901.72928720555
 20
4623.894582867
 30
0.0
 11
6904.57030986934
 21
4623.1111325333
 31
0.0
  0
LINE
  5
87
330
1F
100
AcDbEntity
  8
VOLLE_LIJNEN
  6
Continuous
 62
     4
100
AcDbLine
 10
6859.09667940364
 20
4635.9043559478
 30
0.0
 11
6901.72928720555
 21
4623.894582867
 31
0.0
  0
LINE
  5
88
330
1F
100
AcDbEntity
  8
VOLLE_LIJNEN
  6
Continuous
 62
     4
100
AcDbLine
 10
6859.09667940364
 20
4638.5473856611
 30
0.0
 11
6859.09667940364
 21
4642.6625553111
 31
0.0
  0
LINE
  5
89
330
1F
100
AcDbEntity
  8
VOLLE_LIJNEN
  6
Continuous
 62
     4
100
AcDbLine
 10
6846.81999193364
 20
4641.9910585832
 30
0.0
 11
6910.09739441364
 21
4624.1958830065
 31
0.0
  0
LINE
  5
8A
330
1F
100
AcDbEntity
  8
VOLLE_LIJNEN
  6
Continuous
 62
     4
100
AcDbLine
 10
6859.09667940364
 20
4600.9253014695
 30
0.0
 11
6859.09667940364
 21
4635.9043559478
 31
0.0
  0
LINE
  5
8B
330
1F
100
AcDbEntity
  8
VOLLE_LIJNEN
  6
Continuous
 62
     4
100
AcDbLine
 10
3805.08492778444
 20
7644.67711996806
 30
0.0
 11
3805.08492778444
 21
7672.09121942596
 31
0.0
  0
LINE
  5
8C
330
1F
100
AcDbEntity
  8
VOLLE_LIJNEN
  6
Continuous
 62
     4
100
AcDbLine
 10
3852.75984221364
 20
7544.92265879136
 30
0.0
 11
3815.81463514345
 21
7544.92265879136
 31
0.0
  0
LINE
  5
8D
330
1F
100
AcDbEntity
  8
VOLLE_LIJNEN
  6
Continuous
 62
     4
100
AcDbLine
 10
3813.81463514345
 20
7539.83461730506
 30
0.0
 11
3854.75984221364
 21
7539.83461730506
 31
0.0
  0
LINE
  5
8E
330
1F
100
AcDbEntity
  8
VOLLE_LIJNEN
  6
Continuous
 62
     4
100
AcDbLine
 10
3813.81463514345
 20
7542.92265879136
 30
0.0
 11
3813.81463514345
 21
7539.83461730506
 31
0.0
  0
LINE
  5
8F
330
1F
100
AcDbEntity
  8
VOLLE_LIJNEN
  6
Continuous
 62
     4
100
AcDbLine
 10
3854.75984221364
 20
7539.83461730506
 30
0.0
 11
3854.75984221364
 21
7542.92265879136
 31
0.0
  0
LINE
  5
90
330
1F
100
AcDbEntity
  8
VOLLE_LIJNEN
  6
Continuous
 62
     4
100
AcDbLine
 10
3846.54669578894
 20
7644.67711996806
 30
0.0
 11
3846.54669578894
 21
7622.17274591036
 31
0.0
  0
LINE
  5
91
330
1F
100
AcDbEntity
  8
VOLLE_LIJNEN
  6
Continuous
 62
     4
100
AcDbLine
 10
3821.95891010894
 20
7622.17274591036
 30
0.0
 11
3821.95891010894
 21
7644.67711996806
 31
0.0
  0
LINE
  5
92
330
1F
100
AcDbEntity
  8
VOLLE_LIJNEN
  6
Continuous
 62
     4
100
AcDbLine
 10
3823.02644271734
 20
7622.17274591036
 30
0.0
 11
3806.06637106865
 21
7622.17274591036
 31
0.0
  0
LINE
  5
93
330
1F
100
AcDbEntity
  8
VOLLE_LIJNEN
  6
Continuous
 62
     4
100
AcDbLine
 10
3863.45511384304
 20
7644.67711996806
 30
0.0
 11
3863.45511384304
 21
7672.09121942596
 31
0.0
  0
LINE
  5
94
330
1F
100
AcDbEntity
  8
VOLLE_LIJNEN
  6
Continuous
 62
     4
100
AcDbLine
 10
3805.08492778444
 20
7644.67711996806
 30
0.0
 11
3863.45511384304
 21
7644.67711996806
 31
0.0
  0
LINE
  5
95
330
1F
100
AcDbEntity
  8
VOLLE_LIJNEN
  6
Continuous
 62
     4
100
AcDbLine
 10
3845.54803463984
 20
7622.17274591036
 30
0.0
 11
3862.42201696435
 21
7622.17274591036
 31
0.0
  0
LINE
  5
96
330
1F
100
AcDbEntity
  8
1
  6
Continuous
 62
     4
100
AcDbLine
 10
3845.54803463984
 20
7622.17274591036
 30
0.0
 11
3845.54803463984
 21
7499.23376753106
 31
0.0
  0
LINE
  5
97
330
1F
100
AcDbEntity
  8
1
  6
Continuous
 62
     4
100
AcDbLine
 10
3862.42201696435
 20
7499.23376753106
 30
0.0
 11
3862.42201696435
 21
7622.17274591036
 31
0.0
  0
LINE
  5
98
330
1F
100
AcDbEntity
  8
1
  6
Continuous
 62
     4
100
AcDbLine
 10
3823.02644271734
 20
7622.17274591036
 30
0.0
 11
3823.02644271734
 21
7499.23376753106
 31
0.0
  0
LINE
  5
99
330
1F
100
AcDbEntity
  8
1
  6
Continuous
 62
     4
100
AcDbLine
 10
3806.06637106865
 20
7499.23376753106
 30
0.0
 11
3806.06637106865
 21
7622.17274591036
 31
0.0
  0
LINE
  5
9A
330
1F
100
AcDbEntity
  8
VOLLE_LIJNEN
  6
Continuous
 62
     4
100
AcDbLine
 10
3862.42201696435
 20
7499.23376753106
 30
0.0
 11
3845.54803463984
 21
7499.23376753106
 31
0.0
  0
LINE
  5
9B
330
1F
100
AcDbEntity
  8
VOLLE_LIJNEN
  6
Continuous
 62
     4
100
AcDbLine
 10
3806.06637106865
 20
7499.23376753106
 30
0.0
 11
3823.02644271734
 21
7499.23376753106
 31
0.0
  0
LINE
  5
9C
330
1F
100
AcDbEntity
  8
VOLLE_LIJNEN
  6
Continuous
 62
     4
100
AcDbLine
 10
3091.58155997025
 20
7499.23376753106
 30
0.0
 11
3108.54163161894
 21
7499.23376753106
 31
0.0
  0
LINE
  5
9D
330
1F
100
AcDbEntity
  8
VOLLE_LIJNEN
  6
Continuous
 62
     4
100
AcDbLine
 10
3147.93720586595
 20
7499.23376753106
 30
0.0
 11
3131.06322354144
 21
7499.23376753106
 31
0.0
  0
LINE
  5
9E
330
1F
100
AcDbEntity
  8
1
  6
Continuous
 62
     4
100
AcDbLine
 10
3091.58155997025
 20
7499.23376753106
 30
0.0
 11
3091.58155997025
 21
7622.17274591036
 31
0.0
  0
LINE
  5
9F
330
1F
100
AcDbEntity
  8
1
  6
Continuous
 62
     4
100
AcDbLine
 10
3108.54163161894
 20
7622.17274591036
 30
0.0
 11
3108.54163161894
 21
7499.23376753106
 31
0.0
  0
LINE
  5
A0
330
1F
100
AcDbEntity
  8
1
  6
Continuous
 62
     4
100
AcDbLine
 10
3147.93720586595
 20
7499.23376753106
 30
0.0
 11
3147.93720586595
 21
7622.17274591036
 31
0.0
  0
LINE
  5
A1
330
1F
100
AcDbEntity
  8
1
  6
Continuous
 62
     4
100
AcDbLine
 10
3131.06322354144
 20
7622.17274591036
 30
0.0
 11
3131.06322354144
 21
7499.23376753106
 31
0.0
  0
LINE
  5
A2
330
1F
100
AcDbEntity
  8
VOLLE_LIJNEN
  6
Continuous
 62
     4
100
AcDbLine
 10
3131.06322354144
 20
7622.17274591036
 30
0.0
 11
3147.93720586595
 21
7622.17274591036
 31
0.0
  0
LINE
  5
A3
330
1F
100
AcDbEntity
  8
VOLLE_LIJNEN
  6
Continuous
 62
     4
100
AcDbLine
 10
1579.09667940364
 20
7600.92530146946
 30
0.0
 11
1579.09667940364
 21
7635.904355947761
 31
0.0
  0
LINE
  5
A4
330
1F
100
AcDbEntity
  8
VOLLE_LIJNEN
  6
Continuous
 62
     4
100
AcDbLine
 10
1566.81999193364
 20
7641.99105858316
 30
0.0
 11
1630.09739441364
 21
7624.19588300646
 31
0.0
  0
LINE
  5
A5
330
1F
100
AcDbEntity
  8
VOLLE_LIJNEN
  6
Continuous
 62
     4
100
AcDbLine
 10
1579.09667940364
 20
7638.54738566106
 30
0.0
 11
1579.09667940364
 21
7642.66255531106
 31
0.0
  0
LINE
  5
A6
330
1F
100
AcDbEntity
  8
VOLLE_LIJNEN
  6
Continuous
 62
     4
100
AcDbLine
 10
1579.09667940364
 20
7635.904355947761
 30
0.0
 11
1621.72928720555
 21
7623.89458286696
 31
0.0
  0
LINE
  5
A7
330
1F
100
AcDbEntity
  8
VOLLE_LIJNEN
  6
Continuous
 62
     4
100
AcDbLine
 10
1621.72928720555
 20
7623.89458286696
 30
0.0
 11
1624.57030986934
 21
7623.11113253326
 31
0.0
  0
LINE
  5
A8
330
1F
100
AcDbEntity
  8
VOLLE_LIJNEN
  6
Continuous
 62
     4
100
AcDbLine
 10
1630.09739441364
 20
7624.19588300646
 30
0.0
 11
1645.45615465494
 21
7619.69329890326
 31
0.0
  0
LINE
  5
A9
330
1F
100
AcDbEntity
  8
VOLLE_LIJNEN
  6
Continuous
 62
     4
100
AcDbLine
 10
1579.09667940364
 20
7599.28095789496
 30
0.0
 11
1579.09667940364
 21
7600.92530146946
 31
0.0
  0
LINE
  5
AA
330
1F
100
AcDbEntity
  8
VOLLE_LIJNEN
  6
Continuous
 62
     4
100
AcDbLine
 10
1698.26482043964
 20
7541.37567917596
 30
0.0
 11
1694.71784032854
 21
7528.08311269206
 31
0.0
  0
LINE
  5
AB
330
1F
100
AcDbEntity
  8
VOLLE_LIJNEN
  6
Continuous
 62
     4
100
AcDbLine
 10
1692.84278103873
 20
7544.92265928696
 30
0.0
 11
1717.97714772614
 21
7544.92265928696
 31
0.0
  0
LINE
  5
AC
330
1F
100
AcDbEntity
  8
VOLLE_LIJNEN
  6
Continuous
 62
     4
100
AcDbLine
 10
1719.97714772614
 20
7542.92265928696
 30
0.0
 11
1719.97714772614
 21
7541.65116501306
 31
0.0
  0
LINE
  5
AD
330
1F
100
AcDbEntity
  8
VOLLE_LIJNEN
  6
Continuous
 62
     4
100
AcDbLine
 10
1716.37851402064
 20
7541.37567917596
 30
0.0
 11
1698.26482043964
 21
7541.37567917596
 31
0.0
  0
LINE
  5
AE
330
1F
100
AcDbEntity
  8
VOLLE_LIJNEN
  6
Continuous
 62
     4
100
AcDbLine
 10
1686.01082774286
 20
7531.01022467996
 30
0.0
 11
1682.01070623824
 21
7531.01022467996
 31
0.0
  0
LINE
  5
AF
330
1F
100
AcDbEntity
  8
VOLLE_LIJNEN
  6
Continuous
 62
     4
100
AcDbLine
 10
1679.89283389674
 20
7516.67596487986
 30
0.0
 11
1671.09428006804
 21
7516.67596487986
 31
0.0
  0
LINE
  5
B0
330
1F
100
AcDbEntity
  8
VOLLE_LIJNEN
  6
Continuous
 62
     4
100
AcDbLine
 10
1687.94150759443
 20
7532.48823300307
 30
0.0
 11
1690.34437771674
 21
7541.37567917596
 31
0.0
  0
LINE
  5
B1
330
1F
100
AcDbEntity
  8
VOLLE_LIJNEN
  6
Continuous
 62
     4
100
AcDbLine
 10
1690.34437771674
 20
7541.37567917596
 30
0.0
 11
1690.91407065975
 21
7543.45188161643
 31
0.0
  0
LINE
  5
B2
330
1F
100
AcDbEntity
  8
VOLLE_LIJNEN
  6
Continuous
 62
     4
100
AcDbLine
 10
1554.54330446374
 20
7642.66255531106
 30
0.0
 11
1554.54330446374
 21
7550.42390453926
 31
0.0
  0
LINE
  5
B3
330
1F
100
AcDbEntity
  8
VOLLE_LIJNEN
  6
Continuous
 62
     4
100
AcDbLine
 10
1554.54330446374
 20
7550.42390453926
 30
0.0
 11
1565.63193427164
 21
7550.42390453926
 31
0.0
  0
LINE
  5
B4
330
1F
100
AcDbEntity
  8
1
  6
Continuous
 62
     4
100
AcDbLine
 10
1537.63491139914
 20
7644.67712046366
 30
0.0
 11
1596.00507246824
 21
7644.67712046366
 31
0.0
  0
LINE
  5
B5
330
1F
100
AcDbEntity
  8
1
  6
Continuous
 62
     4
100
AcDbLine
 10
804.023756823338
 20
7644.67712046366
 30
0.0
 11
862.393917892438
 21
7644.67712046366
 31
0.0
  0
LINE
  5
B6
330
1F
100
AcDbEntity
  8
0
  6
Continuous
 62
     7
100
AcDbLine
 10
3075.95978280116
 20
4914.3947209864
 30
0.0
 11
3468.01443056234
 21
4914.3947209865
 31
0.0
  0
LINE
  5
B7
330
1F
100
AcDbEntity
  8
1
  6
Continuous
 62
     7
100
AcDbLine
 10
3480.01443056234
 20
4903.0748636356
 30
0.0
 11
3480.01443056234
 21
4898.7995111828
 31
0.0
  0
LINE
  5
B8
330
1F
100
AcDbEntity
  8
1
  6
Continuous
 62
     7
100
AcDbLine
 10
1416.01436935038
 20
4902.3947209864
 30
0.0
 11
1416.01436935038
 21
4899.3947209864
 31
0.0
  0
LINE
  5
B9
330
1F
100
AcDbEntity
  8
1
  6
Continuous
 62
     7
100
AcDbLine
 10
984.014491951098
 20
4902.3947209864
 30
0.0
 11
984.014491951098
 21
4899.3947209864
 31
0.0
  0
LINE
  5
BA
330
1F
100
AcDbEntity
  8
1
  6
Continuous
 62
     7
100
AcDbLine
 10
3960.01443056234
 20
4812.9241467656
 30
0.0
 11
3000.01443056234
 21
4812.9241467656
 31
0.0
  0
LINE
  5
BB
330
1F
100
AcDbEntity
  8
1
  6
Continuous
 62
     7
100
AcDbLine
 10
3000.01443020874
 20
4812.9241467656
 30
0.0
 11
3000.01443020874
 21
4508.084534187
 31
0.0
  0
LINE
  5
BC
330
1F
100
AcDbEntity
  8
1
  6
Continuous
 62
     7
100
AcDbLine
 10
3000.01443020874
 20
4898.7995111828
 30
0.0
 11
3000.01443020874
 21
4817.82502259948
 31
0.0
  0
LINE
  5
BD
330
1F
100
AcDbEntity
  8
0
  6
Continuous
 62
     7
100
AcDbLine
 10
3492.01443056234
 20
4914.3947209865
 30
0.0
 11
3884.06907832351
 21
4914.3947209864
 31
0.0
  0
LINE
  5
BE
330
1F
100
AcDbEntity
  8
1
  6
Continuous
 62
     7
100
AcDbLine
 10
3960.01443056234
 20
4818.2578226062
 30
0.0
 11
3960.01443056234
 21
4898.75704476
 31
0.0
  0
LINE
  5
BF
330
1F
100
AcDbEntity
  8
1
  6
Continuous
 62
     7
100
AcDbLine
 10
3960.01443056233
 20
4508.084534187
 30
0.0
 11
3960.01443056234
 21
4812.9241467656
 31
0.0
  0
LINE
  5
C0
330
1F
100
AcDbEntity
  8
1
  6
Continuous
 62
     7
100
AcDbLine
 10
720.014430562338
 20
4898.75704476
 30
0.0
 11
720.014430562338
 21
4818.2578226062
 31
0.0
  0
LINE
  5
C1
330
1F
100
AcDbEntity
  8
1
  6
Continuous
 62
     7
100
AcDbLine
 10
720.014430562338
 20
4812.9241467656
 30
0.0
 11
720.014430562338
 21
4508.084534187
 31
0.0
  0
LINE
  5
C2
330
1F
100
AcDbEntity
  8
0
  6
Continuous
 62
     7
100
AcDbLine
 10
795.959782801158
 20
4914.3947209864
 30
0.0
 11
972.014491774298
 21
4914.3947209864
 31
0.0
  0
LINE
  5
C3
330
1F
100
AcDbEntity
  8
1
  6
Continuous
 62
     7
100
AcDbLine
 10
1680.01443056234
 20
4812.9241467656
 30
0.0
 11
720.014430915938
 21
4812.9241467656
 31
0.0
  0
LINE
  5
C4
330
1F
100
AcDbEntity
  8
1
  6
Continuous
 62
     7
100
AcDbLine
 10
1680.01443056234
 20
4508.084534187
 30
0.0
 11
1680.01443056234
 21
4812.9241467656
 31
0.0
  0
LINE
  5
C5
330
1F
100
AcDbEntity
  8
1
  6
Continuous
 62
     7
100
AcDbLine
 10
1680.01443056234
 20
4818.2578226062
 30
0.0
 11
1680.01443056234
 21
4898.75704476
 31
0.0
  0
LINE
  5
C6
330
1F
100
AcDbEntity
  8
1
  6
Continuous
 62
     1
100
AcDbLine
 10
720.014430739138
 20
3480.0
 30
0.0
 11
984.014491774298
 21
3480.0
 31
0.0
  0
LINE
  5
C7
330
1F
100
AcDbEntity
  8
1
  6
Continuous
 62
     1
100
AcDbLine
 10
1416.01436917358
 20
3480.0
 30
0.0
 11
1680.01443038554
 21
3480.0
 31
0.0
  0
LINE
  5
C8
330
1F
100
AcDbEntity
  8
1
  6
Continuous
 62
     1
100
AcDbLine
 10
984.014491774298
 20
3264.0
 30
0.0
 11
1416.01436917358
 21
3264.0
 31
0.0
  0
LINE
  5
C9
330
1F
100
AcDbEntity
  8
1
  6
Continuous
 62
     1
100
AcDbLine
 10
984.014491774298
 20
3696.0
 30
0.0
 11
1416.01436917358
 21
3696.0
 31
0.0
  0
LINE
  5
CA
330
1F
100
AcDbEntity
  8
1
  6
Continuous
 62
     1
100
AcDbLine
 10
3000.01443020874
 20
4898.7995111828
 30
0.0
 11
3960.01443056234
 21
4898.7995111828
 31
0.0
  0
LINE
  5
CB
330
1F
100
AcDbEntity
  8
1
  6
Continuous
 62
     1
100
AcDbLine
 10
720.014430915938
 20
4898.75704476
 30
0.0
 11
1680.01443056234
 21
4898.75704476
 31
0.0
  0
LINE
  5
CC
330
1F
100
AcDbEntity
  8
0
  6
Continuous
 62
     1
100
AcDbLine
 10
1416.01436917358
 20
3000.3030615433
 30
0.0
 11
1416.01436917358
 21
3960.0
 31
0.0
  0
LINE
  5
CD
330
1F
100
AcDbEntity
  8
0
  6
Continuous
 62
     7
100
AcDbLine
 10
1680.01443038554
 20
3000.0
 30
0.0
 11
1680.01443038554
 21
3960.0
 31
0.0
  0
LINE
  5
CE
330
1F
100
AcDbEntity
  8
0
  6
Continuous
 62
     7
100
AcDbLine
 10
720.014430739138
 20
3960.0
 30
0.0
 11
1680.01443038554
 21
3960.0
 31
0.0
  0
LINE
  5
CF
330
1F
100
AcDbEntity
  8
0
  6
Continuous
 62
     7
100
AcDbLine
 10
720.014430739138
 20
3000.0
 30
0.0
 11
1680.01443038554
 21
3000.0
 31
0.0
  0
LINE
  5
D0
330
1F
100
AcDbEntity
  8
0
  6
Continuous
 62
     1
100
AcDbLine
 10
984.014491774298
 20
3000.3030615433
 30
0.0
 11
984.014491774298
 21
3960.0
 31
0.0
  0
LINE
  5
D1
330
1F
100
AcDbEntity
  8
0
  6
Continuous
 62
     7
100
AcDbLine
 10
720.014430739138
 20
3000.0
 30
0.0
 11
720.014430739138
 21
3960.0
 31
0.0
  0
LINE
  5
D2
330
1F
100
AcDbEntity
  8
0
  6
Continuous
 62
     7
100
AcDbLine
 10
3960.01443056233
 20
4508.0845336914
 30
0.0
 11
3000.01443056234
 21
4508.0845336914
 31
0.0
  0
LINE
  5
D3
330
1F
100
AcDbEntity
  8
0
  6
Continuous
 62
     7
100
AcDbLine
 10
996.014491951118
 20
4914.3947209864
 30
0.0
 11
1404.0143693504
 21
4914.3947209864
 31
0.0
  0
LINE
  5
D4
330
1F
100
AcDbEntity
  8
0
  6
Continuous
 62
     7
100
AcDbLine
 10
840.014430562338
 20
4672.0912199216
 30
0.0
 11
1560.01443056234
 21
4672.0912199216
 31
0.0
  0
LINE
  5
D5
330
1F
100
AcDbEntity
  8
0
  6
Continuous
 62
     7
100
AcDbLine
 10
1428.01436935038
 20
4914.3947209864
 30
0.0
 11
1604.06907832351
 21
4914.3947209864
 31
0.0
  0
LINE
  5
D6
330
1F
100
AcDbEntity
  8
1
  6
Continuous
 62
     7
100
AcDbLine
 10
720.014430562338
 20
6959.99999999996
 30
0.0
 11
720.014430562338
 21
6000.0
 31
0.0
  0
LINE
  5
D7
330
1F
100
AcDbEntity
  8
1
  6
Continuous
 62
     7
100
AcDbLine
 10
1680.01443056234
 20
6000.0
 30
0.0
 11
1680.01443056234
 21
6959.99999999996
 31
0.0
  0
LINE
  5
D8
330
1F
100
AcDbEntity
  8
1
  6
Continuous
 62
     7
100
AcDbLine
 10
720.014430562338
 20
6549.5685577392
 30
0.0
 11
1680.01443056234
 21
6549.5685577392
 31
0.0
  0
LINE
  5
D9
330
1F
100
AcDbEntity
  8
1
  6
Continuous
 62
     7
100
AcDbLine
 10
720.014430562338
 20
6684.94781494137
 30
0.0
 11
1680.01443056234
 21
6684.94781494137
 31
0.0
  0
LINE
  5
DA
330
1F
100
AcDbEntity
  8
1
  6
Continuous
 62
     7
100
AcDbLine
 10
720.014430562338
 20
6959.99999999996
 30
0.0
 11
1680.01443056234
 21
6959.99999999996
 31
0.0
  0
LINE
  5
DB
330
1F
100
AcDbEntity
  8
1
  6
Continuous
 62
     7
100
AcDbLine
 10
1680.01443056234
 20
6000.0
 30
0.0
 11
720.014430562338
 21
6000.0
 31
0.0
  0
LINE
  5
DC
330
1F
100
AcDbEntity
  8
0
  6
Continuous
 62
     7
100
AcDbLine
 10
35273.9536417987
 20
20086.3368835449
 30
0.0
 11
35288.8137658021
 21
20086.3368835449
 31
0.0
  0
LINE
  5
DD
330
1F
100
AcDbEntity
  8
1
  6
Continuous
 62
     7
100
AcDbLine
 10
25273.9536417986
 20
17086.3368835449
 30
0.0
 11
25288.8137658021
 21
17086.3368835449
 31
0.0
  0
LINE
  5
DE
330
1F
100
AcDbEntity
  8
0
  6
Continuous
 62
     7
100
AcDbLine
 10
35328.6471022322
 20
20094.1254913203
 30
0.0
 11
35328.6368878981
 21
20094.1117460832
 31
0.0
  0
LINE
  5
DF
330
1F
100
AcDbEntity
  8
1
  6
Continuous
 62
     7
100
AcDbLine
 10
35000.0144305623
 20
20002.684223175
 30
0.0
 11
35000.0144305623
 21
19507.604887303
 31
0.0
  0
LINE
  5
E0
330
1F
100
AcDbEntity
  8
1
  6
Continuous
 62
     4
100
AcDbLine
 10
35000.0144305623
 20
19500.0
 30
0.0
 11
35960.0144305623
 21
19500.0
 31
0.0
  0
LINE
  5
E1
330
1F
100
AcDbEntity
  8
1
  6
Continuous
 62
     4
100
AcDbLine
 10
35000.0144305623
 20
19508.0845336914
 30
0.0
 11
35960.0144305623
 21
19508.0845336914
 31
0.0
  0
LINE
  5
E2
330
1F
100
AcDbEntity
  8
1
  6
Continuous
 62
     7
100
AcDbLine
 10
35000.0144305623
 20
19507.604887303
 30
0.0
 11
35960.0144305623
 21
19507.604887303
 31
0.0
  0
LINE
  5
E3
330
1F
100
AcDbEntity
  8
1
  6
Continuous
 62
     7
100
AcDbLine
 10
35960.0144305623
 20
19507.604887303
 30
0.0
 11
35960.0144305623
 21
19914.3947209864
 31
0.0
  0
LINE
  5
E4
330
1F
100
AcDbEntity
  8
1
  6
Continuous
 62
     7
100
AcDbLine
 10
35265.1027801441
 20
19914.3947209864
 30
0.0
 11
35960.0144305623
 21
19914.3947209864
 31
0.0
  0
LINE
  5
E5
330
1F
100
AcDbEntity
  8
1
  6
Continuous
 62
     7
100
AcDbLine
 10
35000.0144305623
 20
20002.684223175
 30
0.0
 11
35265.1027801441
 21
20002.684223175
 31
0.0
  0
LINE
  5
E6
330
1F
100
AcDbEntity
  8
1
  6
Continuous
 62
     7
100
AcDbLine
 10
35265.1027801441
 20
19914.3947209864
 30
0.0
 11
35265.1027801441
 21
20002.684223175
 31
0.0
  0
LINE
  5
E7
330
1F
100
AcDbEntity
  8
1
  6
Continuous
 62
     7
100
AcDbLine
 10
35000.0144305623
 20
20116.9058404548
 30
0.0
 11
35000.0144305623
 21
20016.7483792098
 31
0.0
  0
LINE
  5
E8
330
1F
100
AcDbEntity
  8
1
  6
Continuous
 62
     7
100
AcDbLine
 10
35000.0144305623
 20
20116.9058404548
 30
0.0
 11
35273.9536417987
 21
20116.9058404548
 31
0.0
  0
LINE
  5
E9
330
1F
100
AcDbEntity
  8
1
  6
Continuous
 62
     7
100
AcDbLine
 10
35021.5284798656
 20
20011.4147033691
 30
0.0
 11
35252.4395924952
 21
20011.4147033691
 31
0.0
  0
LINE
  5
EA
330
1F
100
AcDbEntity
  8
1
  6
Continuous
 62
     7
100
AcDbLine
 10
35199.3251835425
 20
20132.5435166812
 30
0.0
 11
35074.6428888185
 21
20132.5435166812
 31
0.0
  0
LINE
  5
EB
330
1F
100
AcDbEntity
  8
1
  6
Continuous
 62
     7
100
AcDbLine
 10
35000.0144305623
 20
20016.7483792098
 30
0.0
 11
35270.3405396052
 21
20016.7483792098
 31
0.0
  0
LINE
  5
EC
330
1F
100
AcDbEntity
  8
1
  6
Continuous
 62
     3
100
AcDbLine
 10
35155.7313985775
 20
20326.9848969854
 30
0.0
 11
35061.0307982134
 21
20294.376411376
 31
0.0
  0
LINE
  5
ED
330
1F
100
AcDbEntity
  8
1
  6
Continuous
 62
     3
100
AcDbLine
 10
35235.407131649
 20
20143.6243485277
 30
0.0
 11
35194.8140419011
 21
20261.5136002952
 31
0.0
  0
LINE
  5
EE
330
1F
100
AcDbEntity
  8
1
  6
Continuous
 62
     3
100
AcDbLine
 10
35155.7313985775
 20
20326.9848969854
 30
0.0
 11
35223.2355639519
 21
20130.9412945746
 31
0.0
  0
LINE
  5
EF
330
1F
100
AcDbEntity
  8
1
  6
Continuous
 62
     3
100
AcDbLine
 10
35061.0307982134
 20
20294.376411376
 30
0.0
 11
35116.7551082758
 21
20132.5435166812
 31
0.0
  0
LINE
  5
F0
330
1F
100
AcDbEntity
  8
1
  6
Continuous
 62
     3
100
AcDbLine
 10
35062.9920925634
 20
20272.2980115276
 30
0.0
 11
35111.1140940769
 21
20132.5435166812
 31
0.0
  0
LINE
  5
F1
330
1F
100
AcDbEntity
  8
1
  6
Continuous
 62
     7
100
AcDbLine
 10
35885.3859723062
 20
20031.5975189209
 30
0.0
 11
35339.7312384003
 21
20031.5975189209
 31
0.0
  0
LINE
  5
F2
330
1F
100
AcDbEntity
  8
1
  6
Continuous
 62
     7
100
AcDbLine
 10
35960.0144305623
 20
19919.7283968271
 30
0.0
 11
35960.0144305623
 21
20131.4147033691
 31
0.0
  0
LINE
  5
F3
330
1F
100
AcDbEntity
  8
1
  6
Continuous
 62
     7
100
AcDbLine
 10
35265.1027801441
 20
20012.701675415
 30
0.0
 11
35265.1027801441
 21
19919.7283968271
 31
0.0
  0
LINE
  5
F4
330
1F
100
AcDbEntity
  8
1
  6
Continuous
 62
     7
100
AcDbLine
 10
35265.1027801441
 20
20012.701675415
 30
0.0
 11
35273.9536417987
 21
20019.5398694386
 31
0.0
  0
LINE
  5
F5
330
1F
100
AcDbEntity
  8
1
  6
Continuous
 62
     7
100
AcDbLine
 10
35273.9536417987
 20
20116.9058404548
 30
0.0
 11
35273.9536417987
 21
20019.5398694386
 31
0.0
  0
LINE
  5
F6
330
1F
100
AcDbEntity
  8
1
  6
Continuous
 62
     7
100
AcDbLine
 10
25273.9536417986
 20
17116.9058404548
 30
0.0
 11
25273.9536417986
 21
17019.5398694386
 31
0.0
  0
LINE
  5
F7
330
1F
100
AcDbEntity
  8
1
  6
Continuous
 62
     7
100
AcDbLine
 10
25265.102780144
 20
17012.701675415
 30
0.0
 11
25265.102780144
 21
16919.7283968271
 31
0.0
  0
LINE
  5
F8
330
1F
100
AcDbEntity
  8
1
  6
Continuous
 62
     7
100
AcDbLine
 10
25960.0144305623
 20
16919.7283968271
 30
0.0
 11
25960.0144305623
 21
17015.9598426944
 31
0.0
  0
LINE
  5
F9
330
1F
100
AcDbEntity
  8
1
  6
Continuous
 62
     7
100
AcDbLine
 10
25885.3859723061
 20
17031.5975189209
 30
0.0
 11
25339.7312384002
 21
17031.5975189209
 31
0.0
  0
LINE
  5
FA
330
1F
100
AcDbEntity
  8
1
  6
Continuous
 62
     3
100
AcDbLine
 10
25062.9920925633
 20
17272.2980115276
 30
0.0
 11
25111.1140940768
 21
17132.5435166812
 31
0.0
  0
LINE
  5
FB
330
1F
100
AcDbEntity
  8
1
  6
Continuous
 62
     3
100
AcDbLine
 10
25061.0307982133
 20
17294.376411376
 30
0.0
 11
25116.7551082758
 21
17132.5435166812
 31
0.0
  0
LINE
  5
FC
330
1F
100
AcDbEntity
  8
1
  6
Continuous
 62
     3
100
AcDbLine
 10
25155.7313985774
 20
17326.9848969854
 30
0.0
 11
25223.2355639518
 21
17130.9412945746
 31
0.0
  0
LINE
  5
FD
330
1F
100
AcDbEntity
  8
1
  6
Continuous
 62
     3
100
AcDbLine
 10
25235.407131649
 20
17143.6243485277
 30
0.0
 11
25194.814041901
 21
17261.5136002952
 31
0.0
  0
LINE
  5
FE
330
1F
100
AcDbEntity
  8
1
  6
Continuous
 62
     3
100
AcDbLine
 10
25155.7313985774
 20
17326.9848969854
 30
0.0
 11
25061.0307982133
 21
17294.376411376
 31
0.0
  0
LINE
  5
FF
330
1F
100
AcDbEntity
  8
1
  6
Continuous
 62
     7
100
AcDbLine
 10
25000.0144305623
 20
17016.7483792098
 30
0.0
 11
25270.3405396051
 21
17016.7483792098
 31
0.0
  0
LINE
  5
100
330
1F
100
AcDbEntity
  8
1
  6
Continuous
 62
     7
100
AcDbLine
 10
25199.3251835424
 20
17132.5435166812
 30
0.0
 11
25074.6428888185
 21
17132.5435166812
 31
0.0
  0
LINE
  5
101
330
1F
100
AcDbEntity
  8
1
  6
Continuous
 62
     7
100
AcDbLine
 10
25021.5284798655
 20
17011.4147033691
 30
0.0
 11
25252.4395924952
 21
17011.4147033691
 31
0.0
  0
LINE
  5
102
330
1F
100
AcDbEntity
  8
1
  6
Continuous
 62
     7
100
AcDbLine
 10
25000.0144305623
 20
17116.9058404548
 30
0.0
 11
25273.9536417986
 21
17116.9058404548
 31
0.0
  0
LINE
  5
103
330
1F
100
AcDbEntity
  8
1
  6
Continuous
 62
     7
100
AcDbLine
 10
25000.0144305623
 20
17116.9058404548
 30
0.0
 11
25000.0144305623
 21
17016.7483792098
 31
0.0
  0
LINE
  5
104
330
1F
100
AcDbEntity
  8
1
  6
Continuous
 62
     7
100
AcDbLine
 10
25265.102780144
 20
16914.3947209864
 30
0.0
 11
25265.102780144
 21
17002.684223175
 31
0.0
  0
LINE
  5
105
330
1F
100
AcDbEntity
  8
1
  6
Continuous
 62
     7
100
AcDbLine
 10
25000.0144305623
 20
17002.684223175
 30
0.0
 11
25265.102780144
 21
17002.684223175
 31
0.0
  0
LINE
  5
106
330
1F
100
AcDbEntity
  8
1
  6
Continuous
 62
     7
100
AcDbLine
 10
25265.102780144
 20
16914.3947209864
 30
0.0
 11
25960.0144305623
 21
16914.3947209864
 31
0.0
  0
LINE
  5
107
330
1F
100
AcDbEntity
  8
1
  6
Continuous
 62
     7
100
AcDbLine
 10
25960.0144305622
 20
16507.604887303
 30
0.0
 11
25960.0144305623
 21
16914.3947209864
 31
0.0
  0
LINE
  5
108
330
1F
100
AcDbEntity
  8
1
  6
Continuous
 62
     7
100
AcDbLine
 10
25000.0144305623
 20
16507.604887303
 30
0.0
 11
25960.0144305622
 21
16507.604887303
 31
0.0
  0
LINE
  5
109
330
1F
100
AcDbEntity
  8
1
  6
Continuous
 62
     4
100
AcDbLine
 10
25000.0144305623
 20
16508.0845336914
 30
0.0
 11
25960.0144305622
 21
16508.0845336914
 31
0.0
  0
LINE
  5
10A
330
1F
100
AcDbEntity
  8
1
  6
Continuous
 62
     4
100
AcDbLine
 10
25000.0144305623
 20
16500.0
 30
0.0
 11
25960.0144305622
 21
16500.0
 31
0.0
  0
LINE
  5
10B
330
1F
100
AcDbEntity
  8
1
  6
Continuous
 62
     7
100
AcDbLine
 10
25000.0144305623
 20
17002.684223175
 30
0.0
 11
25000.0144305623
 21
16507.604887303
 31
0.0
  0
LINE
  5
10C
330
1F
100
AcDbEntity
  8
0
  6
Continuous
 62
     7
100
AcDbLine
 10
25328.6471022321
 20
17094.1254913203
 30
0.0
 11
25328.636887898
 21
17094.1117460832
 31
0.0
  0
LINE
  5
10D
330
1F
100
AcDbEntity
  8
1
  6
Continuous
 62
     7
100
AcDbLine
 10
25410.445872823
 20
15549.5685577392
 30
0.0
 11
25960.0144305623
 21
15549.5685577392
 31
0.0
  0
LINE
  5
10E
330
1F
100
AcDbEntity
  8
1
  6
Continuous
 62
     7
100
AcDbLine
 10
25960.0144305623
 20
15684.9478149414
 30
0.0
 11
25000.0144305623
 21
15684.9478149414
 31
0.0
  0
LINE
  5
10F
330
1F
100
AcDbEntity
  8
1
  6
Continuous
 62
     7
100
AcDbLine
 10
25000.0144305623
 20
15960.0
 30
0.0
 11
25960.0144305623
 21
15960.0
 31
0.0
  0
LINE
  5
110
330
1F
100
AcDbEntity
  8
1
  6
Continuous
 62
     7
100
AcDbLine
 10
25000.0144305623
 20
15684.9478149414
 30
0.0
 11
25960.0144305623
 21
15684.9478149414
 31
0.0
  0
LINE
  5
111
330
1F
100
AcDbEntity
  8
1
  6
Continuous
 62
     7
100
AcDbLine
 10
35410.445872823
 20
18549.5685577392
 30
0.0
 11
35960.0144305623
 21
18549.5685577392
 31
0.0
  0
LINE
  5
112
330
1F
100
AcDbEntity
  8
1
  6
Continuous
 62
     7
100
AcDbLine
 10
35000.0144305623
 20
18684.9478149414
 30
0.0
 11
35960.0144305623
 21
18684.9478149414
 31
0.0
  0
LINE
  5
113
330
1F
100
AcDbEntity
  8
1
  6
Continuous
 62
     7
100
AcDbLine
 10
25960.0144305623
 20
15960.0
 30
0.0
 11
25960.0144305623
 21
15079.7395661927
 31
0.0
  0
LINE
  5
114
330
1F
100
AcDbEntity
  8
1
  6
Continuous
 62
     7
100
AcDbLine
 10
25000.0144305623
 20
14850.0
 30
0.0
 11
25000.0144305623
 21
15960.0
 31
0.0
  0
LINE
  5
115
330
1F
100
AcDbEntity
  8
1
  6
Continuous
 62
     7
100
AcDbLine
 10
25275.0666156209
 20
14850.0
 30
0.0
 11
25275.0666156209
 21
15684.9478149414
 31
0.0
  0
LINE
  5
116
330
1F
100
AcDbEntity
  8
1
  6
Continuous
 62
     7
100
AcDbLine
 10
25410.445872823
 20
14850.0
 30
0.0
 11
25410.445872823
 21
15684.9478149414
 31
0.0
  0
LINE
  5
117
330
1F
100
AcDbEntity
  8
1
  6
Continuous
 62
     7
100
AcDbLine
 10
25960.0144305623
 20
15684.9478149414
 30
0.0
 11
25000.0144305623
 21
15684.9478149414
 31
0.0
  0
LINE
  5
118
330
1F
100
AcDbEntity
  8
1
  6
Continuous
 62
     7
100
AcDbLine
 10
25960.0144305623
 20
14850.0
 30
0.0
 11
25960.0144305623
 21
15684.9478149414
 31
0.0
  0
LINE
  5
119
330
1F
100
AcDbEntity
  8
1
  6
Continuous
 62
     7
100
AcDbLine
 10
25000.0144305623
 20
14850.0
 30
0.0
 11
25960.0144305623
 21
14850.0
 31
0.0
  0
LINE
  5
11A
330
1F
100
AcDbEntity
  8
1
  6
Continuous
 62
     7
100
AcDbLine
 10
25960.0144305623
 20
13890.0
 30
0.0
 11
25960.0144305623
 21
14850.0
 31
0.0
  0
LINE
  5
11B
330
1F
100
AcDbEntity
  8
1
  6
Continuous
 62
     7
100
AcDbLine
 10
25000.0144305623
 20
13890.0
 30
0.0
 11
25960.0144305623
 21
13890.0
 31
0.0
  0
LINE
  5
11C
330
1F
100
AcDbEntity
  8
1
  6
Continuous
 62
     7
100
AcDbLine
 10
25275.0666156209
 20
14154.0000610351
 30
0.0
 11
25960.0144305623
 21
14154.0000610351
 31
0.0
  0
LINE
  5
11D
330
1F
100
AcDbEntity
  8
1
  6
Continuous
 62
     7
100
AcDbLine
 10
25275.0666156209
 20
13890.0
 30
0.0
 11
25275.0666156209
 21
14850.0
 31
0.0
  0
LINE
  5
11E
330
1F
100
AcDbEntity
  8
1
  6
Continuous
 62
     7
100
AcDbLine
 10
25000.0144305623
 20
13890.0
 30
0.0
 11
25000.0144305623
 21
14850.0
 31
0.0
  0
LINE
  5
11F
330
1F
100
AcDbEntity
  8
1
  6
Continuous
 62
     7
100
AcDbLine
 10
25410.445872823
 20
14154.0000610351
 30
0.0
 11
25410.445872823
 21
14850.0
 31
0.0
  0
LINE
  5
120
330
1F
100
AcDbEntity
  8
1
  6
Continuous
 62
     7
100
AcDbLine
 10
35410.445872823
 20
16914.0000610351
 30
0.0
 11
35410.445872823
 21
17730.0
 31
0.0
  0
LINE
  5
121
330
1F
100
AcDbEntity
  8
1
  6
Continuous
 62
     7
100
AcDbLine
 10
35000.0144305623
 20
16650.0
 30
0.0
 11
35000.0144305623
 21
17730.0
 31
0.0
  0
LINE
  5
122
330
1F
100
AcDbEntity
  8
1
  6
Continuous
 62
     7
100
AcDbLine
 10
35275.0666156209
 20
16650.0
 30
0.0
 11
35275.0666156209
 21
17730.0
 31
0.0
  0
LINE
  5
123
330
1F
100
AcDbEntity
  8
1
  6
Continuous
 62
     7
100
AcDbLine
 10
35275.0666156209
 20
16914.0000610351
 30
0.0
 11
35960.0144305623
 21
16914.0000610351
 31
0.0
  0
LINE
  5
124
330
1F
100
AcDbEntity
  8
1
  6
Continuous
 62
     7
100
AcDbLine
 10
35000.0144305623
 20
16650.0
 30
0.0
 11
35960.0144305623
 21
16650.0
 31
0.0
  0
LINE
  5
125
330
1F
100
AcDbEntity
  8
1
  6
Continuous
 62
     7
100
AcDbLine
 10
35960.0144305623
 20
16650.0
 30
0.0
 11
35960.0144305623
 21
18960.0
 31
0.0
  0
LINE
  5
126
330
1F
100
AcDbEntity
  8
1
  6
Continuous
 62
     7
100
AcDbLine
 10
35000.0144305623
 20
17730.0
 30
0.0
 11
35960.0144305623
 21
17730.0
 31
0.0
  0
LINE
  5
127
330
1F
100
AcDbEntity
  8
1
  6
Continuous
 62
     7
100
AcDbLine
 10
35960.0144305623
 20
18684.9478149414
 30
0.0
 11
35000.0144305623
 21
18684.9478149414
 31
0.0
  0
LINE
  5
128
330
1F
100
AcDbEntity
  8
1
  6
Continuous
 62
     7
100
AcDbLine
 10
35410.445872823
 20
17730.0
 30
0.0
 11
35410.445872823
 21
18684.9478149414
 31
0.0
  0
LINE
  5
129
330
1F
100
AcDbEntity
  8
1
  6
Continuous
 62
     7
100
AcDbLine
 10
35275.0666156209
 20
17730.0
 30
0.0
 11
35275.0666156209
 21
18684.9478149414
 31
0.0
  0
LINE
  5
12A
330
1F
100
AcDbEntity
  8
1
  6
Continuous
 62
     7
100
AcDbLine
 10
35000.0144305623
 20
17730.0
 30
0.0
 11
35000.0144305623
 21
18960.0
 31
0.0
  0
LINE
  5
12B
330
1F
100
AcDbEntity
  8
1
  6
Continuous
 62
     3
100
AcDbLine
 10
25960.0144305623
 20
17326.9848969854
 30
0.0
 11
26800.0144305623
 21
17326.9848969854
 31
0.0
  0
LINE
  5
12C
330
1F
100
AcDbEntity
  8
1
  6
Continuous
 62
     3
100
AcDbLine
 10
25960.0144305623
 20
17326.9848969854
 30
0.0
 11
25960.0144305623
 21
17131.4147033691
 31
0.0
  0
LINE
  5
12D
330
1F
100
AcDbEntity
  8
1
  6
Continuous
 62
     3
100
AcDbLine
 10
26800.0144305623
 20
17326.9848969854
 30
0.0
 11
26800.0144305623
 21
17131.4147033691
 31
0.0
  0
LINE
  5
12E
330
1F
100
AcDbEntity
  8
1
  6
Continuous
 62
     7
100
AcDbLine
 10
27760.0144305623
 20
16914.3947209864
 30
0.0
 11
27568.8866309714
 21
16914.3947209864
 31
0.0
  0
LINE
  5
12F
330
1F
100
AcDbEntity
  8
1
  6
Continuous
 62
     7
100
AcDbLine
 10
27760.0144305623
 20
17015.9598426944
 30
0.0
 11
27760.0144305623
 21
16919.7283968281
 31
0.0
  0
LINE
  5
130
330
1F
100
AcDbEntity
  8
1
  6
Continuous
 62
     7
100
AcDbLine
 10
27685.3859723061
 20
17031.5975189209
 30
0.0
 11
27572.1093805177
 21
17031.5975189209
 31
0.0
  0
LINE
  5
131
330
1F
100
AcDbEntity
  8
1
  6
Continuous
 62
     7
100
AcDbLine
 10
27518.9949715647
 20
16914.3947209864
 30
0.0
 11
27738.5003812589
 21
16914.3947209864
 31
0.0
  0
LINE
  5
132
330
1F
100
AcDbEntity
  8
1
  6
Continuous
 62
     7
100
AcDbLine
 10
27497.4809222615
 20
17015.9598426944
 30
0.0
 11
27760.0144305623
 21
17015.9598426944
 31
0.0
  0
LINE
  5
133
330
1F
100
AcDbEntity
  8
1
  6
Continuous
 62
     7
100
AcDbLine
 10
25960.0144305623
 20
16914.3947209864
 30
0.0
 11
25960.0144305623
 21
17131.4147033691
 31
0.0
  0
LINE
  5
134
330
1F
100
AcDbEntity
  8
1
  6
Continuous
 62
     7
100
AcDbLine
 10
26800.0144305623
 20
15549.5685577392
 30
0.0
 11
27496.0143695271
 21
15549.5685577392
 31
0.0
  0
LINE
  5
135
330
1F
100
AcDbEntity
  8
1
  6
Continuous
 62
     7
100
AcDbLine
 10
25338.6437656379
 20
17086.3368835449
 30
0.0
 11
26680.0144305623
 21
17086.3368835449
 31
0.0
  0
LINE
  5
136
330
1F
100
AcDbEntity
  8
0
  6
Continuous
 62
     7
100
AcDbLine
 10
26800.0144305623
 20
16914.3947209864
 30
0.0
 11
25960.0144305623
 21
16914.3947209864
 31
0.0
  0
LINE
  5
137
330
1F
100
AcDbEntity
  8
0
  6
Continuous
 62
     7
100
AcDbLine
 10
25976.0143695271
 20
17086.3368835449
 30
0.0
 11
26800.0144305623
 21
17086.3368835449
 31
0.0
  0
LINE
  5
138
330
1F
100
AcDbEntity
  8
0
  6
Continuous
 62
     7
100
AcDbLine
 10
26800.0144305623
 20
16812.9243224958
 30
0.0
 11
25960.0144305623
 21
16812.9234263051
 31
0.0
  0
LINE
  5
139
330
1F
100
AcDbEntity
  8
1
  6
Continuous
 62
     7
100
AcDbLine
 10
25054.6631204485
 20
17131.4147033691
 30
0.0
 11
26800.0144305623
 21
17131.4147033691
 31
0.0
  0
LINE
  5
13A
330
1F
100
AcDbEntity
  8
1
  6
Continuous
 62
     7
100
AcDbLine
 10
25961.0813250936
 20
16672.6409912145
 30
0.0
 11
26800.0144305623
 21
16672.6409912145
 31
0.0
  0
LINE
  5
13B
330
1F
100
AcDbEntity
  8
1
  6
Continuous
 62
     7
100
AcDbLine
 10
26800.0144305623
 20
16672.6409912145
 30
0.0
 11
26800.0144305623
 21
17131.4147033691
 31
0.0
  0
LINE
  5
13C
330
1F
100
AcDbEntity
  8
1
  6
Continuous
 62
     7
100
AcDbLine
 10
26800.0144305623
 20
16672.6409912145
 30
0.0
 11
27638.9475360311
 21
16672.6409912145
 31
0.0
  0
LINE
  5
13D
330
1F
100
AcDbEntity
  8
1
  6
Continuous
 62
     7
100
AcDbLine
 10
27497.4809222615
 20
16914.3947209864
 30
0.0
 11
27497.4809222615
 21
17086.3368835449
 31
0.0
  0
LINE
  5
13E
330
1F
100
AcDbEntity
  8
1
  6
Continuous
 62
     7
100
AcDbLine
 10
27760.0144305623
 20
16914.3947209864
 30
0.0
 11
27760.0144305623
 21
16508.0845336914
 31
0.0
  0
LINE
  5
13F
330
1F
100
AcDbEntity
  8
1
  6
Continuous
 62
     7
100
AcDbLine
 10
27638.9475360311
 20
16508.1546585959
 30
0.0
 11
27760.0144305623
 21
16508.1546585959
 31
0.0
  0
LINE
  5
140
330
1F
100
AcDbEntity
  8
1
  6
Continuous
 62
     7
100
AcDbLine
 10
27760.0144305623
 20
17131.4147033691
 30
0.0
 11
27760.0144305623
 21
17011.4147033691
 31
0.0
  0
LINE
  5
141
330
1F
100
AcDbEntity
  8
1
  6
Continuous
 62
     7
100
AcDbLine
 10
26800.0144305623
 20
17131.4147033691
 30
0.0
 11
27760.0144305623
 21
17131.4147033691
 31
0.0
  0
LINE
  5
142
330
1F
100
AcDbEntity
  8
0
  6
Continuous
 62
     7
100
AcDbLine
 10
27640.0144305623
 20
16812.9234263051
 30
0.0
 11
26800.0144305623
 21
16812.9243224958
 31
0.0
  0
LINE
  5
143
330
1F
100
AcDbEntity
  8
0
  6
Continuous
 62
     7
100
AcDbLine
 10
26800.0144305623
 20
17086.3368835449
 30
0.0
 11
27481.4809832967
 21
17086.3368835449
 31
0.0
  0
LINE
  5
144
330
1F
100
AcDbEntity
  8
0
  6
Continuous
 62
     7
100
AcDbLine
 10
27557.4809280359
 20
16914.3947209864
 30
0.0
 11
26800.0144305623
 21
16914.3947209864
 31
0.0
  0
LINE
  5
145
330
1F
100
AcDbEntity
  8
1
  6
Continuous
 62
     7
100
AcDbLine
 10
26920.0144305623
 20
17086.3368835449
 30
0.0
 11
27497.4809222615
 21
17086.3368835449
 31
0.0
  0
LINE
  5
146
330
1F
100
AcDbEntity
  8
1
  6
Continuous
 62
     4
100
AcDbLine
 10
27640.0144305623
 20
16508.0845336914
 30
0.0
 11
27760.0144305623
 21
16508.0845336914
 31
0.0
  0
LINE
  5
147
330
1F
100
AcDbEntity
  8
1
  6
Continuous
 62
     4
100
AcDbLine
 10
27759.4733589124
 20
16500.0
 30
0.0
 11
27640.5481269642
 21
16500.0
 31
0.0
  0
LINE
  5
148
330
1F
100
AcDbEntity
  8
1
  6
Continuous
 62
     4
100
AcDbLine
 10
27759.4733589124
 20
16500.0
 30
0.0
 11
27760.0144305623
 21
16508.0845336914
 31
0.0
  0
LINE
  5
149
330
1F
100
AcDbEntity
  8
1
  6
Continuous
 62
     7
100
AcDbLine
 10
27640.0144305623
 20
16914.3947209864
 30
0.0
 11
27640.0144305623
 21
16508.0845336914
 31
0.0
  0
LINE
  5
14A
330
1F
100
AcDbEntity
  8
1
  6
Continuous
 62
     4
100
AcDbLine
 10
27640.5481269642
 20
16500.0
 30
0.0
 11
27640.0098013022
 21
16508.1546585959
 31
0.0
  0
LINE
  5
14B
330
1F
100
AcDbEntity
  8
1
  6
Continuous
 62
     7
100
AcDbLine
 10
26800.0144305623
 20
15960.0
 30
0.0
 11
27760.0144305623
 21
15960.0
 31
0.0
  0
LINE
  5
14C
330
1F
100
AcDbEntity
  8
1
  6
Continuous
 62
     7
100
AcDbLine
 10
26800.0144305623
 20
15684.9478149414
 30
0.0
 11
27760.0144305623
 21
15684.9478149414
 31
0.0
  0
LINE
  5
14D
330
1F
100
AcDbEntity
  8
1
  6
Continuous
 62
     7
100
AcDbLine
 10
27496.0143695271
 20
15000.0
 30
0.0
 11
27496.0143695271
 21
15684.9478149414
 31
0.0
  0
LINE
  5
14E
330
1F
100
AcDbEntity
  8
1
  6
Continuous
 62
     7
100
AcDbLine
 10
27760.0144305623
 20
15000.0
 30
0.0
 11
27760.0144305623
 21
15960.0
 31
0.0
  0
LINE
  5
14F
330
1F
100
AcDbEntity
  8
1
  6
Continuous
 62
     7
100
AcDbLine
 10
26800.0144305623
 20
15000.0
 30
0.0
 11
27760.0144305623
 21
15000.0
 31
0.0
  0
LINE
  5
150
330
1F
100
AcDbEntity
  8
1
  6
Continuous
 62
     7
100
AcDbLine
 10
26800.0144305623
 20
15000.0
 30
0.0
 11
26800.0144305623
 21
15960.0
 31
0.0
  0
LINE
  5
151
330
1F
100
AcDbEntity
  8
1
  6
Continuous
 62
     7
100
AcDbLine
 10
25960.0144305623
 20
15000.0
 30
0.0
 11
26800.0144305623
 21
15000.0
 31
0.0
  0
LINE
  5
152
330
1F
100
AcDbEntity
  8
1
  6
Continuous
 62
     7
100
AcDbLine
 10
25960.0144305623
 20
15549.5685577392
 30
0.0
 11
26800.0144305623
 21
15549.5685577392
 31
0.0
  0
LINE
  5
153
330
1F
100
AcDbEntity
  8
1
  6
Continuous
 62
     7
100
AcDbLine
 10
25960.0144305623
 20
15684.9478149414
 30
0.0
 11
26800.0144305623
 21
15684.9478149414
 31
0.0
  0
LINE
  5
154
330
1F
100
AcDbEntity
  8
1
  6
Continuous
 62
     7
100
AcDbLine
 10
25960.0144305623
 20
15960.0
 30
0.0
 11
26800.0144305623
 21
15960.0
 31
0.0
  0
LINE
  5
155
330
1F
100
AcDbEntity
  8
1
  6
Continuous
 62
     7
100
AcDbLine
 10
26565.222679311
 20
15000.0
 30
0.0
 11
25960.0144305623
 21
15000.0
 31
0.0
  0
LINE
  5
156
330
1F
100
AcDbEntity
  8
1
  6
Continuous
 62
     7
100
AcDbLine
 10
36685.222679311
 20
18000.0
 30
0.0
 11
35960.0144305623
 21
18000.0
 31
0.0
  0
LINE
  5
157
330
1F
100
AcDbEntity
  8
1
  6
Continuous
 62
     7
100
AcDbLine
 10
35960.0144305623
 20
18684.9478149414
 30
0.0
 11
36920.0144305623
 21
18684.9478149414
 31
0.0
  0
LINE
  5
158
330
1F
100
AcDbEntity
  8
1
  6
Continuous
 62
     7
100
AcDbLine
 10
35960.0144305623
 20
18549.5685577392
 30
0.0
 11
36920.0144305623
 21
18549.5685577392
 31
0.0
  0
LINE
  5
159
330
1F
100
AcDbEntity
  8
1
  6
Continuous
 62
     7
100
AcDbLine
 10
35960.0144305623
 20
18000.0
 30
0.0
 11
36920.0144305623
 21
18000.0
 31
0.0
  0
LINE
  5
15A
330
1F
100
AcDbEntity
  8
1
  6
Continuous
 62
     7
100
AcDbLine
 10
36920.0144305623
 20
18000.0
 30
0.0
 11
36920.0144305623
 21
18960.0
 31
0.0
  0
LINE
  5
15B
330
1F
100
AcDbEntity
  8
1
  6
Continuous
 62
     7
100
AcDbLine
 10
36920.0144305623
 20
18000.0
 30
0.0
 11
38000.0144305623
 21
18000.0
 31
0.0
  0
LINE
  5
15C
330
1F
100
AcDbEntity
  8
1
  6
Continuous
 62
     7
100
AcDbLine
 10
38000.0144305623
 20
18000.0
 30
0.0
 11
38000.0144305623
 21
18960.0
 31
0.0
  0
LINE
  5
15D
330
1F
100
AcDbEntity
  8
1
  6
Continuous
 62
     7
100
AcDbLine
 10
37736.0143695271
 20
18000.0
 30
0.0
 11
37736.0143695271
 21
18684.9478149414
 31
0.0
  0
LINE
  5
15E
330
1F
100
AcDbEntity
  8
1
  6
Continuous
 62
     7
100
AcDbLine
 10
36920.0144305623
 20
18684.9478149414
 30
0.0
 11
38000.0144305623
 21
18684.9478149414
 31
0.0
  0
LINE
  5
15F
330
1F
100
AcDbEntity
  8
1
  6
Continuous
 62
     7
100
AcDbLine
 10
35000.0144305623
 20
18960.0
 30
0.0
 11
38000.0144305623
 21
18960.0
 31
0.0
  0
LINE
  5
160
330
1F
100
AcDbEntity
  8
1
  6
Continuous
 62
     4
100
AcDbLine
 10
37880.5481269642
 20
19500.0
 30
0.0
 11
37880.0098013023
 21
19508.1546585959
 31
0.0
  0
LINE
  5
161
330
1F
100
AcDbEntity
  8
1
  6
Continuous
 62
     7
100
AcDbLine
 10
37880.0144305623
 20
19914.3947209864
 30
0.0
 11
37880.0144305623
 21
19508.1546585959
 31
0.0
  0
LINE
  5
162
330
1F
100
AcDbEntity
  8
1
  6
Continuous
 62
     4
100
AcDbLine
 10
37999.4733589125
 20
19500.0
 30
0.0
 11
38000.0144305623
 21
19508.0845336914
 31
0.0
  0
LINE
  5
163
330
1F
100
AcDbEntity
  8
1
  6
Continuous
 62
     4
100
AcDbLine
 10
37999.4733589125
 20
19500.0
 30
0.0
 11
37880.5481269642
 21
19500.0
 31
0.0
  0
LINE
  5
164
330
1F
100
AcDbEntity
  8
1
  6
Continuous
 62
     4
100
AcDbLine
 10
37880.0144305623
 20
19508.0845336914
 30
0.0
 11
38000.0144305623
 21
19508.0845336914
 31
0.0
  0
LINE
  5
165
330
1F
100
AcDbEntity
  8
1
  6
Continuous
 62
     7
100
AcDbLine
 10
37040.0144305623
 20
20086.3368835449
 30
0.0
 11
37737.4809222616
 21
20086.3368835449
 31
0.0
  0
LINE
  5
166
330
1F
100
AcDbEntity
  8
0
  6
Continuous
 62
     7
100
AcDbLine
 10
37797.4809280359
 20
19914.3947209864
 30
0.0
 11
36920.0144305623
 21
19914.3947209864
 31
0.0
  0
LINE
  5
167
330
1F
100
AcDbEntity
  8
0
  6
Continuous
 62
     7
100
AcDbLine
 10
36920.0144305623
 20
20086.3368835449
 30
0.0
 11
37721.4809832968
 21
20086.3368835449
 31
0.0
  0
LINE
  5
168
330
1F
100
AcDbEntity
  8
0
  6
Continuous
 62
     7
100
AcDbLine
 10
37880.0144305623
 20
19812.9234263051
 30
0.0
 11
36920.0144305623
 21
19812.9243224958
 31
0.0
  0
LINE
  5
169
330
1F
100
AcDbEntity
  8
1
  6
Continuous
 62
     7
100
AcDbLine
 10
36920.0144305623
 20
20131.4147033691
 30
0.0
 11
38000.0144305623
 21
20131.4147033691
 31
0.0
  0
LINE
  5
16A
330
1F
100
AcDbEntity
  8
1
  6
Continuous
 62
     7
100
AcDbLine
 10
38000.0144305623
 20
20131.4147033691
 30
0.0
 11
38000.0144305623
 21
20011.4147033691
 31
0.0
  0
LINE
  5
16B
330
1F
100
AcDbEntity
  8
1
  6
Continuous
 62
     7
100
AcDbLine
 10
37880.0144305623
 20
19508.1546585959
 30
0.0
 11
38000.0144305623
 21
19508.1546585959
 31
0.0
  0
LINE
  5
16C
330
1F
100
AcDbEntity
  8
1
  6
Continuous
 62
     7
100
AcDbLine
 10
38000.0144305623
 20
19914.3947209864
 30
0.0
 11
38000.0144305623
 21
19508.1546585959
 31
0.0
  0
LINE
  5
16D
330
1F
100
AcDbEntity
  8
1
  6
Continuous
 62
     7
100
AcDbLine
 10
37737.4809222616
 20
19914.3947209864
 30
0.0
 11
37737.4809222616
 21
20086.3368835449
 31
0.0
  0
LINE
  5
16E
330
1F
100
AcDbEntity
  8
1
  6
Continuous
 62
     7
100
AcDbLine
 10
36920.0144305623
 20
19672.6409912145
 30
0.0
 11
37878.9475360311
 21
19672.6409912145
 31
0.0
  0
LINE
  5
16F
330
1F
100
AcDbEntity
  8
1
  6
Continuous
 62
     7
100
AcDbLine
 10
36920.0144305623
 20
19672.6409912145
 30
0.0
 11
36920.0144305623
 21
20131.4147033691
 31
0.0
  0
LINE
  5
170
330
1F
100
AcDbEntity
  8
1
  6
Continuous
 62
     7
100
AcDbLine
 10
35961.0813250936
 20
19672.6409912145
 30
0.0
 11
36920.0144305623
 21
19672.6409912145
 31
0.0
  0
LINE
  5
171
330
1F
100
AcDbEntity
  8
1
  6
Continuous
 62
     7
100
AcDbLine
 10
35054.6631204486
 20
20131.4147033691
 30
0.0
 11
36920.0144305623
 21
20131.4147033691
 31
0.0
  0
LINE
  5
172
330
1F
100
AcDbEntity
  8
0
  6
Continuous
 62
     7
100
AcDbLine
 10
36920.0144305623
 20
19812.9243224958
 30
0.0
 11
35960.0144305623
 21
19812.9234263051
 31
0.0
  0
LINE
  5
173
330
1F
100
AcDbEntity
  8
0
  6
Continuous
 62
     7
100
AcDbLine
 10
35338.643765638
 20
20086.3368835449
 30
0.0
 11
36920.0144305623
 21
20086.3368835449
 31
0.0
  0
LINE
  5
174
330
1F
100
AcDbEntity
  8
0
  6
Continuous
 62
     7
100
AcDbLine
 10
36920.0144305623
 20
19914.3947209864
 30
0.0
 11
35960.0144305623
 21
19914.3947209864
 31
0.0
  0
LINE
  5
175
330
1F
100
AcDbEntity
  8
1
  6
Continuous
 62
     7
100
AcDbLine
 10
35960.0144305623
 20
20086.3368835449
 30
0.0
 11
36800.0144305623
 21
20086.3368835449
 31
0.0
  0
LINE
  5
176
330
1F
100
AcDbEntity
  8
1
  6
Continuous
 62
     7
100
AcDbLine
 10
36920.0144305623
 20
18549.5685577392
 30
0.0
 11
37736.0143695271
 21
18549.5685577392
 31
0.0
  0
LINE
  5
177
330
1F
100
AcDbEntity
  8
1
  6
Continuous
 62
     7
100
AcDbLine
 10
35960.0144305623
 20
19914.3947209864
 30
0.0
 11
35960.0144305623
 21
20086.3368835449
 31
0.0
  0
LINE
  5
178
330
1F
100
AcDbEntity
  8
1
  6
Continuous
 62
     7
100
AcDbLine
 10
37737.4809222616
 20
20015.9598426944
 30
0.0
 11
38000.0144305623
 21
20015.9598426944
 31
0.0
  0
LINE
  5
179
330
1F
100
AcDbEntity
  8
1
  6
Continuous
 62
     7
100
AcDbLine
 10
37758.9949715647
 20
19914.3947209864
 30
0.0
 11
37978.500381259
 21
19914.3947209864
 31
0.0
  0
LINE
  5
17A
330
1F
100
AcDbEntity
  8
1
  6
Continuous
 62
     7
100
AcDbLine
 10
37925.3859723061
 20
20031.5975189209
 30
0.0
 11
37812.1093805178
 21
20031.5975189209
 31
0.0
  0
LINE
  5
17B
330
1F
100
AcDbEntity
  8
1
  6
Continuous
 62
     7
100
AcDbLine
 10
38000.0144305623
 20
20015.9598426944
 30
0.0
 11
38000.0144305623
 21
19919.7283968281
 31
0.0
  0
LINE
  5
17C
330
1F
100
AcDbEntity
  8
1
  6
Continuous
 62
     7
100
AcDbLine
 10
38000.0144305623
 20
19914.3947209864
 30
0.0
 11
37808.8866309715
 21
19914.3947209864
 31
0.0
  0
LINE
  5
17D
330
1F
100
AcDbEntity
  8
1
  6
Continuous
 62
     3
100
AcDbLine
 10
36920.0144305623
 20
20326.9848969854
 30
0.0
 11
36920.0144305623
 21
20131.4147033691
 31
0.0
  0
LINE
  5
17E
330
1F
100
AcDbEntity
  8
1
  6
Continuous
 62
     3
100
AcDbLine
 10
35960.0144305623
 20
20326.9848969854
 30
0.0
 11
35960.0144305623
 21
20131.4147033691
 31
0.0
  0
LINE
  5
17F
330
1F
100
AcDbEntity
  8
1
  6
Continuous
 62
     3
100
AcDbLine
 10
35960.0144305623
 20
20326.9848969854
 30
0.0
 11
36920.0144305623
 21
20326.9848969854
 31
0.0
  0
LINE
  5
180
330
1F
100
AcDbEntity
  8
1
  6
Continuous
 62
     7
100
AcDbLine
 10
36684.6816076612
 20
15000.0
 30
0.0
 11
35959.4733589124
 21
15000.0
 31
0.0
  0
LINE
  5
181
330
1F
100
AcDbEntity
  8
1
  6
Continuous
 62
     7
100
AcDbLine
 10
35959.4733589124
 20
15960.0
 30
0.0
 11
36919.4733589124
 21
15960.0
 31
0.0
  0
LINE
  5
182
330
1F
100
AcDbEntity
  8
1
  6
Continuous
 62
     7
100
AcDbLine
 10
35959.4733589124
 20
15684.9478149414
 30
0.0
 11
36919.4733589124
 21
15684.9478149414
 31
0.0
  0
LINE
  5
183
330
1F
100
AcDbEntity
  8
1
  6
Continuous
 62
     7
100
AcDbLine
 10
35959.4733589124
 20
15549.5685577392
 30
0.0
 11
36919.4733589124
 21
15549.5685577392
 31
0.0
  0
LINE
  5
184
330
1F
100
AcDbEntity
  8
1
  6
Continuous
 62
     7
100
AcDbLine
 10
35959.4733589124
 20
15960.0
 30
0.0
 11
35959.4733589124
 21
15000.0
 31
0.0
  0
LINE
  5
185
330
1F
100
AcDbEntity
  8
1
  6
Continuous
 62
     7
100
AcDbLine
 10
35959.4733589124
 20
15000.0
 30
0.0
 11
36919.4733589124
 21
15000.0
 31
0.0
  0
LINE
  5
186
330
1F
100
AcDbEntity
  8
1
  6
Continuous
 62
     7
100
AcDbLine
 10
36919.4733589124
 20
15000.0
 30
0.0
 11
36919.4733589124
 21
15960.0
 31
0.0
  0
LINE
  5
187
330
1F
100
AcDbEntity
  8
1
  6
Continuous
 62
     7
100
AcDbLine
 10
36919.4733589124
 20
15000.0
 30
0.0
 11
37999.4733589124
 21
15000.0
 31
0.0
  0
LINE
  5
188
330
1F
100
AcDbEntity
  8
1
  6
Continuous
 62
     7
100
AcDbLine
 10
37999.4733589124
 20
15000.0
 30
0.0
 11
37999.4733589124
 21
15960.0
 31
0.0
  0
LINE
  5
189
330
1F
100
AcDbEntity
  8
1
  6
Continuous
 62
     7
100
AcDbLine
 10
37735.4732978772
 20
15000.0
 30
0.0
 11
37735.4732978772
 21
15684.9478149414
 31
0.0
  0
LINE
  5
18A
330
1F
100
AcDbEntity
  8
1
  6
Continuous
 62
     7
100
AcDbLine
 10
36919.4733589124
 20
15684.9478149414
 30
0.0
 11
37999.4733589124
 21
15684.9478149414
 31
0.0
  0
LINE
  5
18B
330
1F
100
AcDbEntity
  8
1
  6
Continuous
 62
     7
100
AcDbLine
 10
36919.4733589124
 20
15960.0
 30
0.0
 11
37999.4733589124
 21
15960.0
 31
0.0
  0
LINE
  5
18C
330
1F
100
AcDbEntity
  8
1
  6
Continuous
 62
     7
100
AcDbLine
 10
36919.4733589124
 20
15549.5685577392
 30
0.0
 11
37735.4732978772
 21
15549.5685577392
 31
0.0
  0
LINE
  5
18D
330
1F
100
AcDbEntity
  8
1
  6
Continuous
 62
     7
100
AcDbLine
 10
26800.0144305623
 20
12549.5685577392
 30
0.0
 11
27496.0143695271
 21
12549.5685577392
 31
0.0
  0
LINE
  5
18E
330
1F
100
AcDbEntity
  8
1
  6
Continuous
 62
     7
100
AcDbLine
 10
26800.0144305623
 20
12960.0
 30
0.0
 11
27760.0144305623
 21
12960.0
 31
0.0
  0
LINE
  5
18F
330
1F
100
AcDbEntity
  8
1
  6
Continuous
 62
     7
100
AcDbLine
 10
26800.0144305623
 20
12684.9478149414
 30
0.0
 11
27760.0144305623
 21
12684.9478149414
 31
0.0
  0
LINE
  5
190
330
1F
100
AcDbEntity
  8
1
  6
Continuous
 62
     7
100
AcDbLine
 10
27496.0143695271
 20
12000.0
 30
0.0
 11
27496.0143695271
 21
12684.9478149414
 31
0.0
  0
LINE
  5
191
330
1F
100
AcDbEntity
  8
1
  6
Continuous
 62
     7
100
AcDbLine
 10
27760.0144305623
 20
12000.0
 30
0.0
 11
27760.0144305623
 21
12960.0
 31
0.0
  0
LINE
  5
192
330
1F
100
AcDbEntity
  8
1
  6
Continuous
 62
     7
100
AcDbLine
 10
26800.0144305623
 20
12000.0
 30
0.0
 11
27760.0144305623
 21
12000.0
 31
0.0
  0
LINE
  5
193
330
1F
100
AcDbEntity
  8
1
  6
Continuous
 62
     7
100
AcDbLine
 10
26800.0144305623
 20
12000.0
 30
0.0
 11
26800.0144305623
 21
12960.0
 31
0.0
  0
LINE
  5
194
330
1F
100
AcDbEntity
  8
1
  6
Continuous
 62
     7
100
AcDbLine
 10
25960.0144305623
 20
12000.0
 30
0.0
 11
26800.0144305623
 21
12000.0
 31
0.0
  0
LINE
  5
195
330
1F
100
AcDbEntity
  8
1
  6
Continuous
 62
     7
100
AcDbLine
 10
25960.0144305623
 20
12960.0
 30
0.0
 11
25960.0144305623
 21
12000.0
 31
0.0
  0
LINE
  5
196
330
1F
100
AcDbEntity
  8
1
  6
Continuous
 62
     7
100
AcDbLine
 10
25960.0144305623
 20
12549.5685577392
 30
0.0
 11
26800.0144305623
 21
12549.5685577392
 31
0.0
  0
LINE
  5
197
330
1F
100
AcDbEntity
  8
1
  6
Continuous
 62
     7
100
AcDbLine
 10
25960.0144305623
 20
12684.9478149414
 30
0.0
 11
26800.0144305623
 21
12684.9478149414
 31
0.0
  0
LINE
  5
198
330
1F
100
AcDbEntity
  8
1
  6
Continuous
 62
     7
100
AcDbLine
 10
25960.0144305623
 20
12960.0
 30
0.0
 11
26800.0144305623
 21
12960.0
 31
0.0
  0
LINE
  5
199
330
1F
100
AcDbEntity
  8
1
  6
Continuous
 62
     7
100
AcDbLine
 10
26565.222679311
 20
12000.0
 30
0.0
 11
25960.0144305623
 21
12000.0
 31
0.0
  0
LINE
  5
19A
330
1F
100
AcDbEntity
  8
1
  6
Continuous
 62
     7
100
AcDbLine
 10
25410.445872823
 20
12549.5685577392
 30
0.0
 11
25960.0144305623
 21
12549.5685577392
 31
0.0
  0
LINE
  5
19B
330
1F
100
AcDbEntity
  8
1
  6
Continuous
 62
     7
100
AcDbLine
 10
25000.0144305623
 20
12684.9478149414
 30
0.0
 11
25960.0144305623
 21
12684.9478149414
 31
0.0
  0
LINE
  5
19C
330
1F
100
AcDbEntity
  8
1
  6
Continuous
 62
     7
100
AcDbLine
 10
25000.0144305623
 20
12960.0
 30
0.0
 11
25960.0144305623
 21
12960.0
 31
0.0
  0
LINE
  5
19D
330
1F
100
AcDbEntity
  8
1
  6
Continuous
 62
     7
100
AcDbLine
 10
25410.445872823
 20
10914.0000610351
 30
0.0
 11
25410.445872823
 21
11730.0
 31
0.0
  0
LINE
  5
19E
330
1F
100
AcDbEntity
  8
1
  6
Continuous
 62
     7
100
AcDbLine
 10
25000.0144305623
 20
10650.0
 30
0.0
 11
25000.0144305623
 21
11730.0
 31
0.0
  0
LINE
  5
19F
330
1F
100
AcDbEntity
  8
1
  6
Continuous
 62
     7
100
AcDbLine
 10
25275.0666156209
 20
10650.0
 30
0.0
 11
25275.0666156209
 21
11730.0
 31
0.0
  0
LINE
  5
1A0
330
1F
100
AcDbEntity
  8
1
  6
Continuous
 62
     7
100
AcDbLine
 10
25275.0666156209
 20
10914.0000610351
 30
0.0
 11
25960.0144305623
 21
10914.0000610351
 31
0.0
  0
LINE
  5
1A1
330
1F
100
AcDbEntity
  8
1
  6
Continuous
 62
     7
100
AcDbLine
 10
25000.0144305623
 20
10650.0
 30
0.0
 11
25960.0144305623
 21
10650.0
 31
0.0
  0
LINE
  5
1A2
330
1F
100
AcDbEntity
  8
1
  6
Continuous
 62
     7
100
AcDbLine
 10
25960.0144305623
 20
10650.0
 30
0.0
 11
25960.0144305623
 21
11730.0
 31
0.0
  0
LINE
  5
1A3
330
1F
100
AcDbEntity
  8
1
  6
Continuous
 62
     7
100
AcDbLine
 10
25000.0144305623
 20
11730.0
 30
0.0
 11
25960.0144305623
 21
11730.0
 31
0.0
  0
LINE
  5
1A4
330
1F
100
AcDbEntity
  8
1
  6
Continuous
 62
     7
100
AcDbLine
 10
25960.0144305623
 20
11730.0
 30
0.0
 11
25960.0144305623
 21
12960.0
 31
0.0
  0
LINE
  5
1A5
330
1F
100
AcDbEntity
  8
1
  6
Continuous
 62
     7
100
AcDbLine
 10
25960.0144305623
 20
12684.9478149414
 30
0.0
 11
25000.0144305623
 21
12684.9478149414
 31
0.0
  0
LINE
  5
1A6
330
1F
100
AcDbEntity
  8
1
  6
Continuous
 62
     7
100
AcDbLine
 10
25410.445872823
 20
11730.0
 30
0.0
 11
25410.445872823
 21
12684.9478149414
 31
0.0
  0
LINE
  5
1A7
330
1F
100
AcDbEntity
  8
1
  6
Continuous
 62
     7
100
AcDbLine
 10
25275.0666156209
 20
11730.0
 30
0.0
 11
25275.0666156209
 21
12684.9478149414
 31
0.0
  0
LINE
  5
1A8
330
1F
100
AcDbEntity
  8
1
  6
Continuous
 62
     7
100
AcDbLine
 10
25000.0144305623
 20
11730.0
 30
0.0
 11
25000.0144305623
 21
12960.0
 31
0.0
  0
LINE
  5
1A9
330
1F
100
AcDbEntity
  8
1
  6
Continuous
 62
     7
100
AcDbLine
 10
25960.0144305623
 20
12684.9478149414
 30
0.0
 11
25960.0144305623
 21
11959.7395661927
 31
0.0
  0
LINE
  5
1AA
330
1F
100
AcDbEntity
  8
1
  6
Continuous
 62
     7
100
AcDbLine
 10
35409.9048011732
 20
15549.5685577392
 30
0.0
 11
35959.4733589124
 21
15549.5685577392
 31
0.0
  0
LINE
  5
1AB
330
1F
100
AcDbEntity
  8
1
  6
Continuous
 62
     7
100
AcDbLine
 10
35959.4733589124
 20
15684.9478149414
 30
0.0
 11
34999.4733589124
 21
15684.9478149414
 31
0.0
  0
LINE
  5
1AC
330
1F
100
AcDbEntity
  8
1
  6
Continuous
 62
     7
100
AcDbLine
 10
34999.4733589124
 20
15960.0
 30
0.0
 11
35959.4733589124
 21
15960.0
 31
0.0
  0
LINE
  5
1AD
330
1F
100
AcDbEntity
  8
1
  6
Continuous
 62
     7
100
AcDbLine
 10
34999.4733589124
 20
15684.9478149414
 30
0.0
 11
35959.4733589124
 21
15684.9478149414
 31
0.0
  0
LINE
  5
1AE
330
1F
100
AcDbEntity
  8
1
  6
Continuous
 62
     7
100
AcDbLine
 10
35959.4733589124
 20
15960.0
 30
0.0
 11
35959.4733589124
 21
15079.7395661927
 31
0.0
  0
LINE
  5
1AF
330
1F
100
AcDbEntity
  8
1
  6
Continuous
 62
     7
100
AcDbLine
 10
34999.4733589124
 20
14850.0
 30
0.0
 11
34999.4733589124
 21
15960.0
 31
0.0
  0
LINE
  5
1B0
330
1F
100
AcDbEntity
  8
1
  6
Continuous
 62
     7
100
AcDbLine
 10
35274.525543971
 20
14850.0
 30
0.0
 11
35274.525543971
 21
15684.9478149414
 31
0.0
  0
LINE
  5
1B1
330
1F
100
AcDbEntity
  8
1
  6
Continuous
 62
     7
100
AcDbLine
 10
35409.9048011732
 20
14850.0
 30
0.0
 11
35409.9048011732
 21
15684.9478149414
 31
0.0
  0
LINE
  5
1B2
330
1F
100
AcDbEntity
  8
1
  6
Continuous
 62
     7
100
AcDbLine
 10
35959.4733589124
 20
15684.9478149414
 30
0.0
 11
34999.4733589124
 21
15684.9478149414
 31
0.0
  0
LINE
  5
1B3
330
1F
100
AcDbEntity
  8
1
  6
Continuous
 62
     7
100
AcDbLine
 10
35959.4733589124
 20
14850.0
 30
0.0
 11
35959.4733589124
 21
15684.9478149414
 31
0.0
  0
LINE
  5
1B4
330
1F
100
AcDbEntity
  8
1
  6
Continuous
 62
     7
100
AcDbLine
 10
34999.4733589124
 20
14850.0
 30
0.0
 11
35959.4733589124
 21
14850.0
 31
0.0
  0
LINE
  5
1B5
330
1F
100
AcDbEntity
  8
1
  6
Continuous
 62
     7
100
AcDbLine
 10
35959.4733589124
 20
13890.0
 30
0.0
 11
35959.4733589124
 21
14850.0
 31
0.0
  0
LINE
  5
1B6
330
1F
100
AcDbEntity
  8
1
  6
Continuous
 62
     7
100
AcDbLine
 10
34999.4733589124
 20
13890.0
 30
0.0
 11
35959.4733589124
 21
13890.0
 31
0.0
  0
LINE
  5
1B7
330
1F
100
AcDbEntity
  8
1
  6
Continuous
 62
     7
100
AcDbLine
 10
35274.525543971
 20
14154.0000610351
 30
0.0
 11
35959.4733589124
 21
14154.0000610351
 31
0.0
  0
LINE
  5
1B8
330
1F
100
AcDbEntity
  8
1
  6
Continuous
 62
     7
100
AcDbLine
 10
35274.525543971
 20
13890.0
 30
0.0
 11
35274.525543971
 21
14850.0
 31
0.0
  0
LINE
  5
1B9
330
1F
100
AcDbEntity
  8
1
  6
Continuous
 62
     7
100
AcDbLine
 10
34999.4733589124
 20
13890.0
 30
0.0
 11
34999.4733589124
 21
14850.0
 31
0.0
  0
LINE
  5
1BA
330
1F
100
AcDbEntity
  8
1
  6
Continuous
 62
     7
100
AcDbLine
 10
35409.9048011732
 20
14154.0000610351
 30
0.0
 11
35409.9048011732
 21
14850.0
 31
0.0
  0
LINE
  5
1BB
330
1F
100
AcDbEntity
  8
1
  6
Continuous
 62
     7
100
AcDbLine
 10
32589.0419166518
 20
14850.0
 30
0.0
 11
32589.0419166518
 21
14154.0000610351
 31
0.0
  0
LINE
  5
1BC
330
1F
100
AcDbEntity
  8
1
  6
Continuous
 62
     7
100
AcDbLine
 10
32999.4733589124
 20
14850.0
 30
0.0
 11
32999.4733589124
 21
13890.0
 31
0.0
  0
LINE
  5
1BD
330
1F
100
AcDbEntity
  8
1
  6
Continuous
 62
     7
100
AcDbLine
 10
32724.4211738539
 20
14850.0
 30
0.0
 11
32724.4211738539
 21
13890.0
 31
0.0
  0
LINE
  5
1BE
330
1F
100
AcDbEntity
  8
1
  6
Continuous
 62
     7
100
AcDbLine
 10
32039.4733589124
 20
14154.0000610351
 30
0.0
 11
32724.4211738539
 21
14154.0000610351
 31
0.0
  0
LINE
  5
1BF
330
1F
100
AcDbEntity
  8
1
  6
Continuous
 62
     7
100
AcDbLine
 10
32039.4733589124
 20
13890.0
 30
0.0
 11
32999.4733589124
 21
13890.0
 31
0.0
  0
LINE
  5
1C0
330
1F
100
AcDbEntity
  8
1
  6
Continuous
 62
     7
100
AcDbLine
 10
32039.4733589124
 20
14850.0
 30
0.0
 11
32039.4733589124
 21
13890.0
 31
0.0
  0
LINE
  5
1C1
330
1F
100
AcDbEntity
  8
1
  6
Continuous
 62
     7
100
AcDbLine
 10
32039.4733589124
 20
14850.0
 30
0.0
 11
32999.4733589124
 21
14850.0
 31
0.0
  0
LINE
  5
1C2
330
1F
100
AcDbEntity
  8
1
  6
Continuous
 62
     7
100
AcDbLine
 10
32039.4733589124
 20
15684.9478149414
 30
0.0
 11
32039.4733589124
 21
14850.0
 31
0.0
  0
LINE
  5
1C3
330
1F
100
AcDbEntity
  8
1
  6
Continuous
 62
     7
100
AcDbLine
 10
32999.4733589124
 20
15684.9478149414
 30
0.0
 11
32039.4733589124
 21
15684.9478149414
 31
0.0
  0
LINE
  5
1C4
330
1F
100
AcDbEntity
  8
1
  6
Continuous
 62
     7
100
AcDbLine
 10
32589.0419166518
 20
15684.9478149414
 30
0.0
 11
32589.0419166518
 21
14850.0
 31
0.0
  0
LINE
  5
1C5
330
1F
100
AcDbEntity
  8
1
  6
Continuous
 62
     7
100
AcDbLine
 10
32724.4211738539
 20
15684.9478149414
 30
0.0
 11
32724.4211738539
 21
14850.0
 31
0.0
  0
LINE
  5
1C6
330
1F
100
AcDbEntity
  8
1
  6
Continuous
 62
     7
100
AcDbLine
 10
32999.4733589124
 20
15960.0
 30
0.0
 11
32999.4733589124
 21
14850.0
 31
0.0
  0
LINE
  5
1C7
330
1F
100
AcDbEntity
  8
1
  6
Continuous
 62
     7
100
AcDbLine
 10
32039.4733589124
 20
15079.7395661927
 30
0.0
 11
32039.4733589124
 21
15960.0
 31
0.0
  0
LINE
  5
1C8
330
1F
100
AcDbEntity
  8
1
  6
Continuous
 62
     7
100
AcDbLine
 10
32039.4733589124
 20
15684.9478149414
 30
0.0
 11
32999.4733589124
 21
15684.9478149414
 31
0.0
  0
LINE
  5
1C9
330
1F
100
AcDbEntity
  8
1
  6
Continuous
 62
     7
100
AcDbLine
 10
32039.4733589124
 20
15960.0
 30
0.0
 11
32999.4733589124
 21
15960.0
 31
0.0
  0
LINE
  5
1CA
330
1F
100
AcDbEntity
  8
1
  6
Continuous
 62
     7
100
AcDbLine
 10
32999.4733589124
 20
15684.9478149414
 30
0.0
 11
32039.4733589124
 21
15684.9478149414
 31
0.0
  0
LINE
  5
1CB
330
1F
100
AcDbEntity
  8
1
  6
Continuous
 62
     7
100
AcDbLine
 10
32039.4733589124
 20
15549.5685577392
 30
0.0
 11
32589.0419166518
 21
15549.5685577392
 31
0.0
  0
LINE
  5
1CC
330
1F
100
AcDbEntity
  8
1
  6
Continuous
 62
     7
100
AcDbLine
 10
21800.0144305623
 20
11959.7395661927
 30
0.0
 11
21800.0144305623
 21
12684.9478149414
 31
0.0
  0
LINE
  5
1CD
330
1F
100
AcDbEntity
  8
1
  6
Continuous
 62
     7
100
AcDbLine
 10
22760.0144305623
 20
12960.0
 30
0.0
 11
22760.0144305623
 21
11730.0
 31
0.0
  0
LINE
  5
1CE
330
1F
100
AcDbEntity
  8
1
  6
Continuous
 62
     7
100
AcDbLine
 10
22484.9622455037
 20
12684.9478149414
 30
0.0
 11
22484.9622455037
 21
11730.0
 31
0.0
  0
LINE
  5
1CF
330
1F
100
AcDbEntity
  8
1
  6
Continuous
 62
     7
100
AcDbLine
 10
22349.5829883016
 20
12684.9478149414
 30
0.0
 11
22349.5829883016
 21
11730.0
 31
0.0
  0
LINE
  5
1D0
330
1F
100
AcDbEntity
  8
1
  6
Continuous
 62
     7
100
AcDbLine
 10
22760.0144305623
 20
12684.9478149414
 30
0.0
 11
21800.0144305623
 21
12684.9478149414
 31
0.0
  0
LINE
  5
1D1
330
1F
100
AcDbEntity
  8
1
  6
Continuous
 62
     7
100
AcDbLine
 10
21800.0144305623
 20
12960.0
 30
0.0
 11
21800.0144305623
 21
11730.0
 31
0.0
  0
LINE
  5
1D2
330
1F
100
AcDbEntity
  8
1
  6
Continuous
 62
     7
100
AcDbLine
 10
21800.0144305623
 20
11730.0
 30
0.0
 11
22760.0144305623
 21
11730.0
 31
0.0
  0
LINE
  5
1D3
330
1F
100
AcDbEntity
  8
1
  6
Continuous
 62
     7
100
AcDbLine
 10
21800.0144305623
 20
11730.0
 30
0.0
 11
21800.0144305623
 21
10650.0
 31
0.0
  0
LINE
  5
1D4
330
1F
100
AcDbEntity
  8
1
  6
Continuous
 62
     7
100
AcDbLine
 10
21800.0144305623
 20
10650.0
 30
0.0
 11
22760.0144305623
 21
10650.0
 31
0.0
  0
LINE
  5
1D5
330
1F
100
AcDbEntity
  8
1
  6
Continuous
 62
     7
100
AcDbLine
 10
21800.0144305623
 20
10914.0000610351
 30
0.0
 11
22484.9622455037
 21
10914.0000610351
 31
0.0
  0
LINE
  5
1D6
330
1F
100
AcDbEntity
  8
1
  6
Continuous
 62
     7
100
AcDbLine
 10
22484.9622455037
 20
11730.0
 30
0.0
 11
22484.9622455037
 21
10650.0
 31
0.0
  0
LINE
  5
1D7
330
1F
100
AcDbEntity
  8
1
  6
Continuous
 62
     7
100
AcDbLine
 10
22760.0144305623
 20
11730.0
 30
0.0
 11
22760.0144305623
 21
10650.0
 31
0.0
  0
LINE
  5
1D8
330
1F
100
AcDbEntity
  8
1
  6
Continuous
 62
     7
100
AcDbLine
 10
22349.5829883016
 20
11730.0
 30
0.0
 11
22349.5829883016
 21
10914.0000610351
 31
0.0
  0
LINE
  5
1D9
330
1F
100
AcDbEntity
  8
1
  6
Continuous
 62
     7
100
AcDbLine
 10
21800.0144305623
 20
12960.0
 30
0.0
 11
22760.0144305623
 21
12960.0
 31
0.0
  0
LINE
  5
1DA
330
1F
100
AcDbEntity
  8
1
  6
Continuous
 62
     7
100
AcDbLine
 10
21800.0144305623
 20
12684.9478149414
 30
0.0
 11
22760.0144305623
 21
12684.9478149414
 31
0.0
  0
LINE
  5
1DB
330
1F
100
AcDbEntity
  8
1
  6
Continuous
 62
     7
100
AcDbLine
 10
21800.0144305623
 20
12549.5685577392
 30
0.0
 11
22349.5829883016
 21
12549.5685577392
 31
0.0
  0
LINE
  5
1DC
330
1F
100
AcDbEntity
  8
1
  6
Continuous
 62
     7
100
AcDbLine
 10
21800.0144305623
 20
12000.0
 30
0.0
 11
21194.8061818136
 21
12000.0
 31
0.0
  0
LINE
  5
1DD
330
1F
100
AcDbEntity
  8
1
  6
Continuous
 62
     7
100
AcDbLine
 10
20960.0144305623
 20
12960.0
 30
0.0
 11
21800.0144305623
 21
12960.0
 31
0.0
  0
LINE
  5
1DE
330
1F
100
AcDbEntity
  8
1
  6
Continuous
 62
     7
100
AcDbLine
 10
20960.0144305623
 20
12684.9478149414
 30
0.0
 11
21800.0144305623
 21
12684.9478149414
 31
0.0
  0
LINE
  5
1DF
330
1F
100
AcDbEntity
  8
1
  6
Continuous
 62
     7
100
AcDbLine
 10
20960.0144305623
 20
12549.5685577392
 30
0.0
 11
21800.0144305623
 21
12549.5685577392
 31
0.0
  0
LINE
  5
1E0
330
1F
100
AcDbEntity
  8
1
  6
Continuous
 62
     7
100
AcDbLine
 10
21800.0144305623
 20
12000.0
 30
0.0
 11
21800.0144305623
 21
12960.0
 31
0.0
  0
LINE
  5
1E1
330
1F
100
AcDbEntity
  8
1
  6
Continuous
 62
     7
100
AcDbLine
 10
20960.0144305623
 20
12000.0
 30
0.0
 11
21800.0144305623
 21
12000.0
 31
0.0
  0
LINE
  5
1E2
330
1F
100
AcDbEntity
  8
1
  6
Continuous
 62
     7
100
AcDbLine
 10
20960.0144305623
 20
12960.0
 30
0.0
 11
20960.0144305623
 21
12000.0
 31
0.0
  0
LINE
  5
1E3
330
1F
100
AcDbEntity
  8
1
  6
Continuous
 62
     7
100
AcDbLine
 10
20000.0144305623
 20
12000.0
 30
0.0
 11
20960.0144305623
 21
12000.0
 31
0.0
  0
LINE
  5
1E4
330
1F
100
AcDbEntity
  8
1
  6
Continuous
 62
     7
100
AcDbLine
 10
20000.0144305623
 20
12960.0
 30
0.0
 11
20000.0144305623
 21
12000.0
 31
0.0
  0
LINE
  5
1E5
330
1F
100
AcDbEntity
  8
1
  6
Continuous
 62
     7
100
AcDbLine
 10
20264.0144915975
 20
12684.9478149414
 30
0.0
 11
20264.0144915975
 21
12000.0
 31
0.0
  0
LINE
  5
1E6
330
1F
100
AcDbEntity
  8
1
  6
Continuous
 62
     7
100
AcDbLine
 10
20000.0144305623
 20
12684.9478149414
 30
0.0
 11
20960.0144305623
 21
12684.9478149414
 31
0.0
  0
LINE
  5
1E7
330
1F
100
AcDbEntity
  8
1
  6
Continuous
 62
     7
100
AcDbLine
 10
20000.0144305623
 20
12960.0
 30
0.0
 11
20960.0144305623
 21
12960.0
 31
0.0
  0
LINE
  5
1E8
330
1F
100
AcDbEntity
  8
1
  6
Continuous
 62
     7
100
AcDbLine
 10
20264.0144915975
 20
12549.5685577392
 30
0.0
 11
20960.0144305623
 21
12549.5685577392
 31
0.0
  0
LINE
  5
1E9
330
1F
100
AcDbEntity
  8
1
  6
Continuous
 62
     7
100
AcDbLine
 10
30263.4734199477
 20
15549.5685577392
 30
0.0
 11
31079.4733589124
 21
15549.5685577392
 31
0.0
  0
LINE
  5
1EA
330
1F
100
AcDbEntity
  8
1
  6
Continuous
 62
     7
100
AcDbLine
 10
29999.4733589124
 20
15960.0
 30
0.0
 11
31079.4733589124
 21
15960.0
 31
0.0
  0
LINE
  5
1EB
330
1F
100
AcDbEntity
  8
1
  6
Continuous
 62
     7
100
AcDbLine
 10
29999.4733589124
 20
15684.9478149414
 30
0.0
 11
31079.4733589124
 21
15684.9478149414
 31
0.0
  0
LINE
  5
1EC
330
1F
100
AcDbEntity
  8
1
  6
Continuous
 62
     7
100
AcDbLine
 10
30263.4734199477
 20
15684.9478149414
 30
0.0
 11
30263.4734199477
 21
15000.0
 31
0.0
  0
LINE
  5
1ED
330
1F
100
AcDbEntity
  8
1
  6
Continuous
 62
     7
100
AcDbLine
 10
29999.4733589124
 20
15960.0
 30
0.0
 11
29999.4733589124
 21
15000.0
 31
0.0
  0
LINE
  5
1EE
330
1F
100
AcDbEntity
  8
1
  6
Continuous
 62
     7
100
AcDbLine
 10
29999.4733589124
 20
15000.0
 30
0.0
 11
31079.4733589124
 21
15000.0
 31
0.0
  0
LINE
  5
1EF
330
1F
100
AcDbEntity
  8
1
  6
Continuous
 62
     7
100
AcDbLine
 10
31079.4733589124
 20
15960.0
 30
0.0
 11
31079.4733589124
 21
15000.0
 31
0.0
  0
LINE
  5
1F0
330
1F
100
AcDbEntity
  8
1
  6
Continuous
 62
     7
100
AcDbLine
 10
31079.4733589124
 20
15000.0
 30
0.0
 11
32039.4733589124
 21
15000.0
 31
0.0
  0
LINE
  5
1F1
330
1F
100
AcDbEntity
  8
1
  6
Continuous
 62
     7
100
AcDbLine
 10
32039.4733589124
 20
15000.0
 30
0.0
 11
32039.4733589124
 21
15960.0
 31
0.0
  0
LINE
  5
1F2
330
1F
100
AcDbEntity
  8
1
  6
Continuous
 62
     7
100
AcDbLine
 10
31079.4733589124
 20
15549.5685577392
 30
0.0
 11
32039.4733589124
 21
15549.5685577392
 31
0.0
  0
LINE
  5
1F3
330
1F
100
AcDbEntity
  8
1
  6
Continuous
 62
     7
100
AcDbLine
 10
31079.4733589124
 20
15684.9478149414
 30
0.0
 11
32039.4733589124
 21
15684.9478149414
 31
0.0
  0
LINE
  5
1F4
330
1F
100
AcDbEntity
  8
1
  6
Continuous
 62
     7
100
AcDbLine
 10
31079.4733589124
 20
15960.0
 30
0.0
 11
32039.4733589124
 21
15960.0
 31
0.0
  0
LINE
  5
1F5
330
1F
100
AcDbEntity
  8
1
  6
Continuous
 62
     7
100
AcDbLine
 10
32039.4733589124
 20
15000.0
 30
0.0
 11
31314.2651101638
 21
15000.0
 31
0.0
  0
LINE
  5
1F6
330
1F
100
AcDbEntity
  8
1
  6
Continuous
 62
     7
100
AcDbLine
 10
9410.44587282308
 20
18000.0
 30
0.0
 11
9410.44587282308
 21
18549.5685577392
 31
0.0
  0
LINE
  5
1F7
330
1F
100
AcDbEntity
  8
1
  6
Continuous
 62
     7
100
AcDbLine
 10
9275.06661562093
 20
18000.0
 30
0.0
 11
9275.06661562093
 21
18960.0
 31
0.0
  0
LINE
  5
1F8
330
1F
100
AcDbEntity
  8
1
  6
Continuous
 62
     7
100
AcDbLine
 10
9000.01443056234
 20
18000.0
 30
0.0
 11
9000.01443056234
 21
18960.0
 31
0.0
  0
LINE
  5
1F9
330
1F
100
AcDbEntity
  8
1
  6
Continuous
 62
     7
100
AcDbLine
 10
10230.0144305623
 20
18549.5685577392
 30
0.0
 11
11046.0143695272
 21
18549.5685577392
 31
0.0
  0
LINE
  5
1FA
330
1F
100
AcDbEntity
  8
1
  6
Continuous
 62
     7
100
AcDbLine
 10
10230.0144305623
 20
18960.0
 30
0.0
 11
11310.0144305623
 21
18960.0
 31
0.0
  0
LINE
  5
1FB
330
1F
100
AcDbEntity
  8
1
  6
Continuous
 62
     7
100
AcDbLine
 10
10230.0144305623
 20
18684.9478149414
 30
0.0
 11
11310.0144305623
 21
18684.9478149414
 31
0.0
  0
LINE
  5
1FC
330
1F
100
AcDbEntity
  8
1
  6
Continuous
 62
     7
100
AcDbLine
 10
11046.0143695272
 20
18000.0
 30
0.0
 11
11046.0143695272
 21
18684.9478149414
 31
0.0
  0
LINE
  5
1FD
330
1F
100
AcDbEntity
  8
1
  6
Continuous
 62
     7
100
AcDbLine
 10
11310.0144305623
 20
18000.0
 30
0.0
 11
11310.0144305623
 21
18960.0
 31
0.0
  0
LINE
  5
1FE
330
1F
100
AcDbEntity
  8
1
  6
Continuous
 62
     7
100
AcDbLine
 10
10230.0144305623
 20
18000.0
 30
0.0
 11
11310.0144305623
 21
18000.0
 31
0.0
  0
LINE
  5
1FF
330
1F
100
AcDbEntity
  8
1
  6
Continuous
 62
     7
100
AcDbLine
 10
10230.0144305623
 20
18000.0
 30
0.0
 11
10230.0144305623
 21
18960.0
 31
0.0
  0
LINE
  5
200
330
1F
100
AcDbEntity
  8
1
  6
Continuous
 62
     7
100
AcDbLine
 10
9000.01443056234
 20
18000.0
 30
0.0
 11
10230.0144305623
 21
18000.0
 31
0.0
  0
LINE
  5
201
330
1F
100
AcDbEntity
  8
1
  6
Continuous
 62
     7
100
AcDbLine
 10
9275.06661562093
 20
18960.0
 30
0.0
 11
9275.06661562093
 21
18000.0
 31
0.0
  0
LINE
  5
202
330
1F
100
AcDbEntity
  8
1
  6
Continuous
 62
     7
100
AcDbLine
 10
9275.06661562093
 20
18549.5685577392
 30
0.0
 11
10230.0144305623
 21
18549.5685577392
 31
0.0
  0
LINE
  5
203
330
1F
100
AcDbEntity
  8
1
  6
Continuous
 62
     7
100
AcDbLine
 10
9275.06661562093
 20
18684.9478149414
 30
0.0
 11
10230.0144305623
 21
18684.9478149414
 31
0.0
  0
LINE
  5
204
330
1F
100
AcDbEntity
  8
1
  6
Continuous
 62
     7
100
AcDbLine
 10
9000.01443056234
 20
18960.0
 30
0.0
 11
10230.0144305623
 21
18960.0
 31
0.0
  0
LINE
  5
205
330
1F
100
AcDbEntity
  8
1
  6
Continuous
 62
     7
100
AcDbLine
 10
10000.2748643696
 20
18000.0
 30
0.0
 11
9275.06661562093
 21
18000.0
 31
0.0
  0
LINE
  5
206
330
1F
100
AcDbEntity
  8
1
  6
Continuous
 62
     7
100
AcDbLine
 10
8040.01443056234
 20
18000.0
 30
0.0
 11
7314.80618181368
 21
18000.0
 31
0.0
  0
LINE
  5
207
330
1F
100
AcDbEntity
  8
1
  6
Continuous
 62
     7
100
AcDbLine
 10
7080.01443056234
 20
18960.0
 30
0.0
 11
8040.01443056234
 21
18960.0
 31
0.0
  0
LINE
  5
208
330
1F
100
AcDbEntity
  8
1
  6
Continuous
 62
     7
100
AcDbLine
 10
7080.01443056234
 20
18684.9478149414
 30
0.0
 11
8040.01443056234
 21
18684.9478149414
 31
0.0
  0
LINE
  5
209
330
1F
100
AcDbEntity
  8
1
  6
Continuous
 62
     7
100
AcDbLine
 10
7080.01443056234
 20
18549.5685577392
 30
0.0
 11
8040.01443056234
 21
18549.5685577392
 31
0.0
  0
LINE
  5
20A
330
1F
100
AcDbEntity
  8
1
  6
Continuous
 62
     7
100
AcDbLine
 10
8040.01443056234
 20
18000.0
 30
0.0
 11
8040.01443056234
 21
18960.0
 31
0.0
  0
LINE
  5
20B
330
1F
100
AcDbEntity
  8
1
  6
Continuous
 62
     7
100
AcDbLine
 10
7080.01443056234
 20
18000.0
 30
0.0
 11
8040.01443056234
 21
18000.0
 31
0.0
  0
LINE
  5
20C
330
1F
100
AcDbEntity
  8
1
  6
Continuous
 62
     7
100
AcDbLine
 10
7080.01443056234
 20
18960.0
 30
0.0
 11
7080.01443056234
 21
18000.0
 31
0.0
  0
LINE
  5
20D
330
1F
100
AcDbEntity
  8
1
  6
Continuous
 62
     7
100
AcDbLine
 10
6000.01443056234
 20
18000.0
 30
0.0
 11
7080.01443056234
 21
18000.0
 31
0.0
  0
LINE
  5
20E
330
1F
100
AcDbEntity
  8
1
  6
Continuous
 62
     7
100
AcDbLine
 10
6000.01443056234
 20
18960.0
 30
0.0
 11
6000.01443056234
 21
18000.0
 31
0.0
  0
LINE
  5
20F
330
1F
100
AcDbEntity
  8
1
  6
Continuous
 62
     7
100
AcDbLine
 10
6264.0144915975
 20
18684.9478149414
 30
0.0
 11
6264.0144915975
 21
18000.0
 31
0.0
  0
LINE
  5
210
330
1F
100
AcDbEntity
  8
1
  6
Continuous
 62
     7
100
AcDbLine
 10
6000.01443056234
 20
18684.9478149414
 30
0.0
 11
7080.01443056234
 21
18684.9478149414
 31
0.0
  0
LINE
  5
211
330
1F
100
AcDbEntity
  8
1
  6
Continuous
 62
     7
100
AcDbLine
 10
6000.01443056234
 20
18960.0
 30
0.0
 11
7080.01443056234
 21
18960.0
 31
0.0
  0
LINE
  5
212
330
1F
100
AcDbEntity
  8
1
  6
Continuous
 62
     7
100
AcDbLine
 10
6264.0144915975
 20
18549.5685577392
 30
0.0
 11
7080.01443056234
 21
18549.5685577392
 31
0.0
  0
LINE
  5
213
330
1F
100
AcDbEntity
  8
1
  6
Continuous
 62
     7
100
AcDbLine
 10
9410.44587282308
 20
15000.0
 30
0.0
 11
9410.44587282308
 21
15549.5685577392
 31
0.0
  0
LINE
  5
214
330
1F
100
AcDbEntity
  8
1
  6
Continuous
 62
     7
100
AcDbLine
 10
9275.06661562093
 20
15960.0
 30
0.0
 11
9275.06661562093
 21
15000.0
 31
0.0
  0
LINE
  5
215
330
1F
100
AcDbEntity
  8
1
  6
Continuous
 62
     7
100
AcDbLine
 10
9000.01443056234
 20
15000.0
 30
0.0
 11
9000.01443056234
 21
15960.0
 31
0.0
  0
LINE
  5
216
330
1F
100
AcDbEntity
  8
1
  6
Continuous
 62
     7
100
AcDbLine
 10
9275.06661562093
 20
15000.0
 30
0.0
 11
9275.06661562093
 21
15960.0
 31
0.0
  0
LINE
  5
217
330
1F
100
AcDbEntity
  8
1
  6
Continuous
 62
     7
100
AcDbLine
 10
9880.27486436959
 20
15000.0
 30
0.0
 11
9000.01443056234
 21
15000.0
 31
0.0
  0
LINE
  5
218
330
1F
100
AcDbEntity
  8
1
  6
Continuous
 62
     7
100
AcDbLine
 10
9000.01443056234
 20
15960.0
 30
0.0
 11
10110.0144305623
 21
15960.0
 31
0.0
  0
LINE
  5
219
330
1F
100
AcDbEntity
  8
1
  6
Continuous
 62
     7
100
AcDbLine
 10
9275.06661562093
 20
15684.9478149414
 30
0.0
 11
10110.0144305623
 21
15684.9478149414
 31
0.0
  0
LINE
  5
21A
330
1F
100
AcDbEntity
  8
1
  6
Continuous
 62
     7
100
AcDbLine
 10
9275.06661562093
 20
15549.5685577392
 30
0.0
 11
10110.0144305623
 21
15549.5685577392
 31
0.0
  0
LINE
  5
21B
330
1F
100
AcDbEntity
  8
1
  6
Continuous
 62
     7
100
AcDbLine
 10
9275.06661562093
 20
15960.0
 30
0.0
 11
9275.06661562093
 21
15000.0
 31
0.0
  0
LINE
  5
21C
330
1F
100
AcDbEntity
  8
1
  6
Continuous
 62
     7
100
AcDbLine
 10
9275.06661562093
 20
15000.0
 30
0.0
 11
10110.0144305623
 21
15000.0
 31
0.0
  0
LINE
  5
21D
330
1F
100
AcDbEntity
  8
1
  6
Continuous
 62
     7
100
AcDbLine
 10
10110.0144305623
 20
15000.0
 30
0.0
 11
10110.0144305623
 21
15960.0
 31
0.0
  0
LINE
  5
21E
330
1F
100
AcDbEntity
  8
1
  6
Continuous
 62
     7
100
AcDbLine
 10
10110.0144305623
 20
15000.0
 30
0.0
 11
11070.0144305623
 21
15000.0
 31
0.0
  0
LINE
  5
21F
330
1F
100
AcDbEntity
  8
1
  6
Continuous
 62
     7
100
AcDbLine
 10
11070.0144305623
 20
15000.0
 30
0.0
 11
11070.0144305623
 21
15960.0
 31
0.0
  0
LINE
  5
220
330
1F
100
AcDbEntity
  8
1
  6
Continuous
 62
     7
100
AcDbLine
 10
10806.0143695272
 20
15000.0
 30
0.0
 11
10806.0143695272
 21
15684.9478149414
 31
0.0
  0
LINE
  5
221
330
1F
100
AcDbEntity
  8
1
  6
Continuous
 62
     7
100
AcDbLine
 10
10110.0144305623
 20
15684.9478149414
 30
0.0
 11
11070.0144305623
 21
15684.9478149414
 31
0.0
  0
LINE
  5
222
330
1F
100
AcDbEntity
  8
1
  6
Continuous
 62
     7
100
AcDbLine
 10
10110.0144305623
 20
15960.0
 30
0.0
 11
11070.0144305623
 21
15960.0
 31
0.0
  0
LINE
  5
223
330
1F
100
AcDbEntity
  8
1
  6
Continuous
 62
     7
100
AcDbLine
 10
10110.0144305623
 20
15549.5685577392
 30
0.0
 11
10806.0143695272
 21
15549.5685577392
 31
0.0
  0
LINE
  5
224
330
1F
100
AcDbEntity
  8
1
  6
Continuous
 62
     7
100
AcDbLine
 10
6264.0144915975
 20
15549.5685577392
 30
0.0
 11
6960.01443056234
 21
15549.5685577392
 31
0.0
  0
LINE
  5
225
330
1F
100
AcDbEntity
  8
1
  6
Continuous
 62
     7
100
AcDbLine
 10
6000.01443056234
 20
15960.0
 30
0.0
 11
6960.01443056234
 21
15960.0
 31
0.0
  0
LINE
  5
226
330
1F
100
AcDbEntity
  8
1
  6
Continuous
 62
     7
100
AcDbLine
 10
6000.01443056234
 20
15684.9478149414
 30
0.0
 11
6960.01443056234
 21
15684.9478149414
 31
0.0
  0
LINE
  5
227
330
1F
100
AcDbEntity
  8
1
  6
Continuous
 62
     7
100
AcDbLine
 10
6264.0144915975
 20
15684.9478149414
 30
0.0
 11
6264.0144915975
 21
15000.0
 31
0.0
  0
LINE
  5
228
330
1F
100
AcDbEntity
  8
1
  6
Continuous
 62
     7
100
AcDbLine
 10
6000.01443056234
 20
15960.0
 30
0.0
 11
6000.01443056234
 21
15000.0
 31
0.0
  0
LINE
  5
229
330
1F
100
AcDbEntity
  8
1
  6
Continuous
 62
     7
100
AcDbLine
 10
6000.01443056234
 20
15000.0
 30
0.0
 11
6960.01443056234
 21
15000.0
 31
0.0
  0
LINE
  5
22A
330
1F
100
AcDbEntity
  8
1
  6
Continuous
 62
     7
100
AcDbLine
 10
6960.01443056234
 20
15960.0
 30
0.0
 11
6960.01443056234
 21
15000.0
 31
0.0
  0
LINE
  5
22B
330
1F
100
AcDbEntity
  8
1
  6
Continuous
 62
     7
100
AcDbLine
 10
6960.01443056234
 20
15000.0
 30
0.0
 11
7800.01443056234
 21
15000.0
 31
0.0
  0
LINE
  5
22C
330
1F
100
AcDbEntity
  8
1
  6
Continuous
 62
     7
100
AcDbLine
 10
7800.01443056234
 20
15000.0
 30
0.0
 11
7800.01443056234
 21
15960.0
 31
0.0
  0
LINE
  5
22D
330
1F
100
AcDbEntity
  8
1
  6
Continuous
 62
     7
100
AcDbLine
 10
6960.01443056234
 20
15549.5685577392
 30
0.0
 11
7800.01443056234
 21
15549.5685577392
 31
0.0
  0
LINE
  5
22E
330
1F
100
AcDbEntity
  8
1
  6
Continuous
 62
     7
100
AcDbLine
 10
6960.01443056234
 20
15684.9478149414
 30
0.0
 11
7800.01443056234
 21
15684.9478149414
 31
0.0
  0
LINE
  5
22F
330
1F
100
AcDbEntity
  8
1
  6
Continuous
 62
     7
100
AcDbLine
 10
6960.01443056234
 20
15960.0
 30
0.0
 11
7800.01443056234
 21
15960.0
 31
0.0
  0
LINE
  5
230
330
1F
100
AcDbEntity
  8
1
  6
Continuous
 62
     7
100
AcDbLine
 10
7800.01443056234
 20
15000.0
 30
0.0
 11
7194.80618181368
 21
15000.0
 31
0.0
  0
LINE
  5
231
330
1F
100
AcDbEntity
  8
1
  6
Continuous
 62
     3
100
AcDbLine
 10
600.014430562338
 20
11131.4147033691
 30
0.0
 11
600.014430562338
 21
11326.9848969854
 31
0.0
  0
LINE
  5
232
330
1F
100
AcDbEntity
  8
1
  6
Continuous
 62
     3
100
AcDbLine
 10
600.014430562338
 20
11326.9848969854
 30
0.0
 11
1800.01443056234
 21
11326.9848969854
 31
0.0
  0
LINE
  5
233
330
1F
100
AcDbEntity
  8
1
  6
Continuous
 62
     3
100
AcDbLine
 10
1800.01443056234
 20
11131.4147033691
 30
0.0
 11
1800.01443056234
 21
11326.9848969854
 31
0.0
  0
LINE
  5
234
330
1F
100
AcDbEntity
  8
1
  6
Continuous
 62
     3
100
AcDbLine
 10
1200.01443056234
 20
14326.9848969854
 30
0.0
 11
2050.01443056234
 21
14326.9848969854
 31
0.0
  0
LINE
  5
235
330
1F
100
AcDbEntity
  8
1
  6
Continuous
 62
     3
100
AcDbLine
 10
1200.01443056234
 20
14131.4147033691
 30
0.0
 11
1200.01443056234
 21
14326.9848969854
 31
0.0
  0
LINE
  5
236
330
1F
100
AcDbEntity
  8
1
  6
Continuous
 62
     3
100
AcDbLine
 10
2050.01443056234
 20
14131.4147033691
 30
0.0
 11
2050.01443056234
 21
14326.9848969854
 31
0.0
  0
LINE
  5
237
330
1F
100
AcDbEntity
  8
1
  6
Continuous
 62
     7
100
AcDbLine
 10
1800.01443056234
 20
8999.99999999996
 30
0.0
 11
600.014430562338
 21
8999.99999999996
 31
0.0
  0
LINE
  5
238
330
1F
100
AcDbEntity
  8
1
  6
Continuous
 62
     7
100
AcDbLine
 10
600.014430562338
 20
9959.99999999996
 30
0.0
 11
1800.01443056234
 21
9959.99999999996
 31
0.0
  0
LINE
  5
239
330
1F
100
AcDbEntity
  8
1
  6
Continuous
 62
     7
100
AcDbLine
 10
600.014430562338
 20
9684.94781494137
 30
0.0
 11
1800.01443056234
 21
9684.94781494137
 31
0.0
  0
LINE
  5
23A
330
1F
100
AcDbEntity
  8
1
  6
Continuous
 62
     7
100
AcDbLine
 10
1536.01436952718
 20
8999.99999999996
 30
0.0
 11
1536.01436952718
 21
9684.94781494137
 31
0.0
  0
LINE
  5
23B
330
1F
100
AcDbEntity
  8
1
  6
Continuous
 62
     7
100
AcDbLine
 10
864.014491597498
 20
9549.56855773922
 30
0.0
 11
1536.01436952718
 21
9549.56855773922
 31
0.0
  0
LINE
  5
23C
330
1F
100
AcDbEntity
  8
1
  6
Continuous
 62
     7
100
AcDbLine
 10
1800.01443056234
 20
8999.99999999996
 30
0.0
 11
1800.01443056234
 21
9959.99999999996
 31
0.0
  0
LINE
  5
23D
330
1F
100
AcDbEntity
  8
1
  6
Continuous
 62
     7
100
AcDbLine
 10
600.014430562338
 20
9959.99999999996
 30
0.0
 11
600.014430562338
 21
8999.99999999996
 31
0.0
  0
LINE
  5
23E
330
1F
100
AcDbEntity
  8
1
  6
Continuous
 62
     7
100
AcDbLine
 10
864.014491597498
 20
9684.94781494137
 30
0.0
 11
864.014491597498
 21
8999.99999999996
 31
0.0
  0
LINE
  5
23F
330
1F
100
AcDbEntity
  8
1
  6
Continuous
 62
     4
100
AcDbLine
 10
720.019059822438
 20
10508.1546585959
 30
0.0
 11
719.4807341604681
 21
10500.0
 31
0.0
  0
LINE
  5
240
330
1F
100
AcDbEntity
  8
1
  6
Continuous
 62
     7
100
AcDbLine
 10
720.014430562338
 20
10508.1546585959
 30
0.0
 11
720.014430562338
 21
10914.3947209864
 31
0.0
  0
LINE
  5
241
330
1F
100
AcDbEntity
  8
1
  6
Continuous
 62
     4
100
AcDbLine
 10
600.014430562338
 20
10508.0845336914
 30
0.0
 11
600.555502212188
 21
10500.0
 31
0.0
  0
LINE
  5
242
330
1F
100
AcDbEntity
  8
1
  6
Continuous
 62
     4
100
AcDbLine
 10
719.4807341604681
 20
10500.0
 30
0.0
 11
600.555502212188
 21
10500.0
 31
0.0
  0
LINE
  5
243
330
1F
100
AcDbEntity
  8
1
  6
Continuous
 62
     4
100
AcDbLine
 10
600.014430562338
 20
10508.0845336914
 30
0.0
 11
720.014430562338
 21
10508.0845336914
 31
0.0
  0
LINE
  5
244
330
1F
100
AcDbEntity
  8
1
  6
Continuous
 62
     7
100
AcDbLine
 10
600.014430562338
 20
11011.4147033691
 30
0.0
 11
600.014430562338
 21
11131.4147033691
 31
0.0
  0
LINE
  5
245
330
1F
100
AcDbEntity
  8
1
  6
Continuous
 62
     7
100
AcDbLine
 10
600.014430562338
 20
10508.1546585959
 30
0.0
 11
720.014430562338
 21
10508.1546585959
 31
0.0
  0
LINE
  5
246
330
1F
100
AcDbEntity
  8
1
  6
Continuous
 62
     7
100
AcDbLine
 10
600.014430562338
 20
10508.1546585959
 30
0.0
 11
600.014430562338
 21
10914.3947209864
 31
0.0
  0
LINE
  5
247
330
1F
100
AcDbEntity
  8
1
  6
Continuous
 62
     7
100
AcDbLine
 10
862.547938863118
 20
11086.3368835449
 30
0.0
 11
862.547938863118
 21
10914.3947209864
 31
0.0
  0
LINE
  5
248
330
1F
100
AcDbEntity
  8
1
  6
Continuous
 62
     7
100
AcDbLine
 10
720.014430562338
 20
10672.6409912145
 30
0.0
 11
1678.94753603109
 21
10672.6409912145
 31
0.0
  0
LINE
  5
249
330
1F
100
AcDbEntity
  8
1
  6
Continuous
 62
     7
100
AcDbLine
 10
1800.01443056234
 20
10914.3947209864
 30
0.0
 11
1608.88663097147
 21
10914.3947209864
 31
0.0
  0
LINE
  5
24A
330
1F
100
AcDbEntity
  8
1
  6
Continuous
 62
     7
100
AcDbLine
 10
1800.01443056234
 20
10914.3947209864
 30
0.0
 11
1800.01443056234
 21
10508.0845336914
 31
0.0
  0
LINE
  5
24B
330
1F
100
AcDbEntity
  8
1
  6
Continuous
 62
     7
100
AcDbLine
 10
1678.94753603109
 20
10508.1546585959
 30
0.0
 11
1800.01443056234
 21
10508.1546585959
 31
0.0
  0
LINE
  5
24C
330
1F
100
AcDbEntity
  8
1
  6
Continuous
 62
     7
100
AcDbLine
 10
1800.01443056234
 20
11131.4147033691
 30
0.0
 11
1800.01443056234
 21
11011.4147033691
 31
0.0
  0
LINE
  5
24D
330
1F
100
AcDbEntity
  8
1
  6
Continuous
 62
     7
100
AcDbLine
 10
600.014430562338
 20
11131.4147033691
 30
0.0
 11
1800.01443056234
 21
11131.4147033691
 31
0.0
  0
LINE
  5
24E
330
1F
100
AcDbEntity
  8
0
  6
Continuous
 62
     7
100
AcDbLine
 10
1680.01443056234
 20
10812.9234263051
 30
0.0
 11
720.014430562338
 21
10812.9246048572
 31
0.0
  0
LINE
  5
24F
330
1F
100
AcDbEntity
  8
0
  6
Continuous
 62
     7
100
AcDbLine
 10
862.547938863118
 20
11086.3368835449
 30
0.0
 11
1521.48098329672
 21
11086.3368835449
 31
0.0
  0
LINE
  5
250
330
1F
100
AcDbEntity
  8
0
  6
Continuous
 62
     7
100
AcDbLine
 10
1608.88663097147
 20
10914.3947209864
 30
0.0
 11
720.014430562338
 21
10914.3947209864
 31
0.0
  0
LINE
  5
251
330
1F
100
AcDbEntity
  8
1
  6
Continuous
 62
     7
100
AcDbLine
 10
1070.01443056234
 20
11086.3368835449
 30
0.0
 11
1537.48092226156
 21
11086.3368835449
 31
0.0
  0
LINE
  5
252
330
1F
100
AcDbEntity
  8
1
  6
Continuous
 62
     4
100
AcDbLine
 10
1680.01443056234
 20
10508.0845336914
 30
0.0
 11
1800.01443056234
 21
10508.0845336914
 31
0.0
  0
LINE
  5
253
330
1F
100
AcDbEntity
  8
1
  6
Continuous
 62
     4
100
AcDbLine
 10
1799.47335891249
 20
10500.0
 30
0.0
 11
1680.54812696422
 21
10500.0
 31
0.0
  0
LINE
  5
254
330
1F
100
AcDbEntity
  8
1
  6
Continuous
 62
     4
100
AcDbLine
 10
1799.47335891249
 20
10500.0
 30
0.0
 11
1800.01443056234
 21
10508.0845336914
 31
0.0
  0
LINE
  5
255
330
1F
100
AcDbEntity
  8
1
  6
Continuous
 62
     7
100
AcDbLine
 10
1680.01443056234
 20
10914.3947209864
 30
0.0
 11
1680.01443056234
 21
10508.0845336914
 31
0.0
  0
LINE
  5
256
330
1F
100
AcDbEntity
  8
1
  6
Continuous
 62
     4
100
AcDbLine
 10
1680.54812696422
 20
10500.0
 30
0.0
 11
1680.00980130225
 21
10508.1546585959
 31
0.0
  0
LINE
  5
257
330
1F
100
AcDbEntity
  8
1
  6
Continuous
 62
     7
100
AcDbLine
 10
1800.01443056234
 20
11015.9598426944
 30
0.0
 11
1800.01443056234
 21
10919.7283968281
 31
0.0
  0
LINE
  5
258
330
1F
100
AcDbEntity
  8
1
  6
Continuous
 62
     7
100
AcDbLine
 10
1725.38597230614
 20
11031.5975189209
 30
0.0
 11
1612.10938051776
 21
11031.5975189209
 31
0.0
  0
LINE
  5
259
330
1F
100
AcDbEntity
  8
1
  6
Continuous
 62
     7
100
AcDbLine
 10
1558.99497156473
 20
10914.3947209864
 30
0.0
 11
1778.50038125896
 21
10914.3947209864
 31
0.0
  0
LINE
  5
25A
330
1F
100
AcDbEntity
  8
1
  6
Continuous
 62
     1
100
AcDbLine
 10
1537.48092226156
 20
11015.9598426944
 30
0.0
 11
1800.01443056234
 21
11015.9598426944
 31
0.0
  0
LINE
  5
25B
330
1F
100
AcDbEntity
  8
1
  6
Continuous
 62
     7
100
AcDbLine
 10
1537.48092226156
 20
11086.3368835449
 30
0.0
 11
1537.48092226156
 21
10914.3947209864
 31
0.0
  0
LINE
  5
25C
330
1F
100
AcDbEntity
  8
1
  6
Continuous
 62
     1
100
AcDbLine
 10
600.014430562338
 20
11015.9598426944
 30
0.0
 11
862.547938863118
 21
11015.9598426944
 31
0.0
  0
LINE
  5
25D
330
1F
100
AcDbEntity
  8
1
  6
Continuous
 62
     7
100
AcDbLine
 10
621.5284798657181
 20
10914.3947209864
 30
0.0
 11
841.033889559958
 21
10914.3947209864
 31
0.0
  0
LINE
  5
25E
330
1F
100
AcDbEntity
  8
1
  6
Continuous
 62
     7
100
AcDbLine
 10
787.919480606918
 20
11031.5975189209
 30
0.0
 11
674.642888818538
 21
11031.5975189209
 31
0.0
  0
LINE
  5
25F
330
1F
100
AcDbEntity
  8
1
  6
Continuous
 62
     7
100
AcDbLine
 10
600.014430562338
 20
10919.7283968281
 30
0.0
 11
600.014430562338
 21
11015.9598426944
 31
0.0
  0
LINE
  5
260
330
1F
100
AcDbEntity
  8
1
  6
Continuous
 62
     7
100
AcDbLine
 10
791.142230153208
 20
10914.3947209864
 30
0.0
 11
600.014430562338
 21
10914.3947209864
 31
0.0
  0
LINE
  5
261
330
1F
100
AcDbEntity
  8
1
  6
Continuous
 62
     7
100
AcDbLine
 10
1774.96224550375
 20
12000.0
 30
0.0
 11
1639.5829883016
 21
12000.0
 31
0.0
  0
LINE
  5
262
330
1F
100
AcDbEntity
  8
1
  6
Continuous
 62
     7
100
AcDbLine
 10
2050.01443056234
 20
12000.0
 30
0.0
 11
1309.80618181368
 21
12000.0
 31
0.0
  0
LINE
  5
263
330
1F
100
AcDbEntity
  8
1
  6
Continuous
 62
     7
100
AcDbLine
 10
1200.01443056234
 20
12960.0
 30
0.0
 11
2050.01443056234
 21
12960.0
 31
0.0
  0
LINE
  5
264
330
1F
100
AcDbEntity
  8
1
  6
Continuous
 62
     7
100
AcDbLine
 10
1200.01443056234
 20
12684.9478149414
 30
0.0
 11
2050.01443056234
 21
12684.9478149414
 31
0.0
  0
LINE
  5
265
330
1F
100
AcDbEntity
  8
1
  6
Continuous
 62
     7
100
AcDbLine
 10
1786.01436952718
 20
12000.0
 30
0.0
 11
1786.01436952718
 21
12684.9478149414
 31
0.0
  0
LINE
  5
266
330
1F
100
AcDbEntity
  8
1
  6
Continuous
 62
     7
100
AcDbLine
 10
1200.01443056234
 20
12549.5685577392
 30
0.0
 11
1786.01436952718
 21
12549.5685577392
 31
0.0
  0
LINE
  5
267
330
1F
100
AcDbEntity
  8
1
  6
Continuous
 62
     7
100
AcDbLine
 10
2050.01443056234
 20
12000.0
 30
0.0
 11
2050.01443056234
 21
12960.0
 31
0.0
  0
LINE
  5
268
330
1F
100
AcDbEntity
  8
1
  6
Continuous
 62
     7
100
AcDbLine
 10
1200.01443056234
 20
12000.0
 30
0.0
 11
2050.01443056234
 21
12000.0
 31
0.0
  0
LINE
  5
269
330
1F
100
AcDbEntity
  8
1
  6
Continuous
 62
     7
100
AcDbLine
 10
1200.01443056234
 20
12960.0
 30
0.0
 11
1200.01443056234
 21
12000.0
 31
0.0
  0
LINE
  5
26A
330
1F
100
AcDbEntity
  8
1
  6
Continuous
 62
     7
100
AcDbLine
 10
350.014430562338
 20
12000.0
 30
0.0
 11
1200.01443056234
 21
12000.0
 31
0.0
  0
LINE
  5
26B
330
1F
100
AcDbEntity
  8
1
  6
Continuous
 62
     7
100
AcDbLine
 10
350.014430562338
 20
12960.0
 30
0.0
 11
350.014430562338
 21
12000.0
 31
0.0
  0
LINE
  5
26C
330
1F
100
AcDbEntity
  8
1
  6
Continuous
 62
     7
100
AcDbLine
 10
614.014491597498
 20
12684.9478149414
 30
0.0
 11
614.014491597498
 21
12000.0
 31
0.0
  0
LINE
  5
26D
330
1F
100
AcDbEntity
  8
1
  6
Continuous
 62
     7
100
AcDbLine
 10
350.014430562338
 20
12684.9478149414
 30
0.0
 11
1200.01443056234
 21
12684.9478149414
 31
0.0
  0
LINE
  5
26E
330
1F
100
AcDbEntity
  8
1
  6
Continuous
 62
     7
100
AcDbLine
 10
350.014430562338
 20
12960.0
 30
0.0
 11
1200.01443056234
 21
12960.0
 31
0.0
  0
LINE
  5
26F
330
1F
100
AcDbEntity
  8
1
  6
Continuous
 62
     4
100
AcDbLine
 10
470.019059822438
 20
13508.1546585959
 30
0.0
 11
469.480734160468
 21
13500.0
 31
0.0
  0
LINE
  5
270
330
1F
100
AcDbEntity
  8
1
  6
Continuous
 62
     7
100
AcDbLine
 10
470.014430562338
 20
13508.1546585959
 30
0.0
 11
470.014430562338
 21
13914.3947209864
 31
0.0
  0
LINE
  5
271
330
1F
100
AcDbEntity
  8
1
  6
Continuous
 62
     4
100
AcDbLine
 10
350.014430562338
 20
13508.0845336914
 30
0.0
 11
350.555502212188
 21
13500.0
 31
0.0
  0
LINE
  5
272
330
1F
100
AcDbEntity
  8
1
  6
Continuous
 62
     4
100
AcDbLine
 10
469.480734160468
 20
13500.0
 30
0.0
 11
350.555502212188
 21
13500.0
 31
0.0
  0
LINE
  5
273
330
1F
100
AcDbEntity
  8
1
  6
Continuous
 62
     4
100
AcDbLine
 10
350.014430562338
 20
13508.0845336914
 30
0.0
 11
470.014430562338
 21
13508.0845336914
 31
0.0
  0
LINE
  5
274
330
1F
100
AcDbEntity
  8
1
  6
Continuous
 62
     7
100
AcDbLine
 10
612.547938863118
 20
14086.3368835449
 30
0.0
 11
1080.01443056234
 21
14086.3368835449
 31
0.0
  0
LINE
  5
275
330
1F
100
AcDbEntity
  8
0
  6
Continuous
 62
     7
100
AcDbLine
 10
1200.01443056234
 20
13914.3947209864
 30
0.0
 11
552.547933088698
 21
13914.3947209864
 31
0.0
  0
LINE
  5
276
330
1F
100
AcDbEntity
  8
0
  6
Continuous
 62
     7
100
AcDbLine
 10
628.547877827958
 20
14086.3368835449
 30
0.0
 11
1200.01443056234
 21
14086.3368835449
 31
0.0
  0
LINE
  5
277
330
1F
100
AcDbEntity
  8
0
  6
Continuous
 62
     7
100
AcDbLine
 10
1200.01443056234
 20
13812.9243224958
 30
0.0
 11
470.014430562338
 21
13812.9234263051
 31
0.0
  0
LINE
  5
278
330
1F
100
AcDbEntity
  8
1
  6
Continuous
 62
     7
100
AcDbLine
 10
350.014430562338
 20
14131.4147033691
 30
0.0
 11
1200.01443056234
 21
14131.4147033691
 31
0.0
  0
LINE
  5
279
330
1F
100
AcDbEntity
  8
1
  6
Continuous
 62
     7
100
AcDbLine
 10
350.014430562338
 20
14011.4147033691
 30
0.0
 11
350.014430562338
 21
14131.4147033691
 31
0.0
  0
LINE
  5
27A
330
1F
100
AcDbEntity
  8
1
  6
Continuous
 62
     7
100
AcDbLine
 10
350.014430562338
 20
13508.1546585959
 30
0.0
 11
470.014430562338
 21
13508.1546585959
 31
0.0
  0
LINE
  5
27B
330
1F
100
AcDbEntity
  8
1
  6
Continuous
 62
     7
100
AcDbLine
 10
350.014430562338
 20
13508.1546585959
 30
0.0
 11
350.014430562338
 21
13914.3947209864
 31
0.0
  0
LINE
  5
27C
330
1F
100
AcDbEntity
  8
1
  6
Continuous
 62
     7
100
AcDbLine
 10
612.547938863118
 20
14086.3368835449
 30
0.0
 11
612.547938863118
 21
13914.3947209864
 31
0.0
  0
LINE
  5
27D
330
1F
100
AcDbEntity
  8
1
  6
Continuous
 62
     7
100
AcDbLine
 10
471.081325093588
 20
13672.6409912145
 30
0.0
 11
1200.01443056234
 21
13672.6409912145
 31
0.0
  0
LINE
  5
27E
330
1F
100
AcDbEntity
  8
1
  6
Continuous
 62
     7
100
AcDbLine
 10
1200.01443056234
 20
14131.4147033691
 30
0.0
 11
1200.01443056234
 21
13672.6409912145
 31
0.0
  0
LINE
  5
27F
330
1F
100
AcDbEntity
  8
1
  6
Continuous
 62
     7
100
AcDbLine
 10
1200.01443056234
 20
13672.6409912145
 30
0.0
 11
1928.94753603109
 21
13672.6409912145
 31
0.0
  0
LINE
  5
280
330
1F
100
AcDbEntity
  8
1
  6
Continuous
 62
     7
100
AcDbLine
 10
2050.01443056234
 20
13914.3947209864
 30
0.0
 11
1858.88663097147
 21
13914.3947209864
 31
0.0
  0
LINE
  5
281
330
1F
100
AcDbEntity
  8
1
  6
Continuous
 62
     7
100
AcDbLine
 10
2050.01443056234
 20
13914.3947209864
 30
0.0
 11
2050.01443056234
 21
13508.0845336914
 31
0.0
  0
LINE
  5
282
330
1F
100
AcDbEntity
  8
1
  6
Continuous
 62
     7
100
AcDbLine
 10
1928.94753603109
 20
13508.1546585959
 30
0.0
 11
2050.01443056234
 21
13508.1546585959
 31
0.0
  0
LINE
  5
283
330
1F
100
AcDbEntity
  8
1
  6
Continuous
 62
     7
100
AcDbLine
 10
2050.01443056234
 20
14131.4147033691
 30
0.0
 11
2050.01443056234
 21
14011.4147033691
 31
0.0
  0
LINE
  5
284
330
1F
100
AcDbEntity
  8
1
  6
Continuous
 62
     7
100
AcDbLine
 10
1200.01443056234
 20
14131.4147033691
 30
0.0
 11
2050.01443056234
 21
14131.4147033691
 31
0.0
  0
LINE
  5
285
330
1F
100
AcDbEntity
  8
0
  6
Continuous
 62
     7
100
AcDbLine
 10
1930.01443056234
 20
13812.9234263051
 30
0.0
 11
1200.01443056234
 21
13812.9243224958
 31
0.0
  0
LINE
  5
286
330
1F
100
AcDbEntity
  8
0
  6
Continuous
 62
     7
100
AcDbLine
 10
1200.01443056234
 20
14086.3368835449
 30
0.0
 11
1771.48098329672
 21
14086.3368835449
 31
0.0
  0
LINE
  5
287
330
1F
100
AcDbEntity
  8
0
  6
Continuous
 62
     7
100
AcDbLine
 10
1858.88663097147
 20
13914.3947209864
 30
0.0
 11
1200.01443056234
 21
13914.3947209864
 31
0.0
  0
LINE
  5
288
330
1F
100
AcDbEntity
  8
1
  6
Continuous
 62
     7
100
AcDbLine
 10
1320.01443056234
 20
14086.3368835449
 30
0.0
 11
1787.48092226156
 21
14086.3368835449
 31
0.0
  0
LINE
  5
289
330
1F
100
AcDbEntity
  8
1
  6
Continuous
 62
     4
100
AcDbLine
 10
1930.01443056234
 20
13508.0845336914
 30
0.0
 11
2050.01443056234
 21
13508.0845336914
 31
0.0
  0
LINE
  5
28A
330
1F
100
AcDbEntity
  8
1
  6
Continuous
 62
     4
100
AcDbLine
 10
2049.47335891249
 20
13500.0
 30
0.0
 11
1930.54812696422
 21
13500.0
 31
0.0
  0
LINE
  5
28B
330
1F
100
AcDbEntity
  8
1
  6
Continuous
 62
     4
100
AcDbLine
 10
2049.47335891249
 20
13500.0
 30
0.0
 11
2050.01443056234
 21
13508.0845336914
 31
0.0
  0
LINE
  5
28C
330
1F
100
AcDbEntity
  8
1
  6
Continuous
 62
     7
100
AcDbLine
 10
1930.01443056234
 20
13914.3947209864
 30
0.0
 11
1930.01443056234
 21
13508.0845336914
 31
0.0
  0
LINE
  5
28D
330
1F
100
AcDbEntity
  8
1
  6
Continuous
 62
     4
100
AcDbLine
 10
1930.54812696422
 20
13500.0
 30
0.0
 11
1930.00980130225
 21
13508.1546585959
 31
0.0
  0
LINE
  5
28E
330
1F
100
AcDbEntity
  8
1
  6
Continuous
 62
     7
100
AcDbLine
 10
614.014491597498
 20
12549.5685577392
 30
0.0
 11
1200.01443056234
 21
12549.5685577392
 31
0.0
  0
LINE
  5
28F
330
1F
100
AcDbEntity
  8
1
  6
Continuous
 62
     7
100
AcDbLine
 10
1975.38597230614
 20
14031.5975189209
 30
0.0
 11
1862.10938051776
 21
14031.5975189209
 31
0.0
  0
LINE
  5
290
330
1F
100
AcDbEntity
  8
1
  6
Continuous
 62
     7
100
AcDbLine
 10
1808.99497156473
 20
13914.3947209864
 30
0.0
 11
2028.50038125896
 21
13914.3947209864
 31
0.0
  0
LINE
  5
291
330
1F
100
AcDbEntity
  8
1
  6
Continuous
 62
     1
100
AcDbLine
 10
1787.48092226156
 20
14015.9598426944
 30
0.0
 11
2050.01443056234
 21
14015.9598426944
 31
0.0
  0
LINE
  5
292
330
1F
100
AcDbEntity
  8
1
  6
Continuous
 62
     7
100
AcDbLine
 10
1787.48092226156
 20
14086.3368835449
 30
0.0
 11
1787.48092226156
 21
13914.3947209864
 31
0.0
  0
LINE
  5
293
330
1F
100
AcDbEntity
  8
1
  6
Continuous
 62
     1
100
AcDbLine
 10
350.014430562338
 20
14015.9598426944
 30
0.0
 11
612.547938863118
 21
14015.9598426944
 31
0.0
  0
LINE
  5
294
330
1F
100
AcDbEntity
  8
1
  6
Continuous
 62
     7
100
AcDbLine
 10
371.528479865718
 20
13914.3947209864
 30
0.0
 11
591.033889559958
 21
13914.3947209864
 31
0.0
  0
LINE
  5
295
330
1F
100
AcDbEntity
  8
1
  6
Continuous
 62
     7
100
AcDbLine
 10
537.919480606918
 20
14031.5975189209
 30
0.0
 11
424.642888818538
 21
14031.5975189209
 31
0.0
  0
LINE
  5
296
330
1F
100
AcDbEntity
  8
1
  6
Continuous
 62
     7
100
AcDbLine
 10
350.014430562338
 20
13919.7283968281
 30
0.0
 11
350.014430562338
 21
14015.9598426944
 31
0.0
  0
LINE
  5
297
330
1F
100
AcDbEntity
  8
1
  6
Continuous
 62
     7
100
AcDbLine
 10
541.142230153208
 20
13914.3947209864
 30
0.0
 11
350.014430562338
 21
13914.3947209864
 31
0.0
  0
LINE
  5
298
330
1F
100
AcDbEntity
  8
1
  6
Continuous
 62
     7
100
AcDbLine
 10
1899.96224550375
 20
15000.0
 30
0.0
 11
1764.5829883016
 21
15000.0
 31
0.0
  0
LINE
  5
299
330
1F
100
AcDbEntity
  8
1
  6
Continuous
 62
     7
100
AcDbLine
 10
2175.01443056234
 20
15000.0
 30
0.0
 11
1309.80618181368
 21
15000.0
 31
0.0
  0
LINE
  5
29A
330
1F
100
AcDbEntity
  8
1
  6
Continuous
 62
     7
100
AcDbLine
 10
1200.01443056234
 20
15960.0
 30
0.0
 11
2175.01443056234
 21
15960.0
 31
0.0
  0
LINE
  5
29B
330
1F
100
AcDbEntity
  8
1
  6
Continuous
 62
     7
100
AcDbLine
 10
1200.01443056234
 20
15684.9478149414
 30
0.0
 11
2175.01443056234
 21
15684.9478149414
 31
0.0
  0
LINE
  5
29C
330
1F
100
AcDbEntity
  8
1
  6
Continuous
 62
     7
100
AcDbLine
 10
1911.01436952718
 20
15000.0
 30
0.0
 11
1911.01436952718
 21
15684.9478149414
 31
0.0
  0
LINE
  5
29D
330
1F
100
AcDbEntity
  8
1
  6
Continuous
 62
     7
100
AcDbLine
 10
1200.01443056234
 20
15549.5685577392
 30
0.0
 11
1911.01436952718
 21
15549.5685577392
 31
0.0
  0
LINE
  5
29E
330
1F
100
AcDbEntity
  8
1
  6
Continuous
 62
     7
100
AcDbLine
 10
2175.01443056234
 20
15000.0
 30
0.0
 11
2175.01443056234
 21
15960.0
 31
0.0
  0
LINE
  5
29F
330
1F
100
AcDbEntity
  8
1
  6
Continuous
 62
     7
100
AcDbLine
 10
1200.01443056234
 20
15000.0
 30
0.0
 11
2175.01443056234
 21
15000.0
 31
0.0
  0
LINE
  5
2A0
330
1F
100
AcDbEntity
  8
1
  6
Continuous
 62
     7
100
AcDbLine
 10
1200.01443056234
 20
15960.0
 30
0.0
 11
1200.01443056234
 21
15000.0
 31
0.0
  0
LINE
  5
2A1
330
1F
100
AcDbEntity
  8
1
  6
Continuous
 62
     7
100
AcDbLine
 10
225.014430562338
 20
15000.0
 30
0.0
 11
1200.01443056234
 21
15000.0
 31
0.0
  0
LINE
  5
2A2
330
1F
100
AcDbEntity
  8
1
  6
Continuous
 62
     7
100
AcDbLine
 10
225.014430562338
 20
15960.0
 30
0.0
 11
225.014430562338
 21
15000.0
 31
0.0
  0
LINE
  5
2A3
330
1F
100
AcDbEntity
  8
1
  6
Continuous
 62
     7
100
AcDbLine
 10
489.014491597498
 20
15684.9478149414
 30
0.0
 11
489.014491597498
 21
15000.0
 31
0.0
  0
LINE
  5
2A4
330
1F
100
AcDbEntity
  8
1
  6
Continuous
 62
     7
100
AcDbLine
 10
225.014430562338
 20
15684.9478149414
 30
0.0
 11
1200.01443056234
 21
15684.9478149414
 31
0.0
  0
LINE
  5
2A5
330
1F
100
AcDbEntity
  8
1
  6
Continuous
 62
     7
100
AcDbLine
 10
225.014430562338
 20
15960.0
 30
0.0
 11
1200.01443056234
 21
15960.0
 31
0.0
  0
LINE
  5
2A6
330
1F
100
AcDbEntity
  8
1
  6
Continuous
 62
     4
100
AcDbLine
 10
345.019059822438
 20
16508.1546585959
 30
0.0
 11
344.480734160468
 21
16500.0
 31
0.0
  0
LINE
  5
2A7
330
1F
100
AcDbEntity
  8
1
  6
Continuous
 62
     7
100
AcDbLine
 10
345.014430562338
 20
16508.1546585959
 30
0.0
 11
345.014430562338
 21
16914.3947209864
 31
0.0
  0
LINE
  5
2A8
330
1F
100
AcDbEntity
  8
1
  6
Continuous
 62
     4
100
AcDbLine
 10
225.014430562338
 20
16508.0845336914
 30
0.0
 11
225.555502212188
 21
16500.0
 31
0.0
  0
LINE
  5
2A9
330
1F
100
AcDbEntity
  8
1
  6
Continuous
 62
     4
100
AcDbLine
 10
344.480734160468
 20
16500.0
 30
0.0
 11
225.555502212188
 21
16500.0
 31
0.0
  0
LINE
  5
2AA
330
1F
100
AcDbEntity
  8
1
  6
Continuous
 62
     4
100
AcDbLine
 10
225.014430562338
 20
16508.0845336914
 30
0.0
 11
345.014430562338
 21
16508.0845336914
 31
0.0
  0
LINE
  5
2AB
330
1F
100
AcDbEntity
  8
1
  6
Continuous
 62
     7
100
AcDbLine
 10
487.547938863118
 20
17086.3368835449
 30
0.0
 11
1080.01443056234
 21
17086.3368835449
 31
0.0
  0
LINE
  5
2AC
330
1F
100
AcDbEntity
  8
0
  6
Continuous
 62
     7
100
AcDbLine
 10
1200.01443056234
 20
16914.3947209864
 30
0.0
 11
427.5479330886981
 21
16914.3947209864
 31
0.0
  0
LINE
  5
2AD
330
1F
100
AcDbEntity
  8
0
  6
Continuous
 62
     7
100
AcDbLine
 10
503.547877827958
 20
17086.3368835449
 30
0.0
 11
1200.01443056234
 21
17086.3368835449
 31
0.0
  0
LINE
  5
2AE
330
1F
100
AcDbEntity
  8
0
  6
Continuous
 62
     7
100
AcDbLine
 10
1200.01443056234
 20
16812.9243224958
 30
0.0
 11
345.014430562338
 21
16812.9234263051
 31
0.0
  0
LINE
  5
2AF
330
1F
100
AcDbEntity
  8
1
  6
Continuous
 62
     7
100
AcDbLine
 10
225.014430562338
 20
17131.4147033691
 30
0.0
 11
1200.01443056234
 21
17131.4147033691
 31
0.0
  0
LINE
  5
2B0
330
1F
100
AcDbEntity
  8
1
  6
Continuous
 62
     7
100
AcDbLine
 10
225.014430562338
 20
17011.4147033691
 30
0.0
 11
225.014430562338
 21
17131.4147033691
 31
0.0
  0
LINE
  5
2B1
330
1F
100
AcDbEntity
  8
1
  6
Continuous
 62
     7
100
AcDbLine
 10
225.014430562338
 20
16508.1546585959
 30
0.0
 11
345.014430562338
 21
16508.1546585959
 31
0.0
  0
LINE
  5
2B2
330
1F
100
AcDbEntity
  8
1
  6
Continuous
 62
     7
100
AcDbLine
 10
225.014430562338
 20
16508.1546585959
 30
0.0
 11
225.014430562338
 21
16914.3947209864
 31
0.0
  0
LINE
  5
2B3
330
1F
100
AcDbEntity
  8
1
  6
Continuous
 62
     7
100
AcDbLine
 10
487.547938863118
 20
17086.3368835449
 30
0.0
 11
487.547938863118
 21
16914.3947209864
 31
0.0
  0
LINE
  5
2B4
330
1F
100
AcDbEntity
  8
1
  6
Continuous
 62
     7
100
AcDbLine
 10
346.081325093588
 20
16672.6409912145
 30
0.0
 11
1200.01443056234
 21
16672.6409912145
 31
0.0
  0
LINE
  5
2B5
330
1F
100
AcDbEntity
  8
1
  6
Continuous
 62
     7
100
AcDbLine
 10
1200.01443056234
 20
17131.4147033691
 30
0.0
 11
1200.01443056234
 21
16672.6409912145
 31
0.0
  0
LINE
  5
2B6
330
1F
100
AcDbEntity
  8
1
  6
Continuous
 62
     7
100
AcDbLine
 10
1200.01443056234
 20
16672.6409912145
 30
0.0
 11
2053.94753603109
 21
16672.6409912145
 31
0.0
  0
LINE
  5
2B7
330
1F
100
AcDbEntity
  8
1
  6
Continuous
 62
     7
100
AcDbLine
 10
2175.01443056234
 20
16914.3947209864
 30
0.0
 11
1983.88663097147
 21
16914.3947209864
 31
0.0
  0
LINE
  5
2B8
330
1F
100
AcDbEntity
  8
1
  6
Continuous
 62
     7
100
AcDbLine
 10
2175.01443056234
 20
16914.3947209864
 30
0.0
 11
2175.01443056234
 21
16508.0845336914
 31
0.0
  0
LINE
  5
2B9
330
1F
100
AcDbEntity
  8
1
  6
Continuous
 62
     7
100
AcDbLine
 10
2053.94753603109
 20
16508.1546585959
 30
0.0
 11
2175.01443056234
 21
16508.1546585959
 31
0.0
  0
LINE
  5
2BA
330
1F
100
AcDbEntity
  8
1
  6
Continuous
 62
     7
100
AcDbLine
 10
2175.01443056234
 20
17131.4147033691
 30
0.0
 11
2175.01443056234
 21
17011.4147033691
 31
0.0
  0
LINE
  5
2BB
330
1F
100
AcDbEntity
  8
1
  6
Continuous
 62
     7
100
AcDbLine
 10
1200.01443056234
 20
17131.4147033691
 30
0.0
 11
2175.01443056234
 21
17131.4147033691
 31
0.0
  0
LINE
  5
2BC
330
1F
100
AcDbEntity
  8
0
  6
Continuous
 62
     7
100
AcDbLine
 10
2055.01443056234
 20
16812.9234263051
 30
0.0
 11
1200.01443056234
 21
16812.9243224958
 31
0.0
  0
LINE
  5
2BD
330
1F
100
AcDbEntity
  8
0
  6
Continuous
 62
     7
100
AcDbLine
 10
1200.01443056234
 20
17086.3368835449
 30
0.0
 11
1896.48098329672
 21
17086.3368835449
 31
0.0
  0
LINE
  5
2BE
330
1F
100
AcDbEntity
  8
0
  6
Continuous
 62
     7
100
AcDbLine
 10
1983.88663097147
 20
16914.3947209864
 30
0.0
 11
1200.01443056234
 21
16914.3947209864
 31
0.0
  0
LINE
  5
2BF
330
1F
100
AcDbEntity
  8
1
  6
Continuous
 62
     7
100
AcDbLine
 10
1320.01443056234
 20
17086.3368835449
 30
0.0
 11
1912.48092226156
 21
17086.3368835449
 31
0.0
  0
LINE
  5
2C0
330
1F
100
AcDbEntity
  8
1
  6
Continuous
 62
     4
100
AcDbLine
 10
2055.01443056234
 20
16508.0845336914
 30
0.0
 11
2175.01443056234
 21
16508.0845336914
 31
0.0
  0
LINE
  5
2C1
330
1F
100
AcDbEntity
  8
1
  6
Continuous
 62
     4
100
AcDbLine
 10
2174.47335891249
 20
16500.0
 30
0.0
 11
2055.54812696422
 21
16500.0
 31
0.0
  0
LINE
  5
2C2
330
1F
100
AcDbEntity
  8
1
  6
Continuous
 62
     4
100
AcDbLine
 10
2174.47335891249
 20
16500.0
 30
0.0
 11
2175.01443056234
 21
16508.0845336914
 31
0.0
  0
LINE
  5
2C3
330
1F
100
AcDbEntity
  8
1
  6
Continuous
 62
     7
100
AcDbLine
 10
2055.01443056234
 20
16914.3947209864
 30
0.0
 11
2055.01443056234
 21
16508.0845336914
 31
0.0
  0
LINE
  5
2C4
330
1F
100
AcDbEntity
  8
1
  6
Continuous
 62
     4
100
AcDbLine
 10
2055.54812696422
 20
16500.0
 30
0.0
 11
2055.00980130225
 21
16508.1546585959
 31
0.0
  0
LINE
  5
2C5
330
1F
100
AcDbEntity
  8
1
  6
Continuous
 62
     7
100
AcDbLine
 10
489.014491597498
 20
15549.5685577392
 30
0.0
 11
1200.01443056234
 21
15549.5685577392
 31
0.0
  0
LINE
  5
2C6
330
1F
100
AcDbEntity
  8
1
  6
Continuous
 62
     7
100
AcDbLine
 10
2175.01443056234
 20
17015.9598426944
 30
0.0
 11
2175.01443056234
 21
16919.7283968281
 31
0.0
  0
LINE
  5
2C7
330
1F
100
AcDbEntity
  8
1
  6
Continuous
 62
     7
100
AcDbLine
 10
2100.38597230614
 20
17031.5975189209
 30
0.0
 11
1987.10938051776
 21
17031.5975189209
 31
0.0
  0
LINE
  5
2C8
330
1F
100
AcDbEntity
  8
1
  6
Continuous
 62
     7
100
AcDbLine
 10
1933.99497156473
 20
16914.3947209864
 30
0.0
 11
2153.50038125896
 21
16914.3947209864
 31
0.0
  0
LINE
  5
2C9
330
1F
100
AcDbEntity
  8
1
  6
Continuous
 62
     1
100
AcDbLine
 10
1912.48092226156
 20
17015.9598426944
 30
0.0
 11
2175.01443056234
 21
17015.9598426944
 31
0.0
  0
LINE
  5
2CA
330
1F
100
AcDbEntity
  8
1
  6
Continuous
 62
     7
100
AcDbLine
 10
1912.48092226156
 20
17086.3368835449
 30
0.0
 11
1912.48092226156
 21
16914.3947209864
 31
0.0
  0
LINE
  5
2CB
330
1F
100
AcDbEntity
  8
1
  6
Continuous
 62
     1
100
AcDbLine
 10
225.014430562338
 20
17015.9598426944
 30
0.0
 11
487.547938863118
 21
17015.9598426944
 31
0.0
  0
LINE
  5
2CC
330
1F
100
AcDbEntity
  8
1
  6
Continuous
 62
     7
100
AcDbLine
 10
246.528479865718
 20
16914.3947209864
 30
0.0
 11
466.033889559958
 21
16914.3947209864
 31
0.0
  0
LINE
  5
2CD
330
1F
100
AcDbEntity
  8
1
  6
Continuous
 62
     7
100
AcDbLine
 10
412.919480606918
 20
17031.5975189209
 30
0.0
 11
299.642888818538
 21
17031.5975189209
 31
0.0
  0
LINE
  5
2CE
330
1F
100
AcDbEntity
  8
1
  6
Continuous
 62
     7
100
AcDbLine
 10
225.014430562338
 20
16919.7283968281
 30
0.0
 11
225.014430562338
 21
17015.9598426944
 31
0.0
  0
LINE
  5
2CF
330
1F
100
AcDbEntity
  8
1
  6
Continuous
 62
     7
100
AcDbLine
 10
416.142230153208
 20
16914.3947209864
 30
0.0
 11
225.014430562338
 21
16914.3947209864
 31
0.0
  0
LINE
  5
2D0
330
1F
100
AcDbEntity
  8
1
  6
Continuous
 62
     3
100
AcDbLine
 10
1200.01443056234
 20
17131.4147033691
 30
0.0
 11
1200.01443056234
 21
17326.9848969854
 31
0.0
  0
LINE
  5
2D1
330
1F
100
AcDbEntity
  8
1
  6
Continuous
 62
     3
100
AcDbLine
 10
2175.01443056234
 20
17131.4147033691
 30
0.0
 11
2175.01443056234
 21
17326.9848969854
 31
0.0
  0
LINE
  5
2D2
330
1F
100
AcDbEntity
  8
1
  6
Continuous
 62
     3
100
AcDbLine
 10
1200.01443056234
 20
17326.9848969854
 30
0.0
 11
2175.01443056234
 21
17326.9848969854
 31
0.0
  0
LINE
  5
2D3
330
1F
100
AcDbEntity
  8
1
  6
Continuous
 62
     7
100
AcDbLine
 10
2024.96224550375
 20
18000.0
 30
0.0
 11
1889.5829883016
 21
18000.0
 31
0.0
  0
LINE
  5
2D4
330
1F
100
AcDbEntity
  8
1
  6
Continuous
 62
     7
100
AcDbLine
 10
2300.01443056234
 20
18000.0
 30
0.0
 11
1434.80618181368
 21
18000.0
 31
0.0
  0
LINE
  5
2D5
330
1F
100
AcDbEntity
  8
1
  6
Continuous
 62
     7
100
AcDbLine
 10
1200.01443056234
 20
18960.0
 30
0.0
 11
2300.01443056234
 21
18960.0
 31
0.0
  0
LINE
  5
2D6
330
1F
100
AcDbEntity
  8
1
  6
Continuous
 62
     7
100
AcDbLine
 10
1200.01443056234
 20
18684.9478149414
 30
0.0
 11
2300.01443056234
 21
18684.9478149414
 31
0.0
  0
LINE
  5
2D7
330
1F
100
AcDbEntity
  8
1
  6
Continuous
 62
     7
100
AcDbLine
 10
2036.01436952718
 20
18000.0
 30
0.0
 11
2036.01436952718
 21
18684.9478149414
 31
0.0
  0
LINE
  5
2D8
330
1F
100
AcDbEntity
  8
1
  6
Continuous
 62
     7
100
AcDbLine
 10
1200.01443056234
 20
18549.5685577392
 30
0.0
 11
2036.01436952718
 21
18549.5685577392
 31
0.0
  0
LINE
  5
2D9
330
1F
100
AcDbEntity
  8
1
  6
Continuous
 62
     7
100
AcDbLine
 10
2300.01443056234
 20
18000.0
 30
0.0
 11
2300.01443056234
 21
18960.0
 31
0.0
  0
LINE
  5
2DA
330
1F
100
AcDbEntity
  8
1
  6
Continuous
 62
     7
100
AcDbLine
 10
1200.01443056234
 20
18000.0
 30
0.0
 11
2300.01443056234
 21
18000.0
 31
0.0
  0
LINE
  5
2DB
330
1F
100
AcDbEntity
  8
1
  6
Continuous
 62
     7
100
AcDbLine
 10
1200.01443056234
 20
18960.0
 30
0.0
 11
1200.01443056234
 21
18000.0
 31
0.0
  0
LINE
  5
2DC
330
1F
100
AcDbEntity
  8
1
  6
Continuous
 62
     7
100
AcDbLine
 10
100.014430562338
 20
18000.0
 30
0.0
 11
1200.01443056234
 21
18000.0
 31
0.0
  0
LINE
  5
2DD
330
1F
100
AcDbEntity
  8
1
  6
Continuous
 62
     7
100
AcDbLine
 10
100.014430562338
 20
18960.0
 30
0.0
 11
100.014430562338
 21
18000.0
 31
0.0
  0
LINE
  5
2DE
330
1F
100
AcDbEntity
  8
1
  6
Continuous
 62
     7
100
AcDbLine
 10
364.014491597498
 20
18684.9478149414
 30
0.0
 11
364.014491597498
 21
18000.0
 31
0.0
  0
LINE
  5
2DF
330
1F
100
AcDbEntity
  8
1
  6
Continuous
 62
     7
100
AcDbLine
 10
100.014430562338
 20
18684.9478149414
 30
0.0
 11
1200.01443056234
 21
18684.9478149414
 31
0.0
  0
LINE
  5
2E0
330
1F
100
AcDbEntity
  8
1
  6
Continuous
 62
     7
100
AcDbLine
 10
100.014430562338
 20
18960.0
 30
0.0
 11
1200.01443056234
 21
18960.0
 31
0.0
  0
LINE
  5
2E1
330
1F
100
AcDbEntity
  8
1
  6
Continuous
 62
     4
100
AcDbLine
 10
220.019059822438
 20
19508.1546585959
 30
0.0
 11
219.480734160468
 21
19500.0
 31
0.0
  0
LINE
  5
2E2
330
1F
100
AcDbEntity
  8
1
  6
Continuous
 62
     7
100
AcDbLine
 10
220.014430562338
 20
19508.1546585959
 30
0.0
 11
220.014430562338
 21
19914.3947209864
 31
0.0
  0
LINE
  5
2E3
330
1F
100
AcDbEntity
  8
1
  6
Continuous
 62
     4
100
AcDbLine
 10
100.014430562338
 20
19508.0845336914
 30
0.0
 11
100.555502212188
 21
19500.0
 31
0.0
  0
LINE
  5
2E4
330
1F
100
AcDbEntity
  8
1
  6
Continuous
 62
     4
100
AcDbLine
 10
219.480734160468
 20
19500.0
 30
0.0
 11
100.555502212188
 21
19500.0
 31
0.0
  0
LINE
  5
2E5
330
1F
100
AcDbEntity
  8
1
  6
Continuous
 62
     4
100
AcDbLine
 10
100.014430562338
 20
19508.0845336914
 30
0.0
 11
220.014430562338
 21
19508.0845336914
 31
0.0
  0
LINE
  5
2E6
330
1F
100
AcDbEntity
  8
1
  6
Continuous
 62
     7
100
AcDbLine
 10
362.547938863118
 20
20086.3368835449
 30
0.0
 11
1080.01443056234
 21
20086.3368835449
 31
0.0
  0
LINE
  5
2E7
330
1F
100
AcDbEntity
  8
0
  6
Continuous
 62
     7
100
AcDbLine
 10
1200.01443056234
 20
19914.3947209864
 30
0.0
 11
302.5479330886981
 21
19914.3947209864
 31
0.0
  0
LINE
  5
2E8
330
1F
100
AcDbEntity
  8
0
  6
Continuous
 62
     7
100
AcDbLine
 10
378.547877827958
 20
20086.3368835449
 30
0.0
 11
1200.01443056234
 21
20086.3368835449
 31
0.0
  0
LINE
  5
2E9
330
1F
100
AcDbEntity
  8
0
  6
Continuous
 62
     7
100
AcDbLine
 10
1200.01443056234
 20
19812.9243224958
 30
0.0
 11
220.014430562338
 21
19812.9234263051
 31
0.0
  0
LINE
  5
2EA
330
1F
100
AcDbEntity
  8
1
  6
Continuous
 62
     7
100
AcDbLine
 10
100.014430562338
 20
20131.4147033691
 30
0.0
 11
1200.01443056234
 21
20131.4147033691
 31
0.0
  0
LINE
  5
2EB
330
1F
100
AcDbEntity
  8
1
  6
Continuous
 62
     7
100
AcDbLine
 10
100.014430562338
 20
20011.4147033691
 30
0.0
 11
100.014430562338
 21
20131.4147033691
 31
0.0
  0
LINE
  5
2EC
330
1F
100
AcDbEntity
  8
1
  6
Continuous
 62
     7
100
AcDbLine
 10
100.014430562338
 20
19508.1546585959
 30
0.0
 11
220.014430562338
 21
19508.1546585959
 31
0.0
  0
LINE
  5
2ED
330
1F
100
AcDbEntity
  8
1
  6
Continuous
 62
     7
100
AcDbLine
 10
100.014430562338
 20
19508.1546585959
 30
0.0
 11
100.014430562338
 21
19914.3947209864
 31
0.0
  0
LINE
  5
2EE
330
1F
100
AcDbEntity
  8
1
  6
Continuous
 62
     7
100
AcDbLine
 10
362.547938863118
 20
20086.3368835449
 30
0.0
 11
362.547938863118
 21
19914.3947209864
 31
0.0
  0
LINE
  5
2EF
330
1F
100
AcDbEntity
  8
1
  6
Continuous
 62
     7
100
AcDbLine
 10
221.081325093588
 20
19672.6409912145
 30
0.0
 11
1200.01443056234
 21
19672.6409912145
 31
0.0
  0
LINE
  5
2F0
330
1F
100
AcDbEntity
  8
1
  6
Continuous
 62
     7
100
AcDbLine
 10
1200.01443056234
 20
20131.4147033691
 30
0.0
 11
1200.01443056234
 21
19672.6409912145
 31
0.0
  0
LINE
  5
2F1
330
1F
100
AcDbEntity
  8
1
  6
Continuous
 62
     7
100
AcDbLine
 10
1200.01443056234
 20
19672.6409912145
 30
0.0
 11
2178.94753603109
 21
19672.6409912145
 31
0.0
  0
LINE
  5
2F2
330
1F
100
AcDbEntity
  8
1
  6
Continuous
 62
     7
100
AcDbLine
 10
2300.01443056234
 20
19914.3947209864
 30
0.0
 11
2108.88663097147
 21
19914.3947209864
 31
0.0
  0
LINE
  5
2F3
330
1F
100
AcDbEntity
  8
1
  6
Continuous
 62
     7
100
AcDbLine
 10
2300.01443056234
 20
19914.3947209864
 30
0.0
 11
2300.01443056234
 21
19508.0845336914
 31
0.0
  0
LINE
  5
2F4
330
1F
100
AcDbEntity
  8
1
  6
Continuous
 62
     7
100
AcDbLine
 10
2178.94753603109
 20
19508.1546585959
 30
0.0
 11
2300.01443056234
 21
19508.1546585959
 31
0.0
  0
LINE
  5
2F5
330
1F
100
AcDbEntity
  8
1
  6
Continuous
 62
     7
100
AcDbLine
 10
2300.01443056234
 20
20131.4147033691
 30
0.0
 11
2300.01443056234
 21
20011.4147033691
 31
0.0
  0
LINE
  5
2F6
330
1F
100
AcDbEntity
  8
1
  6
Continuous
 62
     7
100
AcDbLine
 10
1200.01443056234
 20
20131.4147033691
 30
0.0
 11
2300.01443056234
 21
20131.4147033691
 31
0.0
  0
LINE
  5
2F7
330
1F
100
AcDbEntity
  8
0
  6
Continuous
 62
     7
100
AcDbLine
 10
2180.01443056234
 20
19812.9234263051
 30
0.0
 11
1200.01443056234
 21
19812.9243224958
 31
0.0
  0
LINE
  5
2F8
330
1F
100
AcDbEntity
  8
0
  6
Continuous
 62
     7
100
AcDbLine
 10
1200.01443056234
 20
20086.3368835449
 30
0.0
 11
2021.48098329672
 21
20086.3368835449
 31
0.0
  0
LINE
  5
2F9
330
1F
100
AcDbEntity
  8
0
  6
Continuous
 62
     7
100
AcDbLine
 10
2108.88663097147
 20
19914.3947209864
 30
0.0
 11
1200.01443056234
 21
19914.3947209864
 31
0.0
  0
LINE
  5
2FA
330
1F
100
AcDbEntity
  8
1
  6
Continuous
 62
     7
100
AcDbLine
 10
1320.01443056234
 20
20086.3368835449
 30
0.0
 11
2037.48092226156
 21
20086.3368835449
 31
0.0
  0
LINE
  5
2FB
330
1F
100
AcDbEntity
  8
1
  6
Continuous
 62
     4
100
AcDbLine
 10
2180.01443056234
 20
19508.0845336914
 30
0.0
 11
2300.01443056234
 21
19508.0845336914
 31
0.0
  0
LINE
  5
2FC
330
1F
100
AcDbEntity
  8
1
  6
Continuous
 62
     4
100
AcDbLine
 10
2299.47335891249
 20
19500.0
 30
0.0
 11
2180.54812696422
 21
19500.0
 31
0.0
  0
LINE
  5
2FD
330
1F
100
AcDbEntity
  8
1
  6
Continuous
 62
     4
100
AcDbLine
 10
2299.47335891249
 20
19500.0
 30
0.0
 11
2300.01443056234
 21
19508.0845336914
 31
0.0
  0
LINE
  5
2FE
330
1F
100
AcDbEntity
  8
1
  6
Continuous
 62
     7
100
AcDbLine
 10
2180.01443056234
 20
19914.3947209864
 30
0.0
 11
2180.01443056234
 21
19508.0845336914
 31
0.0
  0
LINE
  5
2FF
330
1F
100
AcDbEntity
  8
1
  6
Continuous
 62
     4
100
AcDbLine
 10
2180.54812696422
 20
19500.0
 30
0.0
 11
2180.00980130225
 21
19508.1546585959
 31
0.0
  0
LINE
  5
300
330
1F
100
AcDbEntity
  8
1
  6
Continuous
 62
     7
100
AcDbLine
 10
364.014491597498
 20
18549.5685577392
 30
0.0
 11
1200.01443056234
 21
18549.5685577392
 31
0.0
  0
LINE
  5
301
330
1F
100
AcDbEntity
  8
1
  6
Continuous
 62
     7
100
AcDbLine
 10
2300.01443056234
 20
20015.9598426944
 30
0.0
 11
2300.01443056234
 21
19919.7283968281
 31
0.0
  0
LINE
  5
302
330
1F
100
AcDbEntity
  8
1
  6
Continuous
 62
     7
100
AcDbLine
 10
2225.38597230614
 20
20031.5975189209
 30
0.0
 11
2112.10938051776
 21
20031.5975189209
 31
0.0
  0
LINE
  5
303
330
1F
100
AcDbEntity
  8
1
  6
Continuous
 62
     7
100
AcDbLine
 10
2058.99497156473
 20
19914.3947209864
 30
0.0
 11
2278.50038125896
 21
19914.3947209864
 31
0.0
  0
LINE
  5
304
330
1F
100
AcDbEntity
  8
1
  6
Continuous
 62
     1
100
AcDbLine
 10
2037.48092226156
 20
20015.9598426944
 30
0.0
 11
2300.01443056234
 21
20015.9598426944
 31
0.0
  0
LINE
  5
305
330
1F
100
AcDbEntity
  8
1
  6
Continuous
 62
     7
100
AcDbLine
 10
2037.48092226156
 20
20086.3368835449
 30
0.0
 11
2037.48092226156
 21
19914.3947209864
 31
0.0
  0
LINE
  5
306
330
1F
100
AcDbEntity
  8
1
  6
Continuous
 62
     1
100
AcDbLine
 10
100.014430562338
 20
20015.9598426944
 30
0.0
 11
362.547938863118
 21
20015.9598426944
 31
0.0
  0
LINE
  5
307
330
1F
100
AcDbEntity
  8
1
  6
Continuous
 62
     7
100
AcDbLine
 10
121.528479865718
 20
19914.3947209864
 30
0.0
 11
341.033889559958
 21
19914.3947209864
 31
0.0
  0
LINE
  5
308
330
1F
100
AcDbEntity
  8
1
  6
Continuous
 62
     7
100
AcDbLine
 10
287.919480606918
 20
20031.5975189209
 30
0.0
 11
174.642888818538
 21
20031.5975189209
 31
0.0
  0
LINE
  5
309
330
1F
100
AcDbEntity
  8
1
  6
Continuous
 62
     7
100
AcDbLine
 10
100.014430562338
 20
19919.7283968281
 30
0.0
 11
100.014430562338
 21
20015.9598426944
 31
0.0
  0
LINE
  5
30A
330
1F
100
AcDbEntity
  8
1
  6
Continuous
 62
     7
100
AcDbLine
 10
291.142230153208
 20
19914.3947209864
 30
0.0
 11
100.014430562338
 21
19914.3947209864
 31
0.0
  0
LINE
  5
30B
330
1F
100
AcDbEntity
  8
1
  6
Continuous
 62
     3
100
AcDbLine
 10
1200.01443056234
 20
20131.4147033691
 30
0.0
 11
1200.01443056234
 21
20326.9848969854
 31
0.0
  0
LINE
  5
30C
330
1F
100
AcDbEntity
  8
1
  6
Continuous
 62
     3
100
AcDbLine
 10
2300.01443056234
 20
20131.4147033691
 30
0.0
 11
2300.01443056234
 21
20326.9848969854
 31
0.0
  0
LINE
  5
30D
330
1F
100
AcDbEntity
  8
1
  6
Continuous
 62
     3
100
AcDbLine
 10
1200.01443056234
 20
20326.9848969854
 30
0.0
 11
2300.01443056234
 21
20326.9848969854
 31
0.0
  0
LINE
  5
30E
330
1F
100
AcDbEntity
  8
1
  6
Continuous
 62
     3
100
AcDbLine
 10
1200.01443056234
 20
23326.9848969854
 30
0.0
 11
2400.01443056234
 21
23326.9848969854
 31
0.0
  0
LINE
  5
30F
330
1F
100
AcDbEntity
  8
1
  6
Continuous
 62
     3
100
AcDbLine
 10
2400.01443056234
 20
23131.4147033691
 30
0.0
 11
2400.01443056234
 21
23326.9848969854
 31
0.0
  0
LINE
  5
310
330
1F
100
AcDbEntity
  8
1
  6
Continuous
 62
     3
100
AcDbLine
 10
1200.01443056234
 20
23131.4147033691
 30
0.0
 11
1200.01443056234
 21
23326.9848969854
 31
0.0
  0
LINE
  5
311
330
1F
100
AcDbEntity
  8
1
  6
Continuous
 62
     7
100
AcDbLine
 10
191.142230153208
 20
22914.3947209864
 30
0.0
 11
0.01443056233802
 21
22914.3947209864
 31
0.0
  0
LINE
  5
312
330
1F
100
AcDbEntity
  8
1
  6
Continuous
 62
     7
100
AcDbLine
 10
0.01443056233802
 20
22919.7283968281
 30
0.0
 11
0.01443056233802
 21
23015.9598426944
 31
0.0
  0
LINE
  5
313
330
1F
100
AcDbEntity
  8
1
  6
Continuous
 62
     7
100
AcDbLine
 10
187.919480606918
 20
23031.5975189209
 30
0.0
 11
74.6428888185378
 21
23031.5975189209
 31
0.0
  0
LINE
  5
314
330
1F
100
AcDbEntity
  8
1
  6
Continuous
 62
     7
100
AcDbLine
 10
21.5284798657181
 20
22914.3947209864
 30
0.0
 11
241.033889559958
 21
22914.3947209864
 31
0.0
  0
LINE
  5
315
330
1F
100
AcDbEntity
  8
1
  6
Continuous
 62
     1
100
AcDbLine
 10
0.01443056233802
 20
23015.9598426944
 30
0.0
 11
262.547938863118
 21
23015.9598426944
 31
0.0
  0
LINE
  5
316
330
1F
100
AcDbEntity
  8
1
  6
Continuous
 62
     7
100
AcDbLine
 10
2137.48092226156
 20
23086.3368835449
 30
0.0
 11
2137.48092226156
 21
22914.3947209864
 31
0.0
  0
LINE
  5
317
330
1F
100
AcDbEntity
  8
1
  6
Continuous
 62
     1
100
AcDbLine
 10
2137.48092226156
 20
23015.9598426944
 30
0.0
 11
2400.01443056234
 21
23015.9598426944
 31
0.0
  0
LINE
  5
318
330
1F
100
AcDbEntity
  8
1
  6
Continuous
 62
     7
100
AcDbLine
 10
2158.99497156473
 20
22914.3947209864
 30
0.0
 11
2378.50038125896
 21
22914.3947209864
 31
0.0
  0
LINE
  5
319
330
1F
100
AcDbEntity
  8
1
  6
Continuous
 62
     7
100
AcDbLine
 10
2325.38597230614
 20
23031.5975189209
 30
0.0
 11
2212.10938051776
 21
23031.5975189209
 31
0.0
  0
LINE
  5
31A
330
1F
100
AcDbEntity
  8
1
  6
Continuous
 62
     7
100
AcDbLine
 10
2400.01443056234
 20
23015.9598426944
 30
0.0
 11
2400.01443056234
 21
22919.7283968281
 31
0.0
  0
LINE
  5
31B
330
1F
100
AcDbEntity
  8
1
  6
Continuous
 62
     7
100
AcDbLine
 10
3273.9536417986
 20
23116.9058404548
 30
0.0
 11
3273.9536417986
 21
23019.5398694386
 31
0.0
  0
LINE
  5
31C
330
1F
100
AcDbEntity
  8
1
  6
Continuous
 62
     7
100
AcDbLine
 10
3265.10278014403
 20
23012.701675415
 30
0.0
 11
3273.9536417986
 21
23019.5398694386
 31
0.0
  0
LINE
  5
31D
330
1F
100
AcDbEntity
  8
1
  6
Continuous
 62
     7
100
AcDbLine
 10
3265.10278014403
 20
23012.701675415
 30
0.0
 11
3265.10278014403
 21
22919.7283968271
 31
0.0
  0
LINE
  5
31E
330
1F
100
AcDbEntity
  8
1
  6
Continuous
 62
     7
100
AcDbLine
 10
3960.01443056233
 20
22919.7283968271
 30
0.0
 11
3960.01443056233
 21
23015.9598426944
 31
0.0
  0
LINE
  5
31F
330
1F
100
AcDbEntity
  8
1
  6
Continuous
 62
     7
100
AcDbLine
 10
3885.38597230613
 20
23031.5975189209
 30
0.0
 11
3339.73123840023
 21
23031.5975189209
 31
0.0
  0
LINE
  5
320
330
1F
100
AcDbEntity
  8
1
  6
Continuous
 62
     3
100
AcDbLine
 10
3062.99209256331
 20
23272.2980115276
 30
0.0
 11
3111.11409407686
 21
23132.5435166812
 31
0.0
  0
LINE
  5
321
330
1F
100
AcDbEntity
  8
1
  6
Continuous
 62
     3
100
AcDbLine
 10
3061.03079821338
 20
23294.376411376
 30
0.0
 11
3116.75510827584
 21
23132.5435166812
 31
0.0
  0
LINE
  5
322
330
1F
100
AcDbEntity
  8
1
  6
Continuous
 62
     3
100
AcDbLine
 10
3155.73139857741
 20
23326.9848969854
 30
0.0
 11
3223.23556395186
 21
23130.9412945746
 31
0.0
  0
LINE
  5
323
330
1F
100
AcDbEntity
  8
1
  6
Continuous
 62
     3
100
AcDbLine
 10
3235.40713164909
 20
23143.6243485277
 30
0.0
 11
3194.81404190107
 21
23261.5136002952
 31
0.0
  0
LINE
  5
324
330
1F
100
AcDbEntity
  8
1
  6
Continuous
 62
     3
100
AcDbLine
 10
3155.73139857741
 20
23326.9848969854
 30
0.0
 11
3061.03079821338
 21
23294.376411376
 31
0.0
  0
LINE
  5
325
330
1F
100
AcDbEntity
  8
1
  6
Continuous
 62
     1
100
AcDbLine
 10
3000.01443056234
 20
23016.7483792098
 30
0.0
 11
3270.34053960518
 21
23016.7483792098
 31
0.0
  0
LINE
  5
326
330
1F
100
AcDbEntity
  8
1
  6
Continuous
 62
     7
100
AcDbLine
 10
3199.3251835424
 20
23132.5435166812
 30
0.0
 11
3074.64288881854
 21
23132.5435166812
 31
0.0
  0
LINE
  5
327
330
1F
100
AcDbEntity
  8
1
  6
Continuous
 62
     7
100
AcDbLine
 10
3021.5284798655
 20
23011.4147033691
 30
0.0
 11
3252.43959249522
 21
23011.4147033691
 31
0.0
  0
LINE
  5
328
330
1F
100
AcDbEntity
  8
1
  6
Continuous
 62
     1
100
AcDbLine
 10
3000.01443056234
 20
23116.9058404548
 30
0.0
 11
3273.9536417986
 21
23116.9058404548
 31
0.0
  0
LINE
  5
329
330
1F
100
AcDbEntity
  8
1
  6
Continuous
 62
     7
100
AcDbLine
 10
3000.01443056234
 20
23116.9058404548
 30
0.0
 11
3000.01443056234
 21
23016.7483792098
 31
0.0
  0
LINE
  5
32A
330
1F
100
AcDbEntity
  8
1
  6
Continuous
 62
     7
100
AcDbLine
 10
3265.10278014403
 20
22914.3947209864
 30
0.0
 11
3265.10278014403
 21
23002.684223175
 31
0.0
  0
LINE
  5
32B
330
1F
100
AcDbEntity
  8
1
  6
Continuous
 62
     7
100
AcDbLine
 10
3000.01443056234
 20
23002.684223175
 30
0.0
 11
3265.10278014403
 21
23002.684223175
 31
0.0
  0
LINE
  5
32C
330
1F
100
AcDbEntity
  8
1
  6
Continuous
 62
     7
100
AcDbLine
 10
3265.10278014403
 20
22914.3947209864
 30
0.0
 11
3960.01443056233
 21
22914.3947209864
 31
0.0
  0
LINE
  5
32D
330
1F
100
AcDbEntity
  8
1
  6
Continuous
 62
     7
100
AcDbLine
 10
3960.01443056233
 20
22508.0845336914
 30
0.0
 11
3960.01443056233
 21
22914.3947209864
 31
0.0
  0
LINE
  5
32E
330
1F
100
AcDbEntity
  8
1
  6
Continuous
 62
     4
100
AcDbLine
 10
3000.01443056234
 20
22500.0
 30
0.0
 11
3960.01443056233
 21
22500.0
 31
0.0
  0
LINE
  5
32F
330
1F
100
AcDbEntity
  8
1
  6
Continuous
 62
     4
100
AcDbLine
 10
3000.01443056234
 20
22508.0845336914
 30
0.0
 11
3960.01443056233
 21
22508.0845336914
 31
0.0
  0
LINE
  5
330
330
1F
100
AcDbEntity
  8
1
  6
Continuous
 62
     7
100
AcDbLine
 10
3000.01443056234
 20
22508.0845336914
 30
0.0
 11
3960.01443056233
 21
22508.0845336914
 31
0.0
  0
LINE
  5
331
330
1F
100
AcDbEntity
  8
1
  6
Continuous
 62
     7
100
AcDbLine
 10
3000.01443056234
 20
23002.684223175
 30
0.0
 11
3000.01443056234
 21
22508.0845336914
 31
0.0
  0
LINE
  5
332
330
1F
100
AcDbEntity
  8
1
  6
Continuous
 62
     7
100
AcDbLine
 10
264.014491597498
 20
21549.5685577392
 30
0.0
 11
1200.01443056234
 21
21549.5685577392
 31
0.0
  0
LINE
  5
333
330
1F
100
AcDbEntity
  8
1
  6
Continuous
 62
     4
100
AcDbLine
 10
2280.54812696422
 20
22500.0
 30
0.0
 11
2280.00980130225
 21
22508.1546585959
 31
0.0
  0
LINE
  5
334
330
1F
100
AcDbEntity
  8
1
  6
Continuous
 62
     7
100
AcDbLine
 10
2280.01443056234
 20
22914.3947209864
 30
0.0
 11
2280.01443056234
 21
22508.1546585959
 31
0.0
  0
LINE
  5
335
330
1F
100
AcDbEntity
  8
1
  6
Continuous
 62
     4
100
AcDbLine
 10
2399.47335891249
 20
22500.0
 30
0.0
 11
2400.01443056234
 21
22508.0845336914
 31
0.0
  0
LINE
  5
336
330
1F
100
AcDbEntity
  8
1
  6
Continuous
 62
     4
100
AcDbLine
 10
2399.47335891249
 20
22500.0
 30
0.0
 11
2280.54812696422
 21
22500.0
 31
0.0
  0
LINE
  5
337
330
1F
100
AcDbEntity
  8
1
  6
Continuous
 62
     7
100
AcDbLine
 10
1320.01443056234
 20
23086.3368835449
 30
0.0
 11
2137.48092226156
 21
23086.3368835449
 31
0.0
  0
LINE
  5
338
330
1F
100
AcDbEntity
  8
0
  6
Continuous
 62
     7
100
AcDbLine
 10
2208.88663097147
 20
22914.3947209864
 30
0.0
 11
1200.01443056234
 21
22914.3947209864
 31
0.0
  0
LINE
  5
339
330
1F
100
AcDbEntity
  8
0
  6
Continuous
 62
     7
100
AcDbLine
 10
1200.01443056234
 20
23086.3368835449
 30
0.0
 11
2121.48098329672
 21
23086.3368835449
 31
0.0
  0
LINE
  5
33A
330
1F
100
AcDbEntity
  8
0
  6
Continuous
 62
     7
100
AcDbLine
 10
2280.01443056234
 20
22812.9234263051
 30
0.0
 11
1200.01443056234
 21
22812.9243224958
 31
0.0
  0
LINE
  5
33B
330
1F
100
AcDbEntity
  8
1
  6
Continuous
 62
     7
100
AcDbLine
 10
1200.01443056234
 20
23131.4147033691
 30
0.0
 11
2400.01443056234
 21
23131.4147033691
 31
0.0
  0
LINE
  5
33C
330
1F
100
AcDbEntity
  8
1
  6
Continuous
 62
     7
100
AcDbLine
 10
2400.01443056234
 20
23131.4147033691
 30
0.0
 11
2400.01443056234
 21
23011.4147033691
 31
0.0
  0
LINE
  5
33D
330
1F
100
AcDbEntity
  8
1
  6
Continuous
 62
     7
100
AcDbLine
 10
2400.01443056234
 20
22914.3947209864
 30
0.0
 11
2400.01443056234
 21
22508.1546585959
 31
0.0
  0
LINE
  5
33E
330
1F
100
AcDbEntity
  8
1
  6
Continuous
 62
     7
100
AcDbLine
 10
2400.01443056234
 20
22914.3947209864
 30
0.0
 11
2208.88663097147
 21
22914.3947209864
 31
0.0
  0
LINE
  5
33F
330
1F
100
AcDbEntity
  8
1
  6
Continuous
 62
     7
100
AcDbLine
 10
1200.01443056234
 20
22672.6409912145
 30
0.0
 11
2278.94753603109
 21
22672.6409912145
 31
0.0
  0
LINE
  5
340
330
1F
100
AcDbEntity
  8
1
  6
Continuous
 62
     7
100
AcDbLine
 10
1200.01443056234
 20
23131.4147033691
 30
0.0
 11
1200.01443056234
 21
22672.6409912145
 31
0.0
  0
LINE
  5
341
330
1F
100
AcDbEntity
  8
1
  6
Continuous
 62
     7
100
AcDbLine
 10
121.081325093588
 20
22672.6409912145
 30
0.0
 11
1200.01443056234
 21
22672.6409912145
 31
0.0
  0
LINE
  5
342
330
1F
100
AcDbEntity
  8
1
  6
Continuous
 62
     7
100
AcDbLine
 10
262.547938863118
 20
23086.3368835449
 30
0.0
 11
262.547938863118
 21
22914.3947209864
 31
0.0
  0
LINE
  5
343
330
1F
100
AcDbEntity
  8
1
  6
Continuous
 62
     7
100
AcDbLine
 10
0.01443056233802
 20
22508.0845336914
 30
0.0
 11
0.01443056233802
 21
22914.3947209864
 31
0.0
  0
LINE
  5
344
330
1F
100
AcDbEntity
  8
1
  6
Continuous
 62
     7
100
AcDbLine
 10
0.01443056233802
 20
22508.1546585959
 30
0.0
 11
121.081325093588
 21
22508.1546585959
 31
0.0
  0
LINE
  5
345
330
1F
100
AcDbEntity
  8
1
  6
Continuous
 62
     7
100
AcDbLine
 10
0.01443056233802
 20
23011.4147033691
 30
0.0
 11
0.01443056233802
 21
23131.4147033691
 31
0.0
  0
LINE
  5
346
330
1F
100
AcDbEntity
  8
1
  6
Continuous
 62
     7
100
AcDbLine
 10
0.01443056233802
 20
23131.4147033691
 30
0.0
 11
1200.01443056234
 21
23131.4147033691
 31
0.0
  0
LINE
  5
347
330
1F
100
AcDbEntity
  8
0
  6
Continuous
 62
     7
100
AcDbLine
 10
1200.01443056234
 20
22812.9243224958
 30
0.0
 11
120.014430562338
 21
22812.9234263051
 31
0.0
  0
LINE
  5
348
330
1F
100
AcDbEntity
  8
0
  6
Continuous
 62
     7
100
AcDbLine
 10
278.547877827958
 20
23086.3368835449
 30
0.0
 11
1200.01443056234
 21
23086.3368835449
 31
0.0
  0
LINE
  5
349
330
1F
100
AcDbEntity
  8
0
  6
Continuous
 62
     7
100
AcDbLine
 10
1200.01443056234
 20
22914.3947209864
 30
0.0
 11
202.547933088698
 21
22914.3947209864
 31
0.0
  0
LINE
  5
34A
330
1F
100
AcDbEntity
  8
1
  6
Continuous
 62
     7
100
AcDbLine
 10
262.547938863118
 20
23086.3368835449
 30
0.0
 11
1080.01443056234
 21
23086.3368835449
 31
0.0
  0
LINE
  5
34B
330
1F
100
AcDbEntity
  8
1
  6
Continuous
 62
     4
100
AcDbLine
 10
0.01443056233802
 20
22508.0845336914
 30
0.0
 11
120.014430562338
 21
22508.0845336914
 31
0.0
  0
LINE
  5
34C
330
1F
100
AcDbEntity
  8
1
  6
Continuous
 62
     4
100
AcDbLine
 10
119.480734160468
 20
22500.0
 30
0.0
 11
0.555502212188
 21
22500.0
 31
0.0
  0
LINE
  5
34D
330
1F
100
AcDbEntity
  8
1
  6
Continuous
 62
     4
100
AcDbLine
 10
0.01443056233802
 20
22508.0845336914
 30
0.0
 11
0.555502212188
 21
22500.0
 31
0.0
  0
LINE
  5
34E
330
1F
100
AcDbEntity
  8
1
  6
Continuous
 62
     7
100
AcDbLine
 10
120.014430562338
 20
22508.0845336914
 30
0.0
 11
120.014430562338
 21
22914.3947209864
 31
0.0
  0
LINE
  5
34F
330
1F
100
AcDbEntity
  8
1
  6
Continuous
 62
     4
100
AcDbLine
 10
120.019059822438
 20
22508.1546585959
 30
0.0
 11
119.480734160468
 21
22500.0
 31
0.0
  0
LINE
  5
350
330
1F
100
AcDbEntity
  8
0
  6
Continuous
 62
     7
100
AcDbLine
 10
3328.64710223217
 20
23094.1254913203
 30
0.0
 11
3328.636887898
 21
23094.1117460832
 31
0.0
  0
LINE
  5
351
330
1F
100
AcDbEntity
  8
1
  6
Continuous
 62
     7
100
AcDbLine
 10
0.01443056233802
 20
21960.0
 30
0.0
 11
1200.01443056234
 21
21960.0
 31
0.0
  0
LINE
  5
352
330
1F
100
AcDbEntity
  8
1
  6
Continuous
 62
     7
100
AcDbLine
 10
0.01443056233802
 20
21684.9478149414
 30
0.0
 11
1200.01443056234
 21
21684.9478149414
 31
0.0
  0
LINE
  5
353
330
1F
100
AcDbEntity
  8
1
  6
Continuous
 62
     7
100
AcDbLine
 10
264.014491597498
 20
21684.9478149414
 30
0.0
 11
264.014491597498
 21
21000.0
 31
0.0
  0
LINE
  5
354
330
1F
100
AcDbEntity
  8
1
  6
Continuous
 62
     7
100
AcDbLine
 10
0.01443056233802
 20
21960.0
 30
0.0
 11
0.01443056233802
 21
21000.0
 31
0.0
  0
LINE
  5
355
330
1F
100
AcDbEntity
  8
1
  6
Continuous
 62
     7
100
AcDbLine
 10
0.01443056233802
 20
21000.0
 30
0.0
 11
1200.01443056234
 21
21000.0
 31
0.0
  0
LINE
  5
356
330
1F
100
AcDbEntity
  8
1
  6
Continuous
 62
     7
100
AcDbLine
 10
1200.01443056234
 20
21960.0
 30
0.0
 11
1200.01443056234
 21
21000.0
 31
0.0
  0
LINE
  5
357
330
1F
100
AcDbEntity
  8
1
  6
Continuous
 62
     7
100
AcDbLine
 10
1200.01443056234
 20
21000.0
 30
0.0
 11
2400.01443056234
 21
21000.0
 31
0.0
  0
LINE
  5
358
330
1F
100
AcDbEntity
  8
1
  6
Continuous
 62
     7
100
AcDbLine
 10
2400.01443056234
 20
21000.0
 30
0.0
 11
2400.01443056234
 21
21960.0
 31
0.0
  0
LINE
  5
359
330
1F
100
AcDbEntity
  8
1
  6
Continuous
 62
     7
100
AcDbLine
 10
1200.01443056234
 20
21549.5685577392
 30
0.0
 11
2136.01436952718
 21
21549.5685577392
 31
0.0
  0
LINE
  5
35A
330
1F
100
AcDbEntity
  8
1
  6
Continuous
 62
     7
100
AcDbLine
 10
2136.01436952718
 20
21000.0
 30
0.0
 11
2136.01436952718
 21
21684.9478149414
 31
0.0
  0
LINE
  5
35B
330
1F
100
AcDbEntity
  8
1
  6
Continuous
 62
     7
100
AcDbLine
 10
1200.01443056234
 20
21684.9478149414
 30
0.0
 11
2400.01443056234
 21
21684.9478149414
 31
0.0
  0
LINE
  5
35C
330
1F
100
AcDbEntity
  8
1
  6
Continuous
 62
     7
100
AcDbLine
 10
1200.01443056234
 20
21960.0
 30
0.0
 11
2400.01443056234
 21
21960.0
 31
0.0
  0
LINE
  5
35D
330
1F
100
AcDbEntity
  8
1
  6
Continuous
 62
     7
100
AcDbLine
 10
2400.01443056234
 20
21000.0
 30
0.0
 11
1434.80618181368
 21
21000.0
 31
0.0
  0
LINE
  5
35E
330
1F
100
AcDbEntity
  8
1
  6
Continuous
 62
     7
100
AcDbLine
 10
2124.96224550375
 20
21000.0
 30
0.0
 11
1989.5829883016
 21
21000.0
 31
0.0
  0
LINE
  5
35F
330
1F
100
AcDbEntity
  8
1
  6
Continuous
 62
     3
100
AcDbLine
 10
31079.4733589124
 20
20326.9848969854
 30
0.0
 11
32039.4733589124
 21
20326.9848969854
 31
0.0
  0
LINE
  5
360
330
1F
100
AcDbEntity
  8
1
  6
Continuous
 62
     3
100
AcDbLine
 10
32039.4733589124
 20
20131.4147033691
 30
0.0
 11
32039.4733589124
 21
20326.9848969854
 31
0.0
  0
LINE
  5
361
330
1F
100
AcDbEntity
  8
1
  6
Continuous
 62
     3
100
AcDbLine
 10
31079.4733589124
 20
20131.4147033691
 30
0.0
 11
31079.4733589124
 21
20326.9848969854
 31
0.0
  0
LINE
  5
362
330
1F
100
AcDbEntity
  8
1
  6
Continuous
 62
     7
100
AcDbLine
 10
30190.6011585033
 20
19914.3947209864
 30
0.0
 11
29999.4733589124
 21
19914.3947209864
 31
0.0
  0
LINE
  5
363
330
1F
100
AcDbEntity
  8
1
  6
Continuous
 62
     7
100
AcDbLine
 10
29999.4733589124
 20
19919.7283968281
 30
0.0
 11
29999.4733589124
 21
20015.9598426944
 31
0.0
  0
LINE
  5
364
330
1F
100
AcDbEntity
  8
1
  6
Continuous
 62
     7
100
AcDbLine
 10
30187.378408957
 20
20031.5975189209
 30
0.0
 11
30074.1018171686
 21
20031.5975189209
 31
0.0
  0
LINE
  5
365
330
1F
100
AcDbEntity
  8
1
  6
Continuous
 62
     7
100
AcDbLine
 10
30020.9874082158
 20
19914.3947209864
 30
0.0
 11
30240.4928179101
 21
19914.3947209864
 31
0.0
  0
LINE
  5
366
330
1F
100
AcDbEntity
  8
1
  6
Continuous
 62
     7
100
AcDbLine
 10
29999.4733589124
 20
20015.9598426944
 30
0.0
 11
30262.0068672132
 21
20015.9598426944
 31
0.0
  0
LINE
  5
367
330
1F
100
AcDbEntity
  8
1
  6
Continuous
 62
     7
100
AcDbLine
 10
32039.4733589124
 20
20086.3368835449
 30
0.0
 11
32039.4733589124
 21
19914.3947209864
 31
0.0
  0
LINE
  5
368
330
1F
100
AcDbEntity
  8
1
  6
Continuous
 62
     7
100
AcDbLine
 10
30263.4734199476
 20
18549.5685577392
 30
0.0
 11
31079.4733589124
 21
18549.5685577392
 31
0.0
  0
LINE
  5
369
330
1F
100
AcDbEntity
  8
1
  6
Continuous
 62
     7
100
AcDbLine
 10
31199.4733589124
 20
20086.3368835449
 30
0.0
 11
32039.4733589124
 21
20086.3368835449
 31
0.0
  0
LINE
  5
36A
330
1F
100
AcDbEntity
  8
0
  6
Continuous
 62
     7
100
AcDbLine
 10
32039.4733589124
 20
19914.3947209864
 30
0.0
 11
31079.4733589124
 21
19914.3947209864
 31
0.0
  0
LINE
  5
36B
330
1F
100
AcDbEntity
  8
0
  6
Continuous
 62
     7
100
AcDbLine
 10
31079.4733589124
 20
20086.3368835449
 30
0.0
 11
32660.8440238369
 21
20086.3368835449
 31
0.0
  0
LINE
  5
36C
330
1F
100
AcDbEntity
  8
0
  6
Continuous
 62
     7
100
AcDbLine
 10
32039.4733589124
 20
19812.9234263051
 30
0.0
 11
31079.4733589124
 21
19812.9243224958
 31
0.0
  0
LINE
  5
36D
330
1F
100
AcDbEntity
  8
1
  6
Continuous
 62
     7
100
AcDbLine
 10
31079.4733589124
 20
20131.4147033691
 30
0.0
 11
32944.8246690263
 21
20131.4147033691
 31
0.0
  0
LINE
  5
36E
330
1F
100
AcDbEntity
  8
1
  6
Continuous
 62
     7
100
AcDbLine
 10
31079.4733589124
 20
19672.6409912145
 30
0.0
 11
32038.4064643812
 21
19672.6409912145
 31
0.0
  0
LINE
  5
36F
330
1F
100
AcDbEntity
  8
1
  6
Continuous
 62
     7
100
AcDbLine
 10
31079.4733589124
 20
20131.4147033691
 30
0.0
 11
31079.4733589124
 21
19672.6409912145
 31
0.0
  0
LINE
  5
370
330
1F
100
AcDbEntity
  8
1
  6
Continuous
 62
     7
100
AcDbLine
 10
30120.5402534437
 20
19672.6409912145
 30
0.0
 11
31079.4733589124
 21
19672.6409912145
 31
0.0
  0
LINE
  5
371
330
1F
100
AcDbEntity
  8
1
  6
Continuous
 62
     7
100
AcDbLine
 10
30262.0068672132
 20
20086.3368835449
 30
0.0
 11
30262.0068672132
 21
19914.3947209864
 31
0.0
  0
LINE
  5
372
330
1F
100
AcDbEntity
  8
1
  6
Continuous
 62
     7
100
AcDbLine
 10
29999.4733589124
 20
19508.0845336914
 30
0.0
 11
29999.4733589124
 21
19914.3947209864
 31
0.0
  0
LINE
  5
373
330
1F
100
AcDbEntity
  8
1
  6
Continuous
 62
     7
100
AcDbLine
 10
29999.4733589124
 20
19508.1546585959
 30
0.0
 11
30120.5402534437
 21
19508.1546585959
 31
0.0
  0
LINE
  5
374
330
1F
100
AcDbEntity
  8
1
  6
Continuous
 62
     7
100
AcDbLine
 10
29999.4733589124
 20
20011.4147033691
 30
0.0
 11
29999.4733589124
 21
20131.4147033691
 31
0.0
  0
LINE
  5
375
330
1F
100
AcDbEntity
  8
1
  6
Continuous
 62
     7
100
AcDbLine
 10
29999.4733589124
 20
20131.4147033691
 30
0.0
 11
31079.4733589124
 21
20131.4147033691
 31
0.0
  0
LINE
  5
376
330
1F
100
AcDbEntity
  8
0
  6
Continuous
 62
     7
100
AcDbLine
 10
31079.4733589124
 20
19812.9243224958
 30
0.0
 11
30119.4733589124
 21
19812.9234263051
 31
0.0
  0
LINE
  5
377
330
1F
100
AcDbEntity
  8
0
  6
Continuous
 62
     7
100
AcDbLine
 10
30278.0068061781
 20
20086.3368835449
 30
0.0
 11
31079.4733589124
 21
20086.3368835449
 31
0.0
  0
LINE
  5
378
330
1F
100
AcDbEntity
  8
0
  6
Continuous
 62
     7
100
AcDbLine
 10
31079.4733589124
 20
19914.3947209864
 30
0.0
 11
30202.0068614388
 21
19914.3947209864
 31
0.0
  0
LINE
  5
379
330
1F
100
AcDbEntity
  8
1
  6
Continuous
 62
     7
100
AcDbLine
 10
30262.0068672132
 20
20086.3368835449
 30
0.0
 11
30959.4733589124
 21
20086.3368835449
 31
0.0
  0
LINE
  5
37A
330
1F
100
AcDbEntity
  8
1
  6
Continuous
 62
     4
100
AcDbLine
 10
29999.4733589124
 20
19508.0845336914
 30
0.0
 11
30119.4733589124
 21
19508.0845336914
 31
0.0
  0
LINE
  5
37B
330
1F
100
AcDbEntity
  8
1
  6
Continuous
 62
     4
100
AcDbLine
 10
30118.9396625106
 20
19500.0
 30
0.0
 11
30000.0144305623
 21
19500.0
 31
0.0
  0
LINE
  5
37C
330
1F
100
AcDbEntity
  8
1
  6
Continuous
 62
     4
100
AcDbLine
 10
29999.4733589124
 20
19508.0845336914
 30
0.0
 11
30000.0144305623
 21
19500.0
 31
0.0
  0
LINE
  5
37D
330
1F
100
AcDbEntity
  8
1
  6
Continuous
 62
     7
100
AcDbLine
 10
30119.4733589124
 20
19508.0845336914
 30
0.0
 11
30119.4733589124
 21
19914.3947209864
 31
0.0
  0
LINE
  5
37E
330
1F
100
AcDbEntity
  8
1
  6
Continuous
 62
     4
100
AcDbLine
 10
30119.4779881725
 20
19508.1546585959
 30
0.0
 11
30118.9396625106
 21
19500.0
 31
0.0
  0
LINE
  5
37F
330
1F
100
AcDbEntity
  8
1
  6
Continuous
 62
     7
100
AcDbLine
 10
29999.4733589124
 20
18960.0
 30
0.0
 11
32999.4733589124
 21
18960.0
 31
0.0
  0
LINE
  5
380
330
1F
100
AcDbEntity
  8
1
  6
Continuous
 62
     7
100
AcDbLine
 10
29999.4733589124
 20
18684.9478149414
 30
0.0
 11
31079.4733589124
 21
18684.9478149414
 31
0.0
  0
LINE
  5
381
330
1F
100
AcDbEntity
  8
1
  6
Continuous
 62
     7
100
AcDbLine
 10
30263.4734199476
 20
18684.9478149414
 30
0.0
 11
30263.4734199476
 21
18000.0
 31
0.0
  0
LINE
  5
382
330
1F
100
AcDbEntity
  8
1
  6
Continuous
 62
     7
100
AcDbLine
 10
29999.4733589124
 20
18960.0
 30
0.0
 11
29999.4733589124
 21
18000.0
 31
0.0
  0
LINE
  5
383
330
1F
100
AcDbEntity
  8
1
  6
Continuous
 62
     7
100
AcDbLine
 10
29999.4733589124
 20
18000.0
 30
0.0
 11
31079.4733589124
 21
18000.0
 31
0.0
  0
LINE
  5
384
330
1F
100
AcDbEntity
  8
1
  6
Continuous
 62
     7
100
AcDbLine
 10
31079.4733589124
 20
18960.0
 30
0.0
 11
31079.4733589124
 21
18000.0
 31
0.0
  0
LINE
  5
385
330
1F
100
AcDbEntity
  8
1
  6
Continuous
 62
     7
100
AcDbLine
 10
31079.4733589124
 20
18000.0
 30
0.0
 11
32039.4733589124
 21
18000.0
 31
0.0
  0
LINE
  5
386
330
1F
100
AcDbEntity
  8
1
  6
Continuous
 62
     7
100
AcDbLine
 10
31079.4733589124
 20
18549.5685577392
 30
0.0
 11
32039.4733589124
 21
18549.5685577392
 31
0.0
  0
LINE
  5
387
330
1F
100
AcDbEntity
  8
1
  6
Continuous
 62
     7
100
AcDbLine
 10
31079.4733589124
 20
18684.9478149414
 30
0.0
 11
32039.4733589124
 21
18684.9478149414
 31
0.0
  0
LINE
  5
388
330
1F
100
AcDbEntity
  8
1
  6
Continuous
 62
     7
100
AcDbLine
 10
32039.4733589124
 20
18000.0
 30
0.0
 11
31314.2651101638
 21
18000.0
 31
0.0
  0
LINE
  5
389
330
1F
100
AcDbEntity
  8
1
  6
Continuous
 62
     7
100
AcDbLine
 10
21799.4733589124
 20
15000.0
 30
0.0
 11
21194.2651101638
 21
15000.0
 31
0.0
  0
LINE
  5
38A
330
1F
100
AcDbEntity
  8
1
  6
Continuous
 62
     7
100
AcDbLine
 10
20959.4733589124
 20
15960.0
 30
0.0
 11
21799.4733589124
 21
15960.0
 31
0.0
  0
LINE
  5
38B
330
1F
100
AcDbEntity
  8
1
  6
Continuous
 62
     7
100
AcDbLine
 10
20959.4733589124
 20
15684.9478149414
 30
0.0
 11
21799.4733589124
 21
15684.9478149414
 31
0.0
  0
LINE
  5
38C
330
1F
100
AcDbEntity
  8
1
  6
Continuous
 62
     7
100
AcDbLine
 10
20959.4733589124
 20
15549.5685577392
 30
0.0
 11
21799.4733589124
 21
15549.5685577392
 31
0.0
  0
LINE
  5
38D
330
1F
100
AcDbEntity
  8
1
  6
Continuous
 62
     7
100
AcDbLine
 10
20959.4733589124
 20
15000.0
 30
0.0
 11
21799.4733589124
 21
15000.0
 31
0.0
  0
LINE
  5
38E
330
1F
100
AcDbEntity
  8
1
  6
Continuous
 62
     7
100
AcDbLine
 10
20959.4733589124
 20
15960.0
 30
0.0
 11
20959.4733589124
 21
15000.0
 31
0.0
  0
LINE
  5
38F
330
1F
100
AcDbEntity
  8
1
  6
Continuous
 62
     7
100
AcDbLine
 10
19999.4733589125
 20
15000.0
 30
0.0
 11
20959.4733589124
 21
15000.0
 31
0.0
  0
LINE
  5
390
330
1F
100
AcDbEntity
  8
1
  6
Continuous
 62
     7
100
AcDbLine
 10
19999.4733589125
 20
15960.0
 30
0.0
 11
19999.4733589125
 21
15000.0
 31
0.0
  0
LINE
  5
391
330
1F
100
AcDbEntity
  8
1
  6
Continuous
 62
     7
100
AcDbLine
 10
20263.4734199476
 20
15684.9478149414
 30
0.0
 11
20263.4734199476
 21
15000.0
 31
0.0
  0
LINE
  5
392
330
1F
100
AcDbEntity
  8
1
  6
Continuous
 62
     7
100
AcDbLine
 10
19999.4733589125
 20
15684.9478149414
 30
0.0
 11
20959.4733589124
 21
15684.9478149414
 31
0.0
  0
LINE
  5
393
330
1F
100
AcDbEntity
  8
1
  6
Continuous
 62
     7
100
AcDbLine
 10
19999.4733589125
 20
15960.0
 30
0.0
 11
20959.4733589124
 21
15960.0
 31
0.0
  0
LINE
  5
394
330
1F
100
AcDbEntity
  8
1
  6
Continuous
 62
     4
100
AcDbLine
 10
20120.0190598224
 20
16508.1546585959
 30
0.0
 11
20119.4807341604
 21
16500.0
 31
0.0
  0
LINE
  5
395
330
1F
100
AcDbEntity
  8
1
  6
Continuous
 62
     7
100
AcDbLine
 10
20120.0144305623
 20
16508.1546585959
 30
0.0
 11
20120.0144305623
 21
16914.3947209864
 31
0.0
  0
LINE
  5
396
330
1F
100
AcDbEntity
  8
1
  6
Continuous
 62
     4
100
AcDbLine
 10
20000.0144305623
 20
16508.0845336914
 30
0.0
 11
20000.5555022122
 21
16500.0
 31
0.0
  0
LINE
  5
397
330
1F
100
AcDbEntity
  8
1
  6
Continuous
 62
     4
100
AcDbLine
 10
20119.4807341604
 20
16500.0
 30
0.0
 11
20000.5555022122
 21
16500.0
 31
0.0
  0
LINE
  5
398
330
1F
100
AcDbEntity
  8
1
  6
Continuous
 62
     4
100
AcDbLine
 10
20000.0144305623
 20
16508.0845336914
 30
0.0
 11
20120.0144305623
 21
16508.0845336914
 31
0.0
  0
LINE
  5
399
330
1F
100
AcDbEntity
  8
1
  6
Continuous
 62
     7
100
AcDbLine
 10
20262.5479388631
 20
17086.3368835449
 30
0.0
 11
20840.0144305623
 21
17086.3368835449
 31
0.0
  0
LINE
  5
39A
330
1F
100
AcDbEntity
  8
0
  6
Continuous
 62
     7
100
AcDbLine
 10
20960.0144305623
 20
16914.3947209864
 30
0.0
 11
20202.5479330887
 21
16914.3947209864
 31
0.0
  0
LINE
  5
39B
330
1F
100
AcDbEntity
  8
0
  6
Continuous
 62
     7
100
AcDbLine
 10
20278.5478778279
 20
17086.3368835449
 30
0.0
 11
20960.0144305623
 21
17086.3368835449
 31
0.0
  0
LINE
  5
39C
330
1F
100
AcDbEntity
  8
0
  6
Continuous
 62
     7
100
AcDbLine
 10
20960.0144305623
 20
16812.9243224958
 30
0.0
 11
20120.0144305623
 21
16812.9234263051
 31
0.0
  0
LINE
  5
39D
330
1F
100
AcDbEntity
  8
1
  6
Continuous
 62
     7
100
AcDbLine
 10
20000.0144305623
 20
17131.4147033691
 30
0.0
 11
20960.0144305623
 21
17131.4147033691
 31
0.0
  0
LINE
  5
39E
330
1F
100
AcDbEntity
  8
1
  6
Continuous
 62
     7
100
AcDbLine
 10
20000.0144305623
 20
17011.4147033691
 30
0.0
 11
20000.0144305623
 21
17131.4147033691
 31
0.0
  0
LINE
  5
39F
330
1F
100
AcDbEntity
  8
1
  6
Continuous
 62
     7
100
AcDbLine
 10
20000.0144305623
 20
16508.1546585959
 30
0.0
 11
20120.0144305623
 21
16508.1546585959
 31
0.0
  0
LINE
  5
3A0
330
1F
100
AcDbEntity
  8
1
  6
Continuous
 62
     7
100
AcDbLine
 10
20000.0144305623
 20
16508.1546585959
 30
0.0
 11
20000.0144305623
 21
16914.3947209864
 31
0.0
  0
LINE
  5
3A1
330
1F
100
AcDbEntity
  8
1
  6
Continuous
 62
     7
100
AcDbLine
 10
20262.5479388631
 20
17086.3368835449
 30
0.0
 11
20262.5479388631
 21
16914.3947209864
 31
0.0
  0
LINE
  5
3A2
330
1F
100
AcDbEntity
  8
1
  6
Continuous
 62
     7
100
AcDbLine
 10
20121.0813250936
 20
16672.6409912145
 30
0.0
 11
20960.0144305623
 21
16672.6409912145
 31
0.0
  0
LINE
  5
3A3
330
1F
100
AcDbEntity
  8
1
  6
Continuous
 62
     7
100
AcDbLine
 10
20960.0144305623
 20
17131.4147033691
 30
0.0
 11
20960.0144305623
 21
16672.6409912145
 31
0.0
  0
LINE
  5
3A4
330
1F
100
AcDbEntity
  8
1
  6
Continuous
 62
     7
100
AcDbLine
 10
20960.0144305623
 20
16672.6409912145
 30
0.0
 11
21798.9475360311
 21
16672.6409912145
 31
0.0
  0
LINE
  5
3A5
330
1F
100
AcDbEntity
  8
1
  6
Continuous
 62
     7
100
AcDbLine
 10
20960.0144305623
 20
17131.4147033691
 30
0.0
 11
22705.3657406761
 21
17131.4147033691
 31
0.0
  0
LINE
  5
3A6
330
1F
100
AcDbEntity
  8
0
  6
Continuous
 62
     7
100
AcDbLine
 10
21800.0144305623
 20
16812.9234263051
 30
0.0
 11
20960.0144305623
 21
16812.9243224958
 31
0.0
  0
LINE
  5
3A7
330
1F
100
AcDbEntity
  8
0
  6
Continuous
 62
     7
100
AcDbLine
 10
20960.0144305623
 20
17086.3368835449
 30
0.0
 11
21784.0144915975
 21
17086.3368835449
 31
0.0
  0
LINE
  5
3A8
330
1F
100
AcDbEntity
  8
0
  6
Continuous
 62
     7
100
AcDbLine
 10
21800.0144305623
 20
16914.3947209864
 30
0.0
 11
20960.0144305623
 21
16914.3947209864
 31
0.0
  0
LINE
  5
3A9
330
1F
100
AcDbEntity
  8
1
  6
Continuous
 62
     7
100
AcDbLine
 10
21080.0144305623
 20
17086.3368835449
 30
0.0
 11
22421.3850954867
 21
17086.3368835449
 31
0.0
  0
LINE
  5
3AA
330
1F
100
AcDbEntity
  8
1
  6
Continuous
 62
     7
100
AcDbLine
 10
20263.4734199476
 20
15549.5685577392
 30
0.0
 11
20959.4733589124
 21
15549.5685577392
 31
0.0
  0
LINE
  5
3AB
330
1F
100
AcDbEntity
  8
1
  6
Continuous
 62
     7
100
AcDbLine
 10
21800.0144305623
 20
17131.4147033691
 30
0.0
 11
21800.0144305623
 21
16914.3947209864
 31
0.0
  0
LINE
  5
3AC
330
1F
100
AcDbEntity
  8
1
  6
Continuous
 62
     7
100
AcDbLine
 10
20000.0144305623
 20
17015.9598426944
 30
0.0
 11
20262.5479388631
 21
17015.9598426944
 31
0.0
  0
LINE
  5
3AD
330
1F
100
AcDbEntity
  8
1
  6
Continuous
 62
     7
100
AcDbLine
 10
20021.5284798657
 20
16914.3947209864
 30
0.0
 11
20241.0338895599
 21
16914.3947209864
 31
0.0
  0
LINE
  5
3AE
330
1F
100
AcDbEntity
  8
1
  6
Continuous
 62
     7
100
AcDbLine
 10
20187.9194806069
 20
17031.5975189209
 30
0.0
 11
20074.6428888185
 21
17031.5975189209
 31
0.0
  0
LINE
  5
3AF
330
1F
100
AcDbEntity
  8
1
  6
Continuous
 62
     7
100
AcDbLine
 10
20000.0144305623
 20
16919.7283968281
 30
0.0
 11
20000.0144305623
 21
17015.9598426944
 31
0.0
  0
LINE
  5
3B0
330
1F
100
AcDbEntity
  8
1
  6
Continuous
 62
     7
100
AcDbLine
 10
20191.1422301532
 20
16914.3947209864
 30
0.0
 11
20000.0144305623
 21
16914.3947209864
 31
0.0
  0
LINE
  5
3B1
330
1F
100
AcDbEntity
  8
1
  6
Continuous
 62
     3
100
AcDbLine
 10
20960.0144305623
 20
17131.4147033691
 30
0.0
 11
20960.0144305623
 21
17326.9848969854
 31
0.0
  0
LINE
  5
3B2
330
1F
100
AcDbEntity
  8
1
  6
Continuous
 62
     3
100
AcDbLine
 10
21800.0144305623
 20
17131.4147033691
 30
0.0
 11
21800.0144305623
 21
17326.9848969854
 31
0.0
  0
LINE
  5
3B3
330
1F
100
AcDbEntity
  8
1
  6
Continuous
 62
     3
100
AcDbLine
 10
20960.0144305623
 20
17326.9848969854
 30
0.0
 11
21800.0144305623
 21
17326.9848969854
 31
0.0
  0
LINE
  5
3B4
330
1F
100
AcDbEntity
  8
1
  6
Continuous
 62
     7
100
AcDbLine
 10
32999.4733589124
 20
18960.0
 30
0.0
 11
32999.4733589124
 21
17730.0
 31
0.0
  0
LINE
  5
3B5
330
1F
100
AcDbEntity
  8
1
  6
Continuous
 62
     7
100
AcDbLine
 10
32724.4211738539
 20
18684.9478149414
 30
0.0
 11
32724.4211738539
 21
17730.0
 31
0.0
  0
LINE
  5
3B6
330
1F
100
AcDbEntity
  8
1
  6
Continuous
 62
     7
100
AcDbLine
 10
32589.0419166517
 20
18684.9478149414
 30
0.0
 11
32589.0419166517
 21
17730.0
 31
0.0
  0
LINE
  5
3B7
330
1F
100
AcDbEntity
  8
1
  6
Continuous
 62
     7
100
AcDbLine
 10
32999.4733589124
 20
18684.9478149414
 30
0.0
 11
32039.4733589124
 21
18684.9478149414
 31
0.0
  0
LINE
  5
3B8
330
1F
100
AcDbEntity
  8
1
  6
Continuous
 62
     7
100
AcDbLine
 10
32039.4733589124
 20
17730.0
 30
0.0
 11
32999.4733589124
 21
17730.0
 31
0.0
  0
LINE
  5
3B9
330
1F
100
AcDbEntity
  8
1
  6
Continuous
 62
     7
100
AcDbLine
 10
32039.4733589124
 20
18960.0
 30
0.0
 11
32039.4733589124
 21
16650.0
 31
0.0
  0
LINE
  5
3BA
330
1F
100
AcDbEntity
  8
1
  6
Continuous
 62
     7
100
AcDbLine
 10
32039.4733589124
 20
16650.0
 30
0.0
 11
32999.4733589124
 21
16650.0
 31
0.0
  0
LINE
  5
3BB
330
1F
100
AcDbEntity
  8
1
  6
Continuous
 62
     7
100
AcDbLine
 10
32039.4733589124
 20
16914.0000610351
 30
0.0
 11
32724.4211738539
 21
16914.0000610351
 31
0.0
  0
LINE
  5
3BC
330
1F
100
AcDbEntity
  8
1
  6
Continuous
 62
     7
100
AcDbLine
 10
32724.4211738539
 20
17730.0
 30
0.0
 11
32724.4211738539
 21
16650.0
 31
0.0
  0
LINE
  5
3BD
330
1F
100
AcDbEntity
  8
1
  6
Continuous
 62
     7
100
AcDbLine
 10
32999.4733589124
 20
17730.0
 30
0.0
 11
32999.4733589124
 21
16650.0
 31
0.0
  0
LINE
  5
3BE
330
1F
100
AcDbEntity
  8
1
  6
Continuous
 62
     7
100
AcDbLine
 10
32589.0419166517
 20
17730.0
 30
0.0
 11
32589.0419166517
 21
16914.0000610351
 31
0.0
  0
LINE
  5
3BF
330
1F
100
AcDbEntity
  8
1
  6
Continuous
 62
     7
100
AcDbLine
 10
22349.0419166517
 20
14850.0
 30
0.0
 11
22349.0419166517
 21
14154.0000610351
 31
0.0
  0
LINE
  5
3C0
330
1F
100
AcDbEntity
  8
1
  6
Continuous
 62
     7
100
AcDbLine
 10
22759.4733589124
 20
14850.0
 30
0.0
 11
22759.4733589124
 21
13890.0
 31
0.0
  0
LINE
  5
3C1
330
1F
100
AcDbEntity
  8
1
  6
Continuous
 62
     7
100
AcDbLine
 10
22484.4211738539
 20
14850.0
 30
0.0
 11
22484.4211738539
 21
13890.0
 31
0.0
  0
LINE
  5
3C2
330
1F
100
AcDbEntity
  8
1
  6
Continuous
 62
     7
100
AcDbLine
 10
21799.4733589124
 20
14154.0000610351
 30
0.0
 11
22484.4211738539
 21
14154.0000610351
 31
0.0
  0
LINE
  5
3C3
330
1F
100
AcDbEntity
  8
1
  6
Continuous
 62
     7
100
AcDbLine
 10
21799.4733589124
 20
13890.0
 30
0.0
 11
22759.4733589124
 21
13890.0
 31
0.0
  0
LINE
  5
3C4
330
1F
100
AcDbEntity
  8
1
  6
Continuous
 62
     7
100
AcDbLine
 10
21799.4733589124
 20
14850.0
 30
0.0
 11
21799.4733589124
 21
13890.0
 31
0.0
  0
LINE
  5
3C5
330
1F
100
AcDbEntity
  8
1
  6
Continuous
 62
     7
100
AcDbLine
 10
21799.4733589124
 20
14850.0
 30
0.0
 11
22759.4733589124
 21
14850.0
 31
0.0
  0
LINE
  5
3C6
330
1F
100
AcDbEntity
  8
1
  6
Continuous
 62
     7
100
AcDbLine
 10
21799.4733589124
 20
15684.9478149414
 30
0.0
 11
21799.4733589124
 21
14850.0
 31
0.0
  0
LINE
  5
3C7
330
1F
100
AcDbEntity
  8
1
  6
Continuous
 62
     7
100
AcDbLine
 10
22759.4733589124
 20
15684.9478149414
 30
0.0
 11
21799.4733589124
 21
15684.9478149414
 31
0.0
  0
LINE
  5
3C8
330
1F
100
AcDbEntity
  8
1
  6
Continuous
 62
     7
100
AcDbLine
 10
22349.0419166517
 20
15684.9478149414
 30
0.0
 11
22349.0419166517
 21
14850.0
 31
0.0
  0
LINE
  5
3C9
330
1F
100
AcDbEntity
  8
1
  6
Continuous
 62
     7
100
AcDbLine
 10
22484.4211738539
 20
15684.9478149414
 30
0.0
 11
22484.4211738539
 21
14850.0
 31
0.0
  0
LINE
  5
3CA
330
1F
100
AcDbEntity
  8
1
  6
Continuous
 62
     7
100
AcDbLine
 10
22759.4733589124
 20
15960.0
 30
0.0
 11
22759.4733589124
 21
14850.0
 31
0.0
  0
LINE
  5
3CB
330
1F
100
AcDbEntity
  8
1
  6
Continuous
 62
     7
100
AcDbLine
 10
21799.4733589124
 20
15079.7395661927
 30
0.0
 11
21799.4733589124
 21
15960.0
 31
0.0
  0
LINE
  5
3CC
330
1F
100
AcDbEntity
  8
1
  6
Continuous
 62
     7
100
AcDbLine
 10
32039.4733589124
 20
18684.9478149414
 30
0.0
 11
32999.4733589124
 21
18684.9478149414
 31
0.0
  0
LINE
  5
3CD
330
1F
100
AcDbEntity
  8
1
  6
Continuous
 62
     7
100
AcDbLine
 10
32039.4733589124
 20
18549.5685577392
 30
0.0
 11
32589.0419166517
 21
18549.5685577392
 31
0.0
  0
LINE
  5
3CE
330
1F
100
AcDbEntity
  8
1
  6
Continuous
 62
     7
100
AcDbLine
 10
21799.4733589124
 20
15684.9478149414
 30
0.0
 11
22759.4733589124
 21
15684.9478149414
 31
0.0
  0
LINE
  5
3CF
330
1F
100
AcDbEntity
  8
1
  6
Continuous
 62
     7
100
AcDbLine
 10
21799.4733589124
 20
15960.0
 30
0.0
 11
22759.4733589124
 21
15960.0
 31
0.0
  0
LINE
  5
3D0
330
1F
100
AcDbEntity
  8
1
  6
Continuous
 62
     7
100
AcDbLine
 10
22759.4733589124
 20
15684.9478149414
 30
0.0
 11
21799.4733589124
 21
15684.9478149414
 31
0.0
  0
LINE
  5
3D1
330
1F
100
AcDbEntity
  8
1
  6
Continuous
 62
     7
100
AcDbLine
 10
21799.4733589124
 20
15549.5685577392
 30
0.0
 11
22349.0419166517
 21
15549.5685577392
 31
0.0
  0
LINE
  5
3D2
330
1F
100
AcDbEntity
  8
0
  6
Continuous
 62
     7
100
AcDbLine
 10
22431.3919732266
 20
17094.1117460832
 30
0.0
 11
22431.3817588925
 21
17094.1254913203
 31
0.0
  0
LINE
  5
3D3
330
1F
100
AcDbEntity
  8
1
  6
Continuous
 62
     7
100
AcDbLine
 10
22760.0144305622
 20
16507.604887303
 30
0.0
 11
22760.0144305623
 21
17002.684223175
 31
0.0
  0
LINE
  5
3D4
330
1F
100
AcDbEntity
  8
1
  6
Continuous
 62
     7
100
AcDbLine
 10
21800.0144305623
 20
16507.604887303
 30
0.0
 11
22760.0144305622
 21
16507.604887303
 31
0.0
  0
LINE
  5
3D5
330
1F
100
AcDbEntity
  8
1
  6
Continuous
 62
     4
100
AcDbLine
 10
21800.0144305623
 20
16508.0845336914
 30
0.0
 11
22760.0144305622
 21
16508.0845336914
 31
0.0
  0
LINE
  5
3D6
330
1F
100
AcDbEntity
  8
1
  6
Continuous
 62
     4
100
AcDbLine
 10
21800.0144305623
 20
16500.0
 30
0.0
 11
22760.0144305622
 21
16500.0
 31
0.0
  0
LINE
  5
3D7
330
1F
100
AcDbEntity
  8
1
  6
Continuous
 62
     7
100
AcDbLine
 10
21800.0144305623
 20
16914.3947209864
 30
0.0
 11
21800.0144305623
 21
16507.604887303
 31
0.0
  0
LINE
  5
3D8
330
1F
100
AcDbEntity
  8
1
  6
Continuous
 62
     7
100
AcDbLine
 10
21800.0144305623
 20
16914.3947209864
 30
0.0
 11
22494.9260809806
 21
16914.3947209864
 31
0.0
  0
LINE
  5
3D9
330
1F
100
AcDbEntity
  8
1
  6
Continuous
 62
     7
100
AcDbLine
 10
22494.9260809806
 20
17002.684223175
 30
0.0
 11
22760.0144305623
 21
17002.684223175
 31
0.0
  0
LINE
  5
3DA
330
1F
100
AcDbEntity
  8
1
  6
Continuous
 62
     7
100
AcDbLine
 10
22494.9260809806
 20
17002.684223175
 30
0.0
 11
22494.9260809806
 21
16914.3947209864
 31
0.0
  0
LINE
  5
3DB
330
1F
100
AcDbEntity
  8
1
  6
Continuous
 62
     7
100
AcDbLine
 10
22760.0144305623
 20
17016.7483792098
 30
0.0
 11
22760.0144305623
 21
17116.9058404548
 31
0.0
  0
LINE
  5
3DC
330
1F
100
AcDbEntity
  8
1
  6
Continuous
 62
     7
100
AcDbLine
 10
22486.075219326
 20
17116.9058404548
 30
0.0
 11
22760.0144305623
 21
17116.9058404548
 31
0.0
  0
LINE
  5
3DD
330
1F
100
AcDbEntity
  8
1
  6
Continuous
 62
     7
100
AcDbLine
 10
22507.5892686294
 20
17011.4147033691
 30
0.0
 11
22738.5003812591
 21
17011.4147033691
 31
0.0
  0
LINE
  5
3DE
330
1F
100
AcDbEntity
  8
1
  6
Continuous
 62
     7
100
AcDbLine
 10
22685.3859723061
 20
17132.5435166812
 30
0.0
 11
22560.7036775822
 21
17132.5435166812
 31
0.0
  0
LINE
  5
3DF
330
1F
100
AcDbEntity
  8
1
  6
Continuous
 62
     7
100
AcDbLine
 10
22489.6883215195
 20
17016.7483792098
 30
0.0
 11
22760.0144305623
 21
17016.7483792098
 31
0.0
  0
LINE
  5
3E0
330
1F
100
AcDbEntity
  8
1
  6
Continuous
 62
     3
100
AcDbLine
 10
22698.9980629113
 20
17294.376411376
 30
0.0
 11
22604.2974625472
 21
17326.9848969854
 31
0.0
  0
LINE
  5
3E1
330
1F
100
AcDbEntity
  8
1
  6
Continuous
 62
     3
100
AcDbLine
 10
22565.2148192236
 20
17261.5136002952
 30
0.0
 11
22524.6217294756
 21
17143.6243485277
 31
0.0
  0
LINE
  5
3E2
330
1F
100
AcDbEntity
  8
1
  6
Continuous
 62
     3
100
AcDbLine
 10
22536.7932971728
 20
17130.9412945746
 30
0.0
 11
22604.2974625472
 21
17326.9848969854
 31
0.0
  0
LINE
  5
3E3
330
1F
100
AcDbEntity
  8
1
  6
Continuous
 62
     3
100
AcDbLine
 10
22643.2737528488
 20
17132.5435166812
 30
0.0
 11
22698.9980629113
 21
17294.376411376
 31
0.0
  0
LINE
  5
3E4
330
1F
100
AcDbEntity
  8
1
  6
Continuous
 62
     3
100
AcDbLine
 10
22648.9147670478
 20
17132.5435166812
 30
0.0
 11
22697.0367685613
 21
17272.2980115276
 31
0.0
  0
LINE
  5
3E5
330
1F
100
AcDbEntity
  8
1
  6
Continuous
 62
     7
100
AcDbLine
 10
22420.2976227244
 20
17031.5975189209
 30
0.0
 11
21874.6428888185
 21
17031.5975189209
 31
0.0
  0
LINE
  5
3E6
330
1F
100
AcDbEntity
  8
1
  6
Continuous
 62
     7
100
AcDbLine
 10
21800.0144305623
 20
17015.9598426944
 30
0.0
 11
21800.0144305623
 21
16919.7283968271
 31
0.0
  0
LINE
  5
3E7
330
1F
100
AcDbEntity
  8
1
  6
Continuous
 62
     7
100
AcDbLine
 10
22494.9260809806
 20
16919.7283968271
 30
0.0
 11
22494.9260809806
 21
17012.701675415
 31
0.0
  0
LINE
  5
3E8
330
1F
100
AcDbEntity
  8
1
  6
Continuous
 62
     7
100
AcDbLine
 10
22486.075219326
 20
17019.5398694386
 30
0.0
 11
22486.075219326
 21
17116.9058404548
 31
0.0
  0
LINE
  5
3E9
330
1F
100
AcDbEntity
  8
1
  6
Continuous
 62
     7
100
AcDbLine
 10
32725.5341476762
 20
20019.5398694386
 30
0.0
 11
32725.5341476762
 21
20116.9058404548
 31
0.0
  0
LINE
  5
3EA
330
1F
100
AcDbEntity
  8
1
  6
Continuous
 62
     7
100
AcDbLine
 10
32725.5341476762
 20
20019.5398694386
 30
0.0
 11
32734.3850093308
 21
20012.701675415
 31
0.0
  0
LINE
  5
3EB
330
1F
100
AcDbEntity
  8
1
  6
Continuous
 62
     7
100
AcDbLine
 10
32734.3850093308
 20
19919.7283968271
 30
0.0
 11
32734.3850093308
 21
20012.701675415
 31
0.0
  0
LINE
  5
3EC
330
1F
100
AcDbEntity
  8
1
  6
Continuous
 62
     7
100
AcDbLine
 10
32039.4733589124
 20
20131.4147033691
 30
0.0
 11
32039.4733589124
 21
19919.7283968271
 31
0.0
  0
LINE
  5
3ED
330
1F
100
AcDbEntity
  8
1
  6
Continuous
 62
     7
100
AcDbLine
 10
32659.7565510746
 20
20031.5975189209
 30
0.0
 11
32114.1018171686
 21
20031.5975189209
 31
0.0
  0
LINE
  5
3EE
330
1F
100
AcDbEntity
  8
1
  6
Continuous
 62
     3
100
AcDbLine
 10
32888.3736953979
 20
20132.5435166812
 30
0.0
 11
32936.4956969115
 21
20272.2980115276
 31
0.0
  0
LINE
  5
3EF
330
1F
100
AcDbEntity
  8
1
  6
Continuous
 62
     3
100
AcDbLine
 10
32882.732681199
 20
20132.5435166812
 30
0.0
 11
32938.4569912614
 21
20294.376411376
 31
0.0
  0
LINE
  5
3F0
330
1F
100
AcDbEntity
  8
1
  6
Continuous
 62
     3
100
AcDbLine
 10
32776.2522255229
 20
20130.9412945746
 30
0.0
 11
32843.7563908974
 21
20326.9848969854
 31
0.0
  0
LINE
  5
3F1
330
1F
100
AcDbEntity
  8
1
  6
Continuous
 62
     3
100
AcDbLine
 10
32804.6737475737
 20
20261.5136002952
 30
0.0
 11
32764.0806578257
 21
20143.6243485277
 31
0.0
  0
LINE
  5
3F2
330
1F
100
AcDbEntity
  8
1
  6
Continuous
 62
     3
100
AcDbLine
 10
32938.4569912614
 20
20294.376411376
 30
0.0
 11
32843.7563908974
 21
20326.9848969854
 31
0.0
  0
LINE
  5
3F3
330
1F
100
AcDbEntity
  8
1
  6
Continuous
 62
     7
100
AcDbLine
 10
32729.1472498696
 20
20016.7483792098
 30
0.0
 11
32999.4733589124
 21
20016.7483792098
 31
0.0
  0
LINE
  5
3F4
330
1F
100
AcDbEntity
  8
1
  6
Continuous
 62
     7
100
AcDbLine
 10
32924.8449006563
 20
20132.5435166812
 30
0.0
 11
32800.1626059324
 21
20132.5435166812
 31
0.0
  0
LINE
  5
3F5
330
1F
100
AcDbEntity
  8
1
  6
Continuous
 62
     7
100
AcDbLine
 10
32747.0481969796
 20
20011.4147033691
 30
0.0
 11
32977.9593096093
 21
20011.4147033691
 31
0.0
  0
LINE
  5
3F6
330
1F
100
AcDbEntity
  8
1
  6
Continuous
 62
     7
100
AcDbLine
 10
32725.5341476762
 20
20116.9058404548
 30
0.0
 11
32999.4733589124
 21
20116.9058404548
 31
0.0
  0
LINE
  5
3F7
330
1F
100
AcDbEntity
  8
1
  6
Continuous
 62
     7
100
AcDbLine
 10
32999.4733589124
 20
20016.7483792098
 30
0.0
 11
32999.4733589124
 21
20116.9058404548
 31
0.0
  0
LINE
  5
3F8
330
1F
100
AcDbEntity
  8
1
  6
Continuous
 62
     7
100
AcDbLine
 10
32734.3850093308
 20
20002.684223175
 30
0.0
 11
32734.3850093308
 21
19914.3947209864
 31
0.0
  0
LINE
  5
3F9
330
1F
100
AcDbEntity
  8
1
  6
Continuous
 62
     7
100
AcDbLine
 10
32734.3850093308
 20
20002.684223175
 30
0.0
 11
32999.4733589124
 21
20002.684223175
 31
0.0
  0
LINE
  5
3FA
330
1F
100
AcDbEntity
  8
1
  6
Continuous
 62
     7
100
AcDbLine
 10
32039.4733589124
 20
19914.3947209864
 30
0.0
 11
32734.3850093308
 21
19914.3947209864
 31
0.0
  0
LINE
  5
3FB
330
1F
100
AcDbEntity
  8
1
  6
Continuous
 62
     7
100
AcDbLine
 10
32039.4733589124
 20
19914.3947209864
 30
0.0
 11
32039.4733589124
 21
19507.604887303
 31
0.0
  0
LINE
  5
3FC
330
1F
100
AcDbEntity
  8
1
  6
Continuous
 62
     4
100
AcDbLine
 10
32039.4733589124
 20
19500.0
 30
0.0
 11
32999.4733589124
 21
19500.0
 31
0.0
  0
LINE
  5
3FD
330
1F
100
AcDbEntity
  8
1
  6
Continuous
 62
     4
100
AcDbLine
 10
32039.4733589124
 20
19508.0845336914
 30
0.0
 11
32999.4733589124
 21
19508.0845336914
 31
0.0
  0
LINE
  5
3FE
330
1F
100
AcDbEntity
  8
1
  6
Continuous
 62
     7
100
AcDbLine
 10
32039.4733589124
 20
19507.604887303
 30
0.0
 11
32999.4733589124
 21
19507.604887303
 31
0.0
  0
LINE
  5
3FF
330
1F
100
AcDbEntity
  8
1
  6
Continuous
 62
     7
100
AcDbLine
 10
32999.4733589124
 20
19507.604887303
 30
0.0
 11
32999.4733589124
 21
20002.684223175
 31
0.0
  0
LINE
  5
400
330
1F
100
AcDbEntity
  8
0
  6
Continuous
 62
     7
100
AcDbLine
 10
32670.8509015768
 20
20094.1117460832
 30
0.0
 11
32670.8406872426
 21
20094.1254913203
 31
0.0
  0
LINE
  5
401
330
1F
100
AcDbEntity
  8
1
  6
Continuous
 62
     7
100
AcDbLine
 10
22471.2150953225
 20
17086.3368835449
 30
0.0
 11
22486.075219326
 21
17086.3368835449
 31
0.0
  0
LINE
  5
402
330
1F
100
AcDbEntity
  8
0
  6
Continuous
 62
     7
100
AcDbLine
 10
32710.6740236727
 20
20086.3368835449
 30
0.0
 11
32725.5341476762
 21
20086.3368835449
 31
0.0
  0
LINE
  5
403
330
1F
100
AcDbEntity
  8
1
  6
Continuous
 62
     7
100
AcDbLine
 10
12960.0144305623
 20
18549.5685577392
 30
0.0
 11
13776.0143695272
 21
18549.5685577392
 31
0.0
  0
LINE
  5
404
330
1F
100
AcDbEntity
  8
1
  6
Continuous
 62
     7
100
AcDbLine
 10
12960.0144305623
 20
18960.0
 30
0.0
 11
14040.0144305623
 21
18960.0
 31
0.0
  0
LINE
  5
405
330
1F
100
AcDbEntity
  8
1
  6
Continuous
 62
     7
100
AcDbLine
 10
12960.0144305623
 20
18684.9478149414
 30
0.0
 11
14040.0144305623
 21
18684.9478149414
 31
0.0
  0
LINE
  5
406
330
1F
100
AcDbEntity
  8
1
  6
Continuous
 62
     7
100
AcDbLine
 10
13776.0143695272
 20
18000.0
 30
0.0
 11
13776.0143695272
 21
18684.9478149414
 31
0.0
  0
LINE
  5
407
330
1F
100
AcDbEntity
  8
1
  6
Continuous
 62
     7
100
AcDbLine
 10
14040.0144305623
 20
18000.0
 30
0.0
 11
14040.0144305623
 21
18960.0
 31
0.0
  0
LINE
  5
408
330
1F
100
AcDbEntity
  8
1
  6
Continuous
 62
     7
100
AcDbLine
 10
12960.0144305623
 20
18000.0
 30
0.0
 11
14040.0144305623
 21
18000.0
 31
0.0
  0
LINE
  5
409
330
1F
100
AcDbEntity
  8
1
  6
Continuous
 62
     7
100
AcDbLine
 10
12960.0144305623
 20
18000.0
 30
0.0
 11
12960.0144305623
 21
18960.0
 31
0.0
  0
LINE
  5
40A
330
1F
100
AcDbEntity
  8
1
  6
Continuous
 62
     7
100
AcDbLine
 10
12000.0144305623
 20
18000.0
 30
0.0
 11
12960.0144305623
 21
18000.0
 31
0.0
  0
LINE
  5
40B
330
1F
100
AcDbEntity
  8
1
  6
Continuous
 62
     7
100
AcDbLine
 10
12000.0144305623
 20
18960.0
 30
0.0
 11
12000.0144305623
 21
18000.0
 31
0.0
  0
LINE
  5
40C
330
1F
100
AcDbEntity
  8
1
  6
Continuous
 62
     7
100
AcDbLine
 10
12000.0144305623
 20
18549.5685577392
 30
0.0
 11
12960.0144305623
 21
18549.5685577392
 31
0.0
  0
LINE
  5
40D
330
1F
100
AcDbEntity
  8
1
  6
Continuous
 62
     7
100
AcDbLine
 10
12000.0144305623
 20
18684.9478149414
 30
0.0
 11
12960.0144305623
 21
18684.9478149414
 31
0.0
  0
LINE
  5
40E
330
1F
100
AcDbEntity
  8
1
  6
Continuous
 62
     7
100
AcDbLine
 10
12000.0144305623
 20
18960.0
 30
0.0
 11
12960.0144305623
 21
18960.0
 31
0.0
  0
LINE
  5
40F
330
1F
100
AcDbEntity
  8
1
  6
Continuous
 62
     7
100
AcDbLine
 10
12725.222679311
 20
18000.0
 30
0.0
 11
12000.0144305623
 21
18000.0
 31
0.0
  0
LINE
  5
410
330
1F
100
AcDbEntity
  8
1
  6
Continuous
 62
     7
100
AcDbLine
 10
12605.222679311
 20
15000.0
 30
0.0
 11
12000.0144305623
 21
15000.0
 31
0.0
  0
LINE
  5
411
330
1F
100
AcDbEntity
  8
1
  6
Continuous
 62
     7
100
AcDbLine
 10
12000.0144305623
 20
15960.0
 30
0.0
 11
12840.0144305623
 21
15960.0
 31
0.0
  0
LINE
  5
412
330
1F
100
AcDbEntity
  8
1
  6
Continuous
 62
     7
100
AcDbLine
 10
12000.0144305623
 20
15684.9478149414
 30
0.0
 11
12840.0144305623
 21
15684.9478149414
 31
0.0
  0
LINE
  5
413
330
1F
100
AcDbEntity
  8
1
  6
Continuous
 62
     7
100
AcDbLine
 10
12000.0144305623
 20
15549.5685577392
 30
0.0
 11
12840.0144305623
 21
15549.5685577392
 31
0.0
  0
LINE
  5
414
330
1F
100
AcDbEntity
  8
1
  6
Continuous
 62
     7
100
AcDbLine
 10
12000.0144305623
 20
15960.0
 30
0.0
 11
12000.0144305623
 21
15000.0
 31
0.0
  0
LINE
  5
415
330
1F
100
AcDbEntity
  8
1
  6
Continuous
 62
     7
100
AcDbLine
 10
12000.0144305623
 20
15000.0
 30
0.0
 11
12840.0144305623
 21
15000.0
 31
0.0
  0
LINE
  5
416
330
1F
100
AcDbEntity
  8
1
  6
Continuous
 62
     7
100
AcDbLine
 10
12840.0144305623
 20
15000.0
 30
0.0
 11
12840.0144305623
 21
15960.0
 31
0.0
  0
LINE
  5
417
330
1F
100
AcDbEntity
  8
1
  6
Continuous
 62
     7
100
AcDbLine
 10
12840.0144305623
 20
15000.0
 30
0.0
 11
13800.0144305623
 21
15000.0
 31
0.0
  0
LINE
  5
418
330
1F
100
AcDbEntity
  8
1
  6
Continuous
 62
     7
100
AcDbLine
 10
13800.0144305623
 20
15000.0
 30
0.0
 11
13800.0144305623
 21
15960.0
 31
0.0
  0
LINE
  5
419
330
1F
100
AcDbEntity
  8
1
  6
Continuous
 62
     7
100
AcDbLine
 10
13536.0143695272
 20
15000.0
 30
0.0
 11
13536.0143695272
 21
15684.9478149414
 31
0.0
  0
LINE
  5
41A
330
1F
100
AcDbEntity
  8
1
  6
Continuous
 62
     7
100
AcDbLine
 10
12840.0144305623
 20
15684.9478149414
 30
0.0
 11
13800.0144305623
 21
15684.9478149414
 31
0.0
  0
LINE
  5
41B
330
1F
100
AcDbEntity
  8
1
  6
Continuous
 62
     7
100
AcDbLine
 10
12840.0144305623
 20
15960.0
 30
0.0
 11
13800.0144305623
 21
15960.0
 31
0.0
  0
LINE
  5
41C
330
1F
100
AcDbEntity
  8
1
  6
Continuous
 62
     7
100
AcDbLine
 10
12840.0144305623
 20
15549.5685577392
 30
0.0
 11
13536.0143695272
 21
15549.5685577392
 31
0.0
  0
LINE
  5
41D
330
1F
100
AcDbEntity
  8
1
  6
Continuous
 62
     7
100
AcDbLine
 10
17034.9622455037
 20
18000.0
 30
0.0
 11
16309.753996755
 21
18000.0
 31
0.0
  0
LINE
  5
41E
330
1F
100
AcDbEntity
  8
1
  6
Continuous
 62
     7
100
AcDbLine
 10
16080.0144305623
 20
18960.0
 30
0.0
 11
17310.0144305623
 21
18960.0
 31
0.0
  0
LINE
  5
41F
330
1F
100
AcDbEntity
  8
1
  6
Continuous
 62
     7
100
AcDbLine
 10
16080.0144305623
 20
18684.9478149414
 30
0.0
 11
17034.9622455037
 21
18684.9478149414
 31
0.0
  0
LINE
  5
420
330
1F
100
AcDbEntity
  8
1
  6
Continuous
 62
     7
100
AcDbLine
 10
16080.0144305623
 20
18549.5685577392
 30
0.0
 11
17034.9622455037
 21
18549.5685577392
 31
0.0
  0
LINE
  5
421
330
1F
100
AcDbEntity
  8
1
  6
Continuous
 62
     7
100
AcDbLine
 10
17034.9622455037
 20
18000.0
 30
0.0
 11
17034.9622455037
 21
18960.0
 31
0.0
  0
LINE
  5
422
330
1F
100
AcDbEntity
  8
1
  6
Continuous
 62
     7
100
AcDbLine
 10
16080.0144305623
 20
18000.0
 30
0.0
 11
17310.0144305623
 21
18000.0
 31
0.0
  0
LINE
  5
423
330
1F
100
AcDbEntity
  8
1
  6
Continuous
 62
     7
100
AcDbLine
 10
16080.0144305623
 20
18960.0
 30
0.0
 11
16080.0144305623
 21
18000.0
 31
0.0
  0
LINE
  5
424
330
1F
100
AcDbEntity
  8
1
  6
Continuous
 62
     7
100
AcDbLine
 10
15000.0144305623
 20
18000.0
 30
0.0
 11
16080.0144305623
 21
18000.0
 31
0.0
  0
LINE
  5
425
330
1F
100
AcDbEntity
  8
1
  6
Continuous
 62
     7
100
AcDbLine
 10
15000.0144305623
 20
18960.0
 30
0.0
 11
15000.0144305623
 21
18000.0
 31
0.0
  0
LINE
  5
426
330
1F
100
AcDbEntity
  8
1
  6
Continuous
 62
     7
100
AcDbLine
 10
15264.0144915975
 20
18684.9478149414
 30
0.0
 11
15264.0144915975
 21
18000.0
 31
0.0
  0
LINE
  5
427
330
1F
100
AcDbEntity
  8
1
  6
Continuous
 62
     7
100
AcDbLine
 10
15000.0144305623
 20
18684.9478149414
 30
0.0
 11
16080.0144305623
 21
18684.9478149414
 31
0.0
  0
LINE
  5
428
330
1F
100
AcDbEntity
  8
1
  6
Continuous
 62
     7
100
AcDbLine
 10
15000.0144305623
 20
18960.0
 30
0.0
 11
16080.0144305623
 21
18960.0
 31
0.0
  0
LINE
  5
429
330
1F
100
AcDbEntity
  8
1
  6
Continuous
 62
     7
100
AcDbLine
 10
15264.0144915975
 20
18549.5685577392
 30
0.0
 11
16080.0144305623
 21
18549.5685577392
 31
0.0
  0
LINE
  5
42A
330
1F
100
AcDbEntity
  8
1
  6
Continuous
 62
     7
100
AcDbLine
 10
17310.0144305623
 20
18960.0
 30
0.0
 11
17310.0144305623
 21
18000.0
 31
0.0
  0
LINE
  5
42B
330
1F
100
AcDbEntity
  8
1
  6
Continuous
 62
     7
100
AcDbLine
 10
17034.9622455037
 20
18960.0
 30
0.0
 11
17034.9622455037
 21
18000.0
 31
0.0
  0
LINE
  5
42C
330
1F
100
AcDbEntity
  8
1
  6
Continuous
 62
     7
100
AcDbLine
 10
16899.5829883016
 20
18549.5685577392
 30
0.0
 11
16899.5829883016
 21
18000.0
 31
0.0
  0
LINE
  5
42D
330
1F
100
AcDbEntity
  8
1
  6
Continuous
 62
     7
100
AcDbLine
 10
15264.0144915975
 20
15549.5685577392
 30
0.0
 11
15960.0144305623
 21
15549.5685577392
 31
0.0
  0
LINE
  5
42E
330
1F
100
AcDbEntity
  8
1
  6
Continuous
 62
     7
100
AcDbLine
 10
15000.0144305623
 20
15960.0
 30
0.0
 11
15960.0144305623
 21
15960.0
 31
0.0
  0
LINE
  5
42F
330
1F
100
AcDbEntity
  8
1
  6
Continuous
 62
     7
100
AcDbLine
 10
15000.0144305623
 20
15684.9478149414
 30
0.0
 11
15960.0144305623
 21
15684.9478149414
 31
0.0
  0
LINE
  5
430
330
1F
100
AcDbEntity
  8
1
  6
Continuous
 62
     7
100
AcDbLine
 10
15264.0144915975
 20
15684.9478149414
 30
0.0
 11
15264.0144915975
 21
15000.0
 31
0.0
  0
LINE
  5
431
330
1F
100
AcDbEntity
  8
1
  6
Continuous
 62
     7
100
AcDbLine
 10
15000.0144305623
 20
15960.0
 30
0.0
 11
15000.0144305623
 21
15000.0
 31
0.0
  0
LINE
  5
432
330
1F
100
AcDbEntity
  8
1
  6
Continuous
 62
     7
100
AcDbLine
 10
15000.0144305623
 20
15000.0
 30
0.0
 11
15960.0144305623
 21
15000.0
 31
0.0
  0
LINE
  5
433
330
1F
100
AcDbEntity
  8
1
  6
Continuous
 62
     7
100
AcDbLine
 10
15960.0144305623
 20
15960.0
 30
0.0
 11
15960.0144305623
 21
15000.0
 31
0.0
  0
LINE
  5
434
330
1F
100
AcDbEntity
  8
1
  6
Continuous
 62
     7
100
AcDbLine
 10
15960.0144305623
 20
15000.0
 30
0.0
 11
16794.9622455037
 21
15000.0
 31
0.0
  0
LINE
  5
435
330
1F
100
AcDbEntity
  8
1
  6
Continuous
 62
     7
100
AcDbLine
 10
16794.9622455037
 20
15000.0
 30
0.0
 11
16794.9622455037
 21
15960.0
 31
0.0
  0
LINE
  5
436
330
1F
100
AcDbEntity
  8
1
  6
Continuous
 62
     7
100
AcDbLine
 10
15960.0144305623
 20
15549.5685577392
 30
0.0
 11
16794.9622455037
 21
15549.5685577392
 31
0.0
  0
LINE
  5
437
330
1F
100
AcDbEntity
  8
1
  6
Continuous
 62
     7
100
AcDbLine
 10
15960.0144305623
 20
15684.9478149414
 30
0.0
 11
16794.9622455037
 21
15684.9478149414
 31
0.0
  0
LINE
  5
438
330
1F
100
AcDbEntity
  8
1
  6
Continuous
 62
     7
100
AcDbLine
 10
15960.0144305623
 20
15960.0
 30
0.0
 11
17070.0144305623
 21
15960.0
 31
0.0
  0
LINE
  5
439
330
1F
100
AcDbEntity
  8
1
  6
Continuous
 62
     7
100
AcDbLine
 10
17070.0144305623
 20
15000.0
 30
0.0
 11
16189.753996755
 21
15000.0
 31
0.0
  0
LINE
  5
43A
330
1F
100
AcDbEntity
  8
1
  6
Continuous
 62
     7
100
AcDbLine
 10
16794.9622455037
 20
15960.0
 30
0.0
 11
16794.9622455037
 21
15000.0
 31
0.0
  0
LINE
  5
43B
330
1F
100
AcDbEntity
  8
1
  6
Continuous
 62
     7
100
AcDbLine
 10
17070.0144305623
 20
15960.0
 30
0.0
 11
17070.0144305623
 21
15000.0
 31
0.0
  0
LINE
  5
43C
330
1F
100
AcDbEntity
  8
1
  6
Continuous
 62
     7
100
AcDbLine
 10
16794.9622455037
 20
15000.0
 30
0.0
 11
16794.9622455037
 21
15960.0
 31
0.0
  0
LINE
  5
43D
330
1F
100
AcDbEntity
  8
1
  6
Continuous
 62
     7
100
AcDbLine
 10
16659.5829883016
 20
15549.5685577392
 30
0.0
 11
16659.5829883016
 21
15000.0
 31
0.0
  0
LINE
  5
43E
330
1F
100
AcDbEntity
  8
1
  6
Continuous
 62
     7
100
AcDbLine
 10
3273.9536417986
 20
8116.905840454791
 30
0.0
 11
3273.9536417986
 21
8019.53986943864
 31
0.0
  0
LINE
  5
43F
330
1F
100
AcDbEntity
  8
1
  6
Continuous
 62
     7
100
AcDbLine
 10
3265.10278014403
 20
8012.701675415
 30
0.0
 11
3273.9536417986
 21
8019.53986943864
 31
0.0
  0
LINE
  5
440
330
1F
100
AcDbEntity
  8
1
  6
Continuous
 62
     7
100
AcDbLine
 10
3265.10278014403
 20
8012.701675415
 30
0.0
 11
3265.10278014403
 21
7818.25782260618
 31
0.0
  0
LINE
  5
441
330
1F
100
AcDbEntity
  8
1
  6
Continuous
 62
     7
100
AcDbLine
 10
3960.01443056234
 20
7818.25782260618
 30
0.0
 11
3960.01443056234
 21
7898.75704475998
 31
0.0
  0
LINE
  5
442
330
1F
100
AcDbEntity
  8
1
  6
Continuous
 62
     7
100
AcDbLine
 10
3885.38597230614
 20
7914.39472098641
 30
0.0
 11
3311.61246840217
 21
7914.39472098641
 31
0.0
  0
LINE
  5
443
330
1F
100
AcDbEntity
  8
1
  6
Continuous
 62
     3
100
AcDbLine
 10
3062.99209256331
 20
8272.29801152763
 30
0.0
 11
3111.11409407686
 21
8132.54351668122
 31
0.0
  0
LINE
  5
444
330
1F
100
AcDbEntity
  8
1
  6
Continuous
 62
     3
100
AcDbLine
 10
3061.03079821338
 20
8294.376411376001
 30
0.0
 11
3116.75510827584
 21
8132.54351668122
 31
0.0
  0
LINE
  5
445
330
1F
100
AcDbEntity
  8
1
  6
Continuous
 62
     3
100
AcDbLine
 10
3155.73139857741
 20
8326.984896985439
 30
0.0
 11
3223.23556395186
 21
8130.94129457462
 31
0.0
  0
LINE
  5
446
330
1F
100
AcDbEntity
  8
1
  6
Continuous
 62
     3
100
AcDbLine
 10
3235.40713164909
 20
8143.62434852768
 30
0.0
 11
3194.81404190107
 21
8261.51360029524
 31
0.0
  0
LINE
  5
447
330
1F
100
AcDbEntity
  8
1
  6
Continuous
 62
     3
100
AcDbLine
 10
3155.73139857741
 20
8326.984896985439
 30
0.0
 11
3061.03079821338
 21
8294.376411376001
 31
0.0
  0
LINE
  5
448
330
1F
100
AcDbEntity
  8
1
  6
Continuous
 62
     1
100
AcDbLine
 10
3000.01443056234
 20
8016.74837920977
 30
0.0
 11
3270.34053960518
 21
8016.74837920977
 31
0.0
  0
LINE
  5
449
330
1F
100
AcDbEntity
  8
1
  6
Continuous
 62
     7
100
AcDbLine
 10
3199.3251835424
 20
8132.54351668122
 30
0.0
 11
3074.64288881854
 21
8132.54351668122
 31
0.0
  0
LINE
  5
44A
330
1F
100
AcDbEntity
  8
1
  6
Continuous
 62
     7
100
AcDbLine
 10
3021.5284798655
 20
8011.41470336909
 30
0.0
 11
3252.43959249522
 21
8011.41470336909
 31
0.0
  0
LINE
  5
44B
330
1F
100
AcDbEntity
  8
1
  6
Continuous
 62
     1
100
AcDbLine
 10
3000.01443056234
 20
8116.905840454791
 30
0.0
 11
3273.9536417986
 21
8116.905840454791
 31
0.0
  0
LINE
  5
44C
330
1F
100
AcDbEntity
  8
1
  6
Continuous
 62
     7
100
AcDbLine
 10
3000.01443056234
 20
8116.905840454791
 30
0.0
 11
3000.01443056234
 21
8016.74837920977
 31
0.0
  0
LINE
  5
44D
330
1F
100
AcDbEntity
  8
1
  6
Continuous
 62
     7
100
AcDbLine
 10
3265.10278014403
 20
7812.92414676551
 30
0.0
 11
3265.10278014403
 21
8002.684223175
 31
0.0
  0
LINE
  5
44E
330
1F
100
AcDbEntity
  8
1
  6
Continuous
 62
     7
100
AcDbLine
 10
3000.01443056234
 20
8002.684223175
 30
0.0
 11
3265.10278014403
 21
8002.684223175
 31
0.0
  0
LINE
  5
44F
330
1F
100
AcDbEntity
  8
1
  6
Continuous
 62
     7
100
AcDbLine
 10
3265.10278014403
 20
7812.92414676551
 30
0.0
 11
3960.01443056234
 21
7812.92414676551
 31
0.0
  0
LINE
  5
450
330
1F
100
AcDbEntity
  8
1
  6
Continuous
 62
     7
100
AcDbLine
 10
3960.01443056234
 20
7672.09121992158
 30
0.0
 11
3960.01443056234
 21
7812.92414676551
 31
0.0
  0
LINE
  5
451
330
1F
100
AcDbEntity
  8
1
  6
Continuous
 62
     7
100
AcDbLine
 10
3000.01443056234
 20
8002.684223175
 30
0.0
 11
3000.01443056234
 21
7672.09121992158
 31
0.0
  0
LINE
  5
452
330
1F
100
AcDbEntity
  8
0
  6
Continuous
 62
     7
100
AcDbLine
 10
3328.64710223218
 20
8094.12549132031
 30
0.0
 11
3328.636887898
 21
8094.11174608322
 31
0.0
  0
LINE
  5
453
330
1F
100
AcDbEntity
  8
1
  6
Continuous
 62
     7
100
AcDbLine
 10
3275.46003490538
 20
7985.22951303364
 30
0.0
 11
3281.86828071632
 21
7936.1574924739
 31
0.0
  0
LINE
  5
454
330
1F
100
AcDbEntity
  8
1
  6
Continuous
 62
     3
100
AcDbLine
 10
720.014430562338
 20
8131.41470336909
 30
0.0
 11
720.014430562338
 21
8326.984896985439
 31
0.0
  0
LINE
  5
455
330
1F
100
AcDbEntity
  8
1
  6
Continuous
 62
     3
100
AcDbLine
 10
720.014430562338
 20
8326.984896985439
 30
0.0
 11
1680.01443056234
 21
8326.984896985439
 31
0.0
  0
LINE
  5
456
330
1F
100
AcDbEntity
  8
1
  6
Continuous
 62
     3
100
AcDbLine
 10
1680.01443056234
 20
8131.41470336909
 30
0.0
 11
1680.01443056234
 21
8326.984896985439
 31
0.0
  0
LINE
  5
457
330
1F
100
AcDbEntity
  8
1
  6
Continuous
 62
     7
100
AcDbLine
 10
720.014430562338
 20
7672.64099121447
 30
0.0
 11
720.014430562338
 21
8131.41470336909
 31
0.0
  0
LINE
  5
458
330
1F
100
AcDbEntity
  8
1
  6
Continuous
 62
     7
100
AcDbLine
 10
720.014430562338
 20
7672.64099121447
 30
0.0
 11
1680.01443056234
 21
7672.64099121447
 31
0.0
  0
LINE
  5
459
330
1F
100
AcDbEntity
  8
1
  6
Continuous
 62
     7
100
AcDbLine
 10
1680.01443056234
 20
8131.41470336909
 30
0.0
 11
1680.01443056234
 21
7672.64099121447
 31
0.0
  0
LINE
  5
45A
330
1F
100
AcDbEntity
  8
1
  6
Continuous
 62
     7
100
AcDbLine
 10
720.014430562338
 20
8131.41470336909
 30
0.0
 11
1680.01443056234
 21
8131.41470336909
 31
0.0
  0
LINE
  5
45B
330
1F
100
AcDbEntity
  8
0
  6
Continuous
 62
     7
100
AcDbLine
 10
1680.01443056234
 20
7812.92322987978
 30
0.0
 11
720.014430562338
 21
7812.92480128258
 31
0.0
  0
LINE
  5
45C
330
1F
100
AcDbEntity
  8
0
  6
Continuous
 62
     7
100
AcDbLine
 10
1680.01443056234
 20
7914.39472098641
 30
0.0
 11
720.014430562338
 21
7914.39472098641
 31
0.0
  0
LINE
  5
45D
330
1F
100
AcDbEntity
  8
1
  6
Continuous
 62
     7
100
AcDbLine
 10
720.014430562338
 20
8086.33688354488
 30
0.0
 11
1680.01443056234
 21
8086.33688354488
 31
0.0
  0
LINE
  5
45E
330
1F
100
AcDbEntity
  8
1
  6
Continuous
 62
     7
100
AcDbLine
 10
3960.01443056234
 20
7672.09121992158
 30
0.0
 11
3000.01443056234
 21
7672.09121992158
 31
0.0
  0
LINE
  5
45F
330
1F
100
AcDbEntity
  8
1
  6
Continuous
 62
     1
100
AcDbLine
 10
3960.01443056234
 20
7898.75704475998
 30
0.0
 11
3265.10278014403
 21
7898.75704475998
 31
0.0
  0
LINE
  5
460
330
1F
100
AcDbEntity
  8
VOLLE_LIJNEN
  6
Continuous
 62
     4
100
AcDbLine
 10
6142.39391789244
 20
4672.0912199216
 30
0.0
 11
6142.39391789244
 21
4644.6771204637
 31
0.0
  0
LINE
  5
461
330
1F
100
AcDbEntity
  8
VOLLE_LIJNEN
  6
Continuous
 62
     4
100
AcDbLine
 10
6084.02375682334
 20
4644.6771204637
 30
0.0
 11
6084.02375682334
 21
4672.0912199216
 31
0.0
  0
LINE
  5
462
330
1F
100
AcDbEntity
  8
VOLLE_LIJNEN
  6
Continuous
 62
     4
100
AcDbLine
 10
6817.63491139914
 20
4644.6771204637
 30
0.0
 11
6817.63491139914
 21
4672.0912199216
 31
0.0
  0
LINE
  5
463
330
1F
100
AcDbEntity
  8
VOLLE_LIJNEN
  6
Continuous
 62
     4
100
AcDbLine
 10
6875.98785460334
 20
4644.6771204637
 30
0.0
 11
6875.98785460334
 21
4672.0912199216
 31
0.0
  0
LINE
  5
464
330
1F
100
AcDbEntity
  8
VOLLE_LIJNEN
  6
Continuous
 62
     4
100
AcDbLine
 10
9805.06773490924
 20
4644.6771199681
 30
0.0
 11
9805.06773490924
 21
4672.091219426
 31
0.0
  0
LINE
  5
465
330
1F
100
AcDbEntity
  8
VOLLE_LIJNEN
  6
Continuous
 62
     4
100
AcDbLine
 10
9863.45511384304
 20
4672.091219426
 30
0.0
 11
9863.45511384304
 21
4644.6771199681
 31
0.0
  0
LINE
  5
466
330
1F
100
AcDbEntity
  8
VOLLE_LIJNEN
  6
Continuous
 62
     4
100
AcDbLine
 10
9090.600116686041
 20
4644.6771199681
 30
0.0
 11
9090.600116686041
 21
4672.091219426
 31
0.0
  0
LINE
  5
467
330
1F
100
AcDbEntity
  8
VOLLE_LIJNEN
  6
Continuous
 62
     4
100
AcDbLine
 10
9148.970302744639
 20
4644.6771199681
 30
0.0
 11
9148.970302744639
 21
4672.091219426
 31
0.0
  0
LINE
  5
468
330
1F
100
AcDbEntity
  8
0
  6
Continuous
 62
     7
100
AcDbLine
 10
6708.01436935038
 20
4914.3947209864
 30
0.0
 11
6884.06907832351
 21
4914.3947209864
 31
0.0
  0
LINE
  5
469
330
1F
100
AcDbEntity
  8
0
  6
Continuous
 62
     7
100
AcDbLine
 10
6000.01443091594
 20
4672.0912199216
 30
0.0
 11
6960.01443056234
 21
4672.0912199216
 31
0.0
  0
LINE
  5
46A
330
1F
100
AcDbEntity
  8
0
  6
Continuous
 62
     7
100
AcDbLine
 10
6276.01449195112
 20
4914.3947209864
 30
0.0
 11
6684.0143693504
 21
4914.3947209864
 31
0.0
  0
LINE
  5
46B
330
1F
100
AcDbEntity
  8
0
  6
Continuous
 62
     7
100
AcDbLine
 10
9960.014430915941
 20
4672.091219426
 30
0.0
 11
9000.014430915941
 21
4672.091219426
 31
0.0
  0
LINE
  5
46C
330
1F
100
AcDbEntity
  8
1
  6
Continuous
 62
     1
100
AcDbLine
 10
6000.01443091594
 20
4898.75704476
 30
0.0
 11
6960.01443056234
 21
4898.75704476
 31
0.0
  0
LINE
  5
46D
330
1F
100
AcDbEntity
  8
1
  6
Continuous
 62
     1
100
AcDbLine
 10
9000.01443056234
 20
4898.7995111828
 30
0.0
 11
9960.014430915941
 21
4898.7995111828
 31
0.0
  0
LINE
  5
46E
330
1F
100
AcDbEntity
  8
1
  6
Continuous
 62
     7
100
AcDbLine
 10
6960.01443056234
 20
4818.2578226062
 30
0.0
 11
6960.01443056234
 21
4898.75704476
 31
0.0
  0
LINE
  5
46F
330
1F
100
AcDbEntity
  8
1
  6
Continuous
 62
     7
100
AcDbLine
 10
6960.01443056234
 20
4672.0912199216
 30
0.0
 11
6960.01443056234
 21
4812.9241467656
 31
0.0
  0
LINE
  5
470
330
1F
100
AcDbEntity
  8
1
  6
Continuous
 62
     7
100
AcDbLine
 10
6960.01443056234
 20
4812.9241467656
 30
0.0
 11
6000.01443091594
 21
4812.9241467656
 31
0.0
  0
LINE
  5
471
330
1F
100
AcDbEntity
  8
0
  6
Continuous
 62
     7
100
AcDbLine
 10
6075.95978280116
 20
4914.3947209864
 30
0.0
 11
6252.0144917743
 21
4914.3947209864
 31
0.0
  0
LINE
  5
472
330
1F
100
AcDbEntity
  8
1
  6
Continuous
 62
     7
100
AcDbLine
 10
6000.01443056234
 20
4812.9241467656
 30
0.0
 11
6000.01443056234
 21
4672.0912199216
 31
0.0
  0
LINE
  5
473
330
1F
100
AcDbEntity
  8
1
  6
Continuous
 62
     7
100
AcDbLine
 10
6000.01443056234
 20
4898.75704476
 30
0.0
 11
6000.01443056234
 21
4818.2578226062
 31
0.0
  0
LINE
  5
474
330
1F
100
AcDbEntity
  8
1
  6
Continuous
 62
     7
100
AcDbLine
 10
9960.014430915941
 20
4672.0912199216
 30
0.0
 11
9960.014430915941
 21
4812.9241467656
 31
0.0
  0
LINE
  5
475
330
1F
100
AcDbEntity
  8
1
  6
Continuous
 62
     7
100
AcDbLine
 10
9960.014430915941
 20
4818.2578226062
 30
0.0
 11
9960.014430915941
 21
4898.75704476
 31
0.0
  0
LINE
  5
476
330
1F
100
AcDbEntity
  8
0
  6
Continuous
 62
     7
100
AcDbLine
 10
9492.014430915941
 20
4914.3947209865
 30
0.0
 11
9884.06907867711
 21
4914.3947209864
 31
0.0
  0
LINE
  5
477
330
1F
100
AcDbEntity
  8
1
  6
Continuous
 62
     7
100
AcDbLine
 10
9000.01443056234
 20
4898.7995111828
 30
0.0
 11
9000.01443056234
 21
4818.2578226062
 31
0.0
  0
LINE
  5
478
330
1F
100
AcDbEntity
  8
1
  6
Continuous
 62
     7
100
AcDbLine
 10
9000.01443056234
 20
4812.9241467656
 30
0.0
 11
9000.01443056234
 21
4672.0912199216
 31
0.0
  0
LINE
  5
479
330
1F
100
AcDbEntity
  8
1
  6
Continuous
 62
     7
100
AcDbLine
 10
9960.014430915941
 20
4812.9241467656
 30
0.0
 11
9000.014430915941
 21
4812.9241467656
 31
0.0
  0
LINE
  5
47A
330
1F
100
AcDbEntity
  8
1
  6
Continuous
 62
     7
100
AcDbLine
 10
6264.0144919511
 20
4902.3947209864
 30
0.0
 11
6264.0144919511
 21
4899.3947209864
 31
0.0
  0
LINE
  5
47B
330
1F
100
AcDbEntity
  8
1
  6
Continuous
 62
     7
100
AcDbLine
 10
6696.01436935038
 20
4902.3947209864
 30
0.0
 11
6696.01436935038
 21
4899.3947209864
 31
0.0
  0
LINE
  5
47C
330
1F
100
AcDbEntity
  8
1
  6
Continuous
 62
     7
100
AcDbLine
 10
9480.014430915941
 20
4903.0748636356
 30
0.0
 11
9480.014430915941
 21
4898.7995111828
 31
0.0
  0
LINE
  5
47D
330
1F
100
AcDbEntity
  8
0
  6
Continuous
 62
     7
100
AcDbLine
 10
9075.959783154771
 20
4914.3947209864
 30
0.0
 11
9468.014430915941
 21
4914.3947209865
 31
0.0
  0
LINE
  5
47E
330
1F
100
AcDbEntity
  8
1
  6
Continuous
 62
     7
100
AcDbLine
 10
1560.01443056234
 20
4508.0845336914
 30
0.0
 11
1680.01443056234
 21
4508.0845336914
 31
0.0
  0
LINE
  5
47F
330
1F
100
AcDbEntity
  8
1
  6
Continuous
 62
     4
100
AcDbLine
 10
1679.47335891249
 20
4500.0
 30
0.0
 11
1560.54812696422
 21
4500.0
 31
0.0
  0
LINE
  5
480
330
1F
100
AcDbEntity
  8
1
  6
Continuous
 62
     4
100
AcDbLine
 10
1679.47335891249
 20
4500.0
 30
0.0
 11
1680.01443056234
 21
4508.0845336914
 31
0.0
  0
LINE
  5
481
330
1F
100
AcDbEntity
  8
1
  6
Continuous
 62
     4
100
AcDbLine
 10
1560.54812696422
 20
4500.0
 30
0.0
 11
1560.00980130225
 21
4508.1546585959
 31
0.0
  0
LINE
  5
482
330
1F
100
AcDbEntity
  8
1
  6
Continuous
 62
     4
100
AcDbLine
 10
840.019059822438
 20
4508.1546585959
 30
0.0
 11
839.4807341604681
 21
4500.0
 31
0.0
  0
LINE
  5
483
330
1F
100
AcDbEntity
  8
1
  6
Continuous
 62
     4
100
AcDbLine
 10
720.014430562338
 20
4508.0845336914
 30
0.0
 11
720.555502212188
 21
4500.0
 31
0.0
  0
LINE
  5
484
330
1F
100
AcDbEntity
  8
1
  6
Continuous
 62
     4
100
AcDbLine
 10
839.4807341604681
 20
4500.0
 30
0.0
 11
720.555502212188
 21
4500.0
 31
0.0
  0
LINE
  5
485
330
1F
100
AcDbEntity
  8
1
  6
Continuous
 62
     7
100
AcDbLine
 10
720.014430562338
 20
4508.0845336914
 30
0.0
 11
840.014430562338
 21
4508.0845336914
 31
0.0
  0
LINE
  5
486
330
1F
100
AcDbEntity
  8
1
  6
Continuous
 62
     4
100
AcDbLine
 10
3000.01443056234
 20
4500.0
 30
0.0
 11
3960.01443056233
 21
4500.0
 31
0.0
  0
LINE
  5
487
330
1F
100
AcDbEntity
  8
1
  6
Continuous
 62
     4
100
AcDbLine
 10
3000.01443056234
 20
4508.0845336914
 30
0.0
 11
3025.28229477345
 21
4508.0845336914
 31
0.0
  0
LINE
  5
488
330
1F
100
AcDbEntity
  8
1
  6
Continuous
 62
     4
100
AcDbLine
 10
3934.74656635122
 20
4508.0845336914
 30
0.0
 11
3960.01443056233
 21
4508.0845336914
 31
0.0
  0
LINE
  5
489
330
1F
100
AcDbEntity
  8
VOLLE_LIJNEN
  6
Continuous
 62
     4
100
AcDbLine
 10
820.932149887938
 20
7550.42390453926
 30
0.0
 11
832.020779695838
 21
7550.42390453926
 31
0.0
  0
LINE
  5
48A
330
1F
100
AcDbEntity
  8
VOLLE_LIJNEN
  6
Continuous
 62
     4
100
AcDbLine
 10
804.023756823338
 20
7644.67712046366
 30
0.0
 11
804.023756823338
 21
7672.09121992156
 31
0.0
  0
LINE
  5
48B
330
1F
100
AcDbEntity
  8
VOLLE_LIJNEN
  6
Continuous
 62
     4
100
AcDbLine
 10
820.932149887938
 20
7642.66255531106
 30
0.0
 11
820.932149887938
 21
7550.42390453926
 31
0.0
  0
LINE
  5
48C
330
1F
100
AcDbEntity
  8
VOLLE_LIJNEN
  6
Continuous
 62
     4
100
AcDbLine
 10
956.733223140938
 20
7541.37567917596
 30
0.0
 11
957.302916083945
 21
7543.45188161643
 31
0.0
  0
LINE
  5
48D
330
1F
100
AcDbEntity
  8
VOLLE_LIJNEN
  6
Continuous
 62
     4
100
AcDbLine
 10
954.330353018628
 20
7532.48823300307
 30
0.0
 11
956.733223140938
 21
7541.37567917596
 31
0.0
  0
LINE
  5
48E
330
1F
100
AcDbEntity
  8
VOLLE_LIJNEN
  6
Continuous
 62
     4
100
AcDbLine
 10
946.281679320938
 20
7516.67596487986
 30
0.0
 11
937.483125492238
 21
7516.67596487986
 31
0.0
  0
LINE
  5
48F
330
1F
100
AcDbEntity
  8
VOLLE_LIJNEN
  6
Continuous
 62
     4
100
AcDbLine
 10
952.399673167059
 20
7531.01022467996
 30
0.0
 11
948.3995516624379
 21
7531.01022467996
 31
0.0
  0
LINE
  5
490
330
1F
100
AcDbEntity
  8
VOLLE_LIJNEN
  6
Continuous
 62
     4
100
AcDbLine
 10
982.767359444838
 20
7541.37567917596
 30
0.0
 11
964.653665863838
 21
7541.37567917596
 31
0.0
  0
LINE
  5
491
330
1F
100
AcDbEntity
  8
VOLLE_LIJNEN
  6
Continuous
 62
     4
100
AcDbLine
 10
986.365993150338
 20
7542.92265928696
 30
0.0
 11
986.365993150338
 21
7541.65116501306
 31
0.0
  0
LINE
  5
492
330
1F
100
AcDbEntity
  8
VOLLE_LIJNEN
  6
Continuous
 62
     4
100
AcDbLine
 10
959.231626462925
 20
7544.92265928696
 30
0.0
 11
984.365993150338
 21
7544.92265928696
 31
0.0
  0
LINE
  5
493
330
1F
100
AcDbEntity
  8
VOLLE_LIJNEN
  6
Continuous
 62
     4
100
AcDbLine
 10
964.653665863838
 20
7541.37567917596
 30
0.0
 11
961.106685752738
 21
7528.08311269206
 31
0.0
  0
LINE
  5
494
330
1F
100
AcDbEntity
  8
VOLLE_LIJNEN
  6
Continuous
 62
     4
100
AcDbLine
 10
845.4855248278381
 20
7599.28095789496
 30
0.0
 11
845.4855248278381
 21
7600.92530146946
 31
0.0
  0
LINE
  5
495
330
1F
100
AcDbEntity
  8
VOLLE_LIJNEN
  6
Continuous
 62
     4
100
AcDbLine
 10
896.486239837838
 20
7624.19588300646
 30
0.0
 11
911.845000079138
 21
7619.69329890326
 31
0.0
  0
LINE
  5
496
330
1F
100
AcDbEntity
  8
VOLLE_LIJNEN
  6
Continuous
 62
     4
100
AcDbLine
 10
888.118132629748
 20
7623.89458286696
 30
0.0
 11
890.959155293538
 21
7623.11113253326
 31
0.0
  0
LINE
  5
497
330
1F
100
AcDbEntity
  8
VOLLE_LIJNEN
  6
Continuous
 62
     4
100
AcDbLine
 10
845.4855248278381
 20
7635.904355947761
 30
0.0
 11
888.118132629748
 21
7623.89458286696
 31
0.0
  0
LINE
  5
498
330
1F
100
AcDbEntity
  8
VOLLE_LIJNEN
  6
Continuous
 62
     4
100
AcDbLine
 10
845.4855248278381
 20
7638.54738566106
 30
0.0
 11
845.4855248278381
 21
7642.66255531106
 31
0.0
  0
LINE
  5
499
330
1F
100
AcDbEntity
  8
VOLLE_LIJNEN
  6
Continuous
 62
     4
100
AcDbLine
 10
833.208837357838
 20
7641.99105858316
 30
0.0
 11
896.486239837838
 21
7624.19588300646
 31
0.0
  0
LINE
  5
49A
330
1F
100
AcDbEntity
  8
VOLLE_LIJNEN
  6
Continuous
 62
     4
100
AcDbLine
 10
845.4855248278381
 20
7600.92530146946
 30
0.0
 11
845.4855248278381
 21
7635.904355947761
 31
0.0
  0
LINE
  5
49B
330
1F
100
AcDbEntity
  8
VOLLE_LIJNEN
  6
Continuous
 62
     4
100
AcDbLine
 10
862.393917892438
 20
7672.09121992156
 30
0.0
 11
862.393917892438
 21
7644.67712046366
 31
0.0
  0
LINE
  5
49C
330
1F
100
AcDbEntity
  8
VOLLE_LIJNEN
  6
Continuous
 62
     4
100
AcDbLine
 10
1595.98785460334
 20
7644.67712046366
 30
0.0
 11
1595.98785460334
 21
7672.09121992156
 31
0.0
  0
LINE
  5
49D
330
1F
100
AcDbEntity
  8
VOLLE_LIJNEN
  6
Continuous
 62
     4
100
AcDbLine
 10
1537.63491139914
 20
7644.67712046366
 30
0.0
 11
1537.63491139914
 21
7672.09121992156
 31
0.0
  0
LINE
  5
49E
330
1F
100
AcDbEntity
  8
VOLLE_LIJNEN
  6
Continuous
 62
     4
100
AcDbLine
 10
3090.60011668604
 20
7644.67711996806
 30
0.0
 11
3148.97030274464
 21
7644.67711996806
 31
0.0
  0
LINE
  5
49F
330
1F
100
AcDbEntity
  8
VOLLE_LIJNEN
  6
Continuous
 62
     4
100
AcDbLine
 10
3148.97030274464
 20
7644.67711996806
 30
0.0
 11
3148.97030274464
 21
7672.09121942596
 31
0.0
  0
LINE
  5
4A0
330
1F
100
AcDbEntity
  8
VOLLE_LIJNEN
  6
Continuous
 62
     4
100
AcDbLine
 10
3108.54163161894
 20
7622.17274591036
 30
0.0
 11
3091.58155997025
 21
7622.17274591036
 31
0.0
  0
LINE
  5
4A1
330
1F
100
AcDbEntity
  8
VOLLE_LIJNEN
  6
Continuous
 62
     4
100
AcDbLine
 10
3107.47409901054
 20
7622.17274591036
 30
0.0
 11
3107.47409901054
 21
7644.67711996806
 31
0.0
  0
LINE
  5
4A2
330
1F
100
AcDbEntity
  8
VOLLE_LIJNEN
  6
Continuous
 62
     4
100
AcDbLine
 10
3132.06188469055
 20
7644.67711996806
 30
0.0
 11
3132.06188469055
 21
7622.17274591036
 31
0.0
  0
LINE
  5
4A3
330
1F
100
AcDbEntity
  8
VOLLE_LIJNEN
  6
Continuous
 62
     4
100
AcDbLine
 10
3140.27503111525
 20
7539.83461730506
 30
0.0
 11
3140.27503111525
 21
7542.92265879136
 31
0.0
  0
LINE
  5
4A4
330
1F
100
AcDbEntity
  8
VOLLE_LIJNEN
  6
Continuous
 62
     4
100
AcDbLine
 10
3099.32982404505
 20
7542.92265879136
 30
0.0
 11
3099.32982404505
 21
7539.83461730506
 31
0.0
  0
LINE
  5
4A5
330
1F
100
AcDbEntity
  8
VOLLE_LIJNEN
  6
Continuous
 62
     4
100
AcDbLine
 10
3099.32982404505
 20
7539.83461730506
 30
0.0
 11
3140.27503111525
 21
7539.83461730506
 31
0.0
  0
LINE
  5
4A6
330
1F
100
AcDbEntity
  8
VOLLE_LIJNEN
  6
Continuous
 62
     4
100
AcDbLine
 10
3138.27503111525
 20
7544.92265879136
 30
0.0
 11
3101.32982404505
 21
7544.92265879136
 31
0.0
  0
LINE
  5
4A7
330
1F
100
AcDbEntity
  8
VOLLE_LIJNEN
  6
Continuous
 62
     4
100
AcDbLine
 10
3090.60011668604
 20
7644.67711996806
 30
0.0
 11
3090.60011668604
 21
7672.09121942596
 31
0.0
  0
LINE
  5
4A8
330
1F
100
AcDbEntity
  8
VOLLE_LIJNEN
  6
Continuous
 62
     4
100
AcDbLine
 10
3863.45511384304
 20
7672.09121942596
 30
0.0
 11
3863.45511384304
 21
7644.67711996806
 31
0.0
  0
LINE
  5
4A9
330
1F
100
AcDbEntity
  8
VOLLE_LIJNEN
  6
Continuous
 62
     4
100
AcDbLine
 10
3805.06773490924
 20
7644.67711996806
 30
0.0
 11
3805.06773490924
 21
7672.09121942596
 31
0.0
  0
LINE
  5
4AA
330
1F
100
AcDbEntity
  8
1
  6
Continuous
 62
     4
100
AcDbLine
 10
3454.74656635122
 20
1500.0
 30
0.0
 11
3480.01443056233
 21
1500.0
 31
0.0
  0
LINE
  5
4AB
330
1F
100
AcDbEntity
  8
1
  6
Continuous
 62
     4
100
AcDbLine
 10
3000.01443056234
 20
1500.0
 30
0.0
 11
3480.01443056233
 21
1500.0
 31
0.0
  0
LINE
  5
4AC
330
1F
100
AcDbEntity
  8
1
  6
Continuous
 62
     7
100
AcDbLine
 10
720.014430562338
 20
1508.0845336914
 30
0.0
 11
840.014430562338
 21
1508.0845336914
 31
0.0
  0
LINE
  5
4AD
330
1F
100
AcDbEntity
  8
1
  6
Continuous
 62
     4
100
AcDbLine
 10
839.4807341604681
 20
1500.0
 30
0.0
 11
720.555502212188
 21
1500.0
 31
0.0
  0
LINE
  5
4AE
330
1F
100
AcDbEntity
  8
1
  6
Continuous
 62
     4
100
AcDbLine
 10
720.014430562338
 20
1508.0845336914
 30
0.0
 11
720.555502212188
 21
1500.0
 31
0.0
  0
LINE
  5
4AF
330
1F
100
AcDbEntity
  8
1
  6
Continuous
 62
     4
100
AcDbLine
 10
840.019059822438
 20
1508.1546585959
 30
0.0
 11
839.4807341604681
 21
1500.0
 31
0.0
  0
LINE
  5
4B0
330
1F
100
AcDbEntity
  8
1
  6
Continuous
 62
     4
100
AcDbLine
 10
1560.54812696422
 20
1500.0
 30
0.0
 11
1560.00980130225
 21
1508.1546585959
 31
0.0
  0
LINE
  5
4B1
330
1F
100
AcDbEntity
  8
1
  6
Continuous
 62
     4
100
AcDbLine
 10
1679.47335891249
 20
1500.0
 30
0.0
 11
1680.01443056234
 21
1508.0845336914
 31
0.0
  0
LINE
  5
4B2
330
1F
100
AcDbEntity
  8
1
  6
Continuous
 62
     4
100
AcDbLine
 10
1679.47335891249
 20
1500.0
 30
0.0
 11
1560.54812696422
 21
1500.0
 31
0.0
  0
LINE
  5
4B3
330
1F
100
AcDbEntity
  8
1
  6
Continuous
 62
     7
100
AcDbLine
 10
1560.01443056234
 20
1508.0845336914
 30
0.0
 11
1680.01443056234
 21
1508.0845336914
 31
0.0
  0
LINE
  5
4B4
330
1F
100
AcDbEntity
  8
0
  6
Continuous
 62
     7
100
AcDbLine
 10
1428.01436935038
 20
1914.3947209864
 30
0.0
 11
1604.06907832351
 21
1914.3947209864
 31
0.0
  0
LINE
  5
4B5
330
1F
100
AcDbEntity
  8
0
  6
Continuous
 62
     7
100
AcDbLine
 10
996.014491951118
 20
1914.3947209864
 30
0.0
 11
1404.0143693504
 21
1914.3947209864
 31
0.0
  0
LINE
  5
4B6
330
1F
100
AcDbEntity
  8
0
  6
Continuous
 62
     7
100
AcDbLine
 10
3480.01443056234
 20
1508.0845336914
 30
0.0
 11
3000.01443056234
 21
1508.0845336914
 31
0.0
  0
LINE
  5
4B7
330
1F
100
AcDbEntity
  8
0
  6
Continuous
 62
     7
100
AcDbLine
 10
720.014430739138
 20
0.0
 30
0.0
 11
720.014430739138
 21
480.0
 31
0.0
  0
LINE
  5
4B8
330
1F
100
AcDbEntity
  8
0
  6
Continuous
 62
     1
100
AcDbLine
 10
984.014491774298
 20
0.3030615432981
 30
0.0
 11
984.014491774298
 21
480.0
 31
0.0
  0
LINE
  5
4B9
330
1F
100
AcDbEntity
  8
0
  6
Continuous
 62
     7
100
AcDbLine
 10
720.014430739138
 20
0.0
 30
0.0
 11
1680.01443038554
 21
0.0
 31
0.0
  0
LINE
  5
4BA
330
1F
100
AcDbEntity
  8
0
  6
Continuous
 62
     7
100
AcDbLine
 10
720.014430739138
 20
480.0
 30
0.0
 11
1680.01443038554
 21
480.0
 31
0.0
  0
LINE
  5
4BB
330
1F
100
AcDbEntity
  8
0
  6
Continuous
 62
     7
100
AcDbLine
 10
1680.01443038554
 20
0.0
 30
0.0
 11
1680.01443038554
 21
480.0
 31
0.0
  0
LINE
  5
4BC
330
1F
100
AcDbEntity
  8
1
  6
Continuous
 62
     1
100
AcDbLine
 10
720.014430915938
 20
1898.75704476
 30
0.0
 11
1680.01443056234
 21
1898.75704476
 31
0.0
  0
LINE
  5
4BD
330
1F
100
AcDbEntity
  8
1
  6
Continuous
 62
     1
100
AcDbLine
 10
3000.01443020874
 20
1898.7995111828
 30
0.0
 11
3480.01443056234
 21
1898.7995111828
 31
0.0
  0
LINE
  5
4BE
330
1F
100
AcDbEntity
  8
1
  6
Continuous
 62
     7
100
AcDbLine
 10
1680.01443056234
 20
1818.2578226062
 30
0.0
 11
1680.01443056234
 21
1898.75704476
 31
0.0
  0
LINE
  5
4BF
330
1F
100
AcDbEntity
  8
1
  6
Continuous
 62
     7
100
AcDbLine
 10
1680.01443056234
 20
1508.084534187
 30
0.0
 11
1680.01443056234
 21
1812.9241467656
 31
0.0
  0
LINE
  5
4C0
330
1F
100
AcDbEntity
  8
1
  6
Continuous
 62
     7
100
AcDbLine
 10
1680.01443056234
 20
1812.9241467656
 30
0.0
 11
720.014430915938
 21
1812.9241467656
 31
0.0
  0
LINE
  5
4C1
330
1F
100
AcDbEntity
  8
0
  6
Continuous
 62
     7
100
AcDbLine
 10
795.959782801158
 20
1914.3947209864
 30
0.0
 11
972.014491774298
 21
1914.3947209864
 31
0.0
  0
LINE
  5
4C2
330
1F
100
AcDbEntity
  8
1
  6
Continuous
 62
     7
100
AcDbLine
 10
720.014430562338
 20
1812.9241467656
 30
0.0
 11
720.014430562338
 21
1508.084534187
 31
0.0
  0
LINE
  5
4C3
330
1F
100
AcDbEntity
  8
1
  6
Continuous
 62
     7
100
AcDbLine
 10
720.014430562338
 20
1898.75704476
 30
0.0
 11
720.014430562338
 21
1818.2578226062
 31
0.0
  0
LINE
  5
4C4
330
1F
100
AcDbEntity
  8
1
  6
Continuous
 62
     7
100
AcDbLine
 10
3480.01443056233
 20
1508.084534187
 30
0.0
 11
3480.01443056234
 21
1812.9241467656
 31
0.0
  0
LINE
  5
4C5
330
1F
100
AcDbEntity
  8
1
  6
Continuous
 62
     7
100
AcDbLine
 10
3480.01443056234
 20
1818.2578226062
 30
0.0
 11
3480.01443056234
 21
1898.75704476
 31
0.0
  0
LINE
  5
4C6
330
1F
100
AcDbEntity
  8
1
  6
Continuous
 62
     7
100
AcDbLine
 10
3000.01443020874
 20
1898.7995111828
 30
0.0
 11
3000.01443020874
 21
1818.2578226062
 31
0.0
  0
LINE
  5
4C7
330
1F
100
AcDbEntity
  8
1
  6
Continuous
 62
     7
100
AcDbLine
 10
3000.01443020874
 20
1812.9241467656
 30
0.0
 11
3000.01443020874
 21
1508.084534187
 31
0.0
  0
LINE
  5
4C8
330
1F
100
AcDbEntity
  8
1
  6
Continuous
 62
     7
100
AcDbLine
 10
3480.01443056234
 20
1812.9241467656
 30
0.0
 11
3000.01443056234
 21
1812.9241467656
 31
0.0
  0
LINE
  5
4C9
330
1F
100
AcDbEntity
  8
1
  6
Continuous
 62
     7
100
AcDbLine
 10
984.014491951098
 20
1902.3947209864
 30
0.0
 11
984.014491951098
 21
1899.3947209864
 31
0.0
  0
LINE
  5
4CA
330
1F
100
AcDbEntity
  8
1
  6
Continuous
 62
     7
100
AcDbLine
 10
1416.01436935038
 20
1902.3947209864
 30
0.0
 11
1416.01436935038
 21
1899.3947209864
 31
0.0
  0
LINE
  5
4CB
330
1F
100
AcDbEntity
  8
0
  6
Continuous
 62
     7
100
AcDbLine
 10
3075.95978280116
 20
1914.3947209864
 30
0.0
 11
3404.06907834711
 21
1914.3947209865
 31
0.0
  0
LINE
  5
4CC
330
1F
100
AcDbEntity
  8
0
  6
Continuous
 62
     1
100
AcDbLine
 10
1416.01436917358
 20
0.3030615432981
 30
0.0
 11
1416.01436917358
 21
480.0
 31
0.0
  0
LINE
  5
4CD
330
1F
100
AcDbEntity
  8
1
  6
Continuous
 62
     4
100
AcDbLine
 10
2280.01443056234
 20
22508.0845336914
 30
0.0
 11
2400.01443056234
 21
22508.0845336914
 31
0.0
  0
LINE
  5
4CE
330
1F
100
AcDbEntity
  8
1
  6
Continuous
 62
     7
100
AcDbLine
 10
2280.01443056234
 20
22508.1546585959
 30
0.0
 11
2400.01443056234
 21
22508.1546585959
 31
0.0
  0
LINE
  5
4CF
330
1F
100
AcDbEntity
  8
1
  6
Continuous
 62
     4
100
AcDbLine
 10
3960.01443056233
 20
22508.0845336914
 30
0.0
 11
3960.01443056233
 21
22500.0
 31
0.0
  0
LINE
  5
4D0
330
1F
100
AcDbEntity
  8
1
  6
Continuous
 62
     4
100
AcDbLine
 10
3000.01443056234
 20
22508.0845336914
 30
0.0
 11
3000.01443056234
 21
22500.0
 31
0.0
  0
LINE
  5
4D1
330
1F
100
AcDbEntity
  8
1
  6
Continuous
 62
     4
100
AcDbLine
 10
32039.4733589124
 20
19507.604887303
 30
0.0
 11
32039.4733589124
 21
19500.0
 31
0.0
  0
LINE
  5
4D2
330
1F
100
AcDbEntity
  8
1
  6
Continuous
 62
     4
100
AcDbLine
 10
35960.0144305623
 20
19500.0
 30
0.0
 11
35960.0144305623
 21
19508.0845336914
 31
0.0
  0
LINE
  5
4D3
330
1F
100
AcDbEntity
  8
1
  6
Continuous
 62
     4
100
AcDbLine
 10
35000.0144305623
 20
19500.0
 30
0.0
 11
35000.0144305623
 21
19507.604887303
 31
0.0
  0
LINE
  5
4D4
330
1F
100
AcDbEntity
  8
1
  6
Continuous
 62
     4
100
AcDbLine
 10
32039.4733589124
 20
19500.0
 30
0.0
 11
32039.4733589124
 21
19507.604887303
 31
0.0
  0
LINE
  5
4D5
330
1F
100
AcDbEntity
  8
1
  6
Continuous
 62
     4
100
AcDbLine
 10
32999.4733589124
 20
19500.0
 30
0.0
 11
32999.4733589124
 21
19507.604887303
 31
0.0
  0
LINE
  5
4D6
330
1F
100
AcDbEntity
  8
1
  6
Continuous
 62
     4
100
AcDbLine
 10
21800.0144305623
 20
16500.0
 30
0.0
 11
21800.0144305623
 21
16508.0845336914
 31
0.0
  0
LINE
  5
4D7
330
1F
100
AcDbEntity
  8
1
  6
Continuous
 62
     4
100
AcDbLine
 10
22760.0144305622
 20
16500.0
 30
0.0
 11
22760.0144305622
 21
16507.604887303
 31
0.0
  0
LINE
  5
4D8
330
1F
100
AcDbEntity
  8
1
  6
Continuous
 62
     4
100
AcDbLine
 10
25000.0144305623
 20
16500.0
 30
0.0
 11
25000.0144305623
 21
16508.0845336914
 31
0.0
  0
LINE
  5
4D9
330
1F
100
AcDbEntity
  8
1
  6
Continuous
 62
     4
100
AcDbLine
 10
25960.0144305622
 20
16500.0
 30
0.0
 11
25960.0144305622
 21
16507.604887303
 31
0.0
  0
LINE
  5
4DA
330
1F
100
AcDbEntity
  8
0
  6
Continuous
 62
     7
100
AcDbLine
 10
840.014430562338
 20
1672.0912199216
 30
0.0
 11
1560.01443056234
 21
1672.0912199216
 31
0.0
  0
LINE
  5
4DB
330
1F
100
AcDbEntity
  8
1
  6
Continuous
 62
     7
100
AcDbLine
 10
840.014430562338
 20
1812.9241467656
 30
0.0
 11
840.014430562338
 21
1508.0845336914
 31
0.0
  0
LINE
  5
4DC
330
1F
100
AcDbEntity
  8
1
  6
Continuous
 62
     7
100
AcDbLine
 10
1560.01443056234
 20
1508.0845336914
 30
0.0
 11
1560.01443056234
 21
1812.9241467656
 31
0.0
  0
LINE
  5
4DD
330
1F
100
AcDbEntity
  8
1
  6
Continuous
 62
     7
100
AcDbLine
 10
840.014430562338
 20
4812.9241467656
 30
0.0
 11
840.014430562338
 21
4508.0845336914
 31
0.0
  0
LINE
  5
4DE
330
1F
100
AcDbEntity
  8
1
  6
Continuous
 62
     7
100
AcDbLine
 10
1560.01443056234
 20
4508.0845336914
 30
0.0
 11
1560.01443056234
 21
4812.9241467656
 31
0.0
  0
LINE
  5
4DF
330
1F
100
AcDbEntity
  8
1
  6
Continuous
 62
     4
100
AcDbLine
 10
3000.01443056234
 20
4508.0845336914
 30
0.0
 11
3000.01443056234
 21
4500.0
 31
0.0
  0
LINE
  5
4E0
330
1F
100
AcDbEntity
  8
1
  6
Continuous
 62
     4
100
AcDbLine
 10
3960.01443056233
 20
4500.0
 30
0.0
 11
3960.01443056233
 21
4508.084534187
 31
0.0
  0
LINE
  5
4E1
330
1F
100
AcDbEntity
  8
1
  6
Continuous
 62
     4
100
AcDbLine
 10
3000.01443056234
 20
1500.0
 30
0.0
 11
3000.01443056234
 21
1508.0845336914
 31
0.0
  0
LINE
  5
4E2
330
1F
100
AcDbEntity
  8
1
  6
Continuous
 62
     4
100
AcDbLine
 10
3480.01443056233
 20
1500.0
 30
0.0
 11
3480.01443056233
 21
1508.084534187
 31
0.0
  0
LINE
  5
4E3
330
1F
100
AcDbEntity
  8
1
  6
Continuous
 62
     7
100
AcDbLine
 10
2050.01443056234
 20
14015.9598426944
 30
0.0
 11
2050.01443056234
 21
13919.7283968281
 31
0.0
  0
LINE
  5
4E4
330
1F
100
AcDbEntity
  8
1
  6
Continuous
 62
     7
100
AcDbLine
 10
25265.102780144
 20
17012.701675415
 30
0.0
 11
25273.9536417986
 21
17019.5398694386
 31
0.0
  0
ARC
  5
4E5
330
1F
100
AcDbEntity
  8
1
  6
Continuous
 62
     4
100
AcDbCircle
 10
9138.27503111524
 20
4542.9226587914
 30
0.0
 40
2.0
100
AcDbArc
 50
0.0
 51
90.0
  0
ARC
  5
4E6
330
1F
100
AcDbEntity
  8
1
  6
Continuous
 62
     4
100
AcDbCircle
 10
9101.32982404505
 20
4542.9226587914
 30
0.0
 40
2.0
100
AcDbArc
 50
90.0
 51
180.0
  0
ARC
  5
4E7
330
1F
100
AcDbEntity
  8
1
  6
Continuous
 62
     4
100
AcDbCircle
 10
9815.81463514345
 20
4542.9226587914
 30
0.0
 40
2.0
100
AcDbArc
 50
90.0
 51
180.0
  0
ARC
  5
4E8
330
1F
100
AcDbEntity
  8
1
  6
Continuous
 62
     4
100
AcDbCircle
 10
9852.759842213651
 20
4542.9226587914
 30
0.0
 40
2.0
100
AcDbArc
 50
0.0
 51
90.0
  0
ARC
  5
4E9
330
1F
100
AcDbEntity
  8
1
  6
Continuous
 62
     4
100
AcDbCircle
 10
6264.36599315034
 20
4542.922659287
 30
0.0
 40
2.0
100
AcDbArc
 50
0.0
 51
90.0
  0
ARC
  5
4EA
330
1F
100
AcDbEntity
  8
1
  6
Continuous
 62
     4
100
AcDbCircle
 10
6239.23162646292
 20
4542.922659287
 30
0.0
 40
2.0
100
AcDbArc
 50
90.0
 51
164.656150570078
  0
ARC
  5
4EB
330
1F
100
AcDbEntity
  8
1
  6
Continuous
 62
     4
100
AcDbCircle
 10
6232.39967316706
 20
4533.01022468
 30
0.0
 40
2.0
100
AcDbArc
 50
-90.0
 51
-15.12915987191148
  0
ARC
  5
4EC
330
1F
100
AcDbEntity
  8
1
  6
Continuous
 62
     4
100
AcDbCircle
 10
6966.01082774286
 20
4533.01022468
 30
0.0
 40
2.0
100
AcDbArc
 50
-90.0
 51
-15.12915987191148
  0
ARC
  5
4ED
330
1F
100
AcDbEntity
  8
1
  6
Continuous
 62
     4
100
AcDbCircle
 10
6972.84278103873
 20
4542.922659287
 30
0.0
 40
2.0
100
AcDbArc
 50
90.0
 51
164.6561505701539
  0
ARC
  5
4EE
330
1F
100
AcDbEntity
  8
1
  6
Continuous
 62
     4
100
AcDbCircle
 10
6997.97714772614
 20
4542.922659287
 30
0.0
 40
2.0
100
AcDbArc
 50
0.0
 51
90.0
  0
ARC
  5
4EF
330
1F
100
AcDbEntity
  8
1
  6
Continuous
 62
     4
100
AcDbCircle
 10
3852.75984221364
 20
7542.92265879136
 30
0.0
 40
2.0
100
AcDbArc
 50
0.0
 51
90.0
  0
ARC
  5
4F0
330
1F
100
AcDbEntity
  8
1
  6
Continuous
 62
     4
100
AcDbCircle
 10
3815.81463514345
 20
7542.92265879136
 30
0.0
 40
2.0
100
AcDbArc
 50
90.0
 51
180.0
  0
ARC
  5
4F1
330
1F
100
AcDbEntity
  8
1
  6
Continuous
 62
     4
100
AcDbCircle
 10
3101.32982404505
 20
7542.92265879136
 30
0.0
 40
2.0
100
AcDbArc
 50
90.0
 51
180.0
  0
ARC
  5
4F2
330
1F
100
AcDbEntity
  8
1
  6
Continuous
 62
     4
100
AcDbCircle
 10
3138.27503111525
 20
7542.92265879136
 30
0.0
 40
2.0
100
AcDbArc
 50
0.0
 51
90.0
  0
ARC
  5
4F3
330
1F
100
AcDbEntity
  8
1
  6
Continuous
 62
     4
100
AcDbCircle
 10
1717.97714772614
 20
7542.92265928696
 30
0.0
 40
2.0
100
AcDbArc
 50
0.0
 51
90.0
  0
ARC
  5
4F4
330
1F
100
AcDbEntity
  8
1
  6
Continuous
 62
     4
100
AcDbCircle
 10
1692.84278103873
 20
7542.92265928696
 30
0.0
 40
2.0
100
AcDbArc
 50
90.0
 51
164.6561505701521
  0
ARC
  5
4F5
330
1F
100
AcDbEntity
  8
1
  6
Continuous
 62
     4
100
AcDbCircle
 10
1686.01082774286
 20
7533.01022467996
 30
0.0
 40
2.0
100
AcDbArc
 50
-90.0
 51
-15.12915987191148
  0
ARC
  5
4F6
330
1F
100
AcDbEntity
  8
1
  6
Continuous
 62
     4
100
AcDbCircle
 10
952.399673167059
 20
7533.01022467996
 30
0.0
 40
2.0
100
AcDbArc
 50
-90.0
 51
-15.12915987191828
  0
ARC
  5
4F7
330
1F
100
AcDbEntity
  8
1
  6
Continuous
 62
     4
100
AcDbCircle
 10
959.231626462925
 20
7542.92265928696
 30
0.0
 40
2.0
100
AcDbArc
 50
90.0
 51
164.6561505701521
  0
ARC
  5
4F8
330
1F
100
AcDbEntity
  8
1
  6
Continuous
 62
     4
100
AcDbCircle
 10
984.365993150338
 20
7542.92265928696
 30
0.0
 40
2.0
100
AcDbArc
 50
0.0
 51
90.0
  0
ARC
  5
4F9
330
1F
100
AcDbEntity
  8
1
  6
Continuous
 62
     7
100
AcDbCircle
 10
9939.1099678673
 20
4859.92019346105
 30
0.0
 40
46.9999999999992
100
AcDbArc
 50
-89.25685787226527
 51
-63.59100398081364
  0
ARC
  5
4FA
330
1F
100
AcDbEntity
  8
1
  6
Continuous
 62
     7
100
AcDbCircle
 10
6939.1099675137
 20
4859.92019346105
 30
0.0
 40
46.99999999999906
100
AcDbArc
 50
-89.25685787227859
 51
-63.59100398081463
  0
ARC
  5
4FB
330
1F
100
AcDbEntity
  8
1
  6
Continuous
 62
     7
100
AcDbCircle
 10
9020.91889361097
 20
4860.35299364337
 30
0.0
 40
47.00000000000132
100
AcDbArc
 50
-116.4089960191745
 51
-90.74314212772141
  0
ARC
  5
4FC
330
1F
100
AcDbEntity
  8
1
  6
Continuous
 62
     7
100
AcDbCircle
 10
6020.91889396457
 20
4860.35299346777
 30
0.0
 40
47.00000000000172
100
AcDbArc
 50
-116.4089960191755
 51
-90.74314212772254
  0
ARC
  5
4FD
330
1F
100
AcDbEntity
  8
1
  6
Continuous
 62
     7
100
AcDbCircle
 10
3459.1099675137
 20
1859.92019346105
 30
0.0
 40
46.99999999999929
100
AcDbArc
 50
-89.25685787227859
 51
-63.59100398081463
  0
ARC
  5
4FE
330
1F
100
AcDbEntity
  8
1
  6
Continuous
 62
     7
100
AcDbCircle
 10
1659.1099675137
 20
1859.92019346105
 30
0.0
 40
46.9999999999993
100
AcDbArc
 50
-89.25685787227803
 51
-63.59100398081413
  0
ARC
  5
4FF
330
1F
100
AcDbEntity
  8
1
  6
Continuous
 62
     7
100
AcDbCircle
 10
3020.91889325737
 20
1860.35299364337
 30
0.0
 40
47.00000000000132
100
AcDbArc
 50
-116.4089960191751
 51
-90.74314212772198
  0
ARC
  5
500
330
1F
100
AcDbEntity
  8
1
  6
Continuous
 62
     7
100
AcDbCircle
 10
740.918893610973
 20
1860.35299364337
 30
0.0
 40
47.00000000000349
100
AcDbArc
 50
-116.4089960191804
 51
-90.74314212772309
  0
ARC
  5
501
330
1F
100
AcDbEntity
  8
1
  6
Continuous
 62
     7
100
AcDbCircle
 10
3939.1099675137
 20
4859.92019346105
 30
0.0
 40
46.99999999999906
100
AcDbArc
 50
-89.25685787227859
 51
-63.59100398081463
  0
ARC
  5
502
330
1F
100
AcDbEntity
  8
1
  6
Continuous
 62
     7
100
AcDbCircle
 10
1659.1099675137
 20
4860.35299346777
 30
0.0
 40
46.99999999999907
100
AcDbArc
 50
-89.25685787227803
 51
-63.59100398081413
  0
ARC
  5
503
330
1F
100
AcDbEntity
  8
1
  6
Continuous
 62
     7
100
AcDbCircle
 10
740.918893964573
 20
4860.35299346777
 30
0.0
 40
47.00000000000375
100
AcDbArc
 50
-116.4089960191804
 51
-90.74314212772447
  0
ARC
  5
504
330
1F
100
AcDbEntity
  8
1
  6
Continuous
 62
     7
100
AcDbCircle
 10
3020.91889361097
 20
4859.92019346105
 30
0.0
 40
47.00000000000152
100
AcDbArc
 50
-116.408996019175
 51
-90.74314212772198
  0
ARC
  5
505
330
1F
100
AcDbEntity
  8
1
  6
Continuous
 62
     4
100
AcDbCircle
 10
6174.64626747888
 20
4560.71397842063
 30
0.0
 40
63.47717398793032
100
AcDbArc
 50
140.7564002528333
 51
-170.6708033802717
  0
ARC
  5
506
330
1F
100
AcDbEntity
  8
1
  6
Continuous
 62
     4
100
AcDbCircle
 10
6226.31498070664
 20
4531.96972876121
 30
0.0
 40
15.29380013750445
100
AcDbArc
 50
-90.12475878001709
 51
-14.72204971129514
  0
ARC
  5
507
330
1F
100
AcDbEntity
  8
1
  6
Continuous
 62
     4
100
AcDbCircle
 10
6264.56258645547
 20
4541.65008362521
 30
0.0
 40
1.816077592352359
100
AcDbArc
 50
-171.3094770490413
 51
6.77215648966677
  0
ARC
  5
508
330
1F
100
AcDbEntity
  8
1
  6
Continuous
 62
     4
100
AcDbCircle
 10
6998.17374103127
 20
4541.65008362521
 30
0.0
 40
1.81607759235146
100
AcDbArc
 50
-171.3094770490369
 51
6.77215648966338
  0
ARC
  5
509
330
1F
100
AcDbEntity
  8
1
  6
Continuous
 62
     4
100
AcDbCircle
 10
6959.92613528244
 20
4531.96972876121
 30
0.0
 40
15.29380013750445
100
AcDbArc
 50
-90.12475878001368
 51
-14.72204971128562
  0
ARC
  5
50A
330
1F
100
AcDbEntity
  8
1
  6
Continuous
 62
     4
100
AcDbCircle
 10
6908.25742205468
 20
4560.71397842063
 30
0.0
 40
63.47717398793032
100
AcDbArc
 50
140.7564002528333
 51
-170.6708033802717
  0
ARC
  5
50B
330
1F
100
AcDbEntity
  8
1
  6
Continuous
 62
     4
100
AcDbCircle
 10
1628.25742205468
 20
7560.71397842059
 30
0.0
 40
63.47717398793032
100
AcDbArc
 50
140.7564002528333
 51
-170.6708033802731
  0
ARC
  5
50C
330
1F
100
AcDbEntity
  8
1
  6
Continuous
 62
     4
100
AcDbCircle
 10
1679.92613528244
 20
7531.96972876117
 30
0.0
 40
15.29380013750443
100
AcDbArc
 50
-90.12475877997791
 51
-14.72204971129536
  0
ARC
  5
50D
330
1F
100
AcDbEntity
  8
1
  6
Continuous
 62
     4
100
AcDbCircle
 10
1718.17374103127
 20
7541.65008362517
 30
0.0
 40
1.816077592351684
100
AcDbArc
 50
-171.309477049038
 51
6.77215648966507
  0
ARC
  5
50E
330
1F
100
AcDbEntity
  8
1
  6
Continuous
 62
     4
100
AcDbCircle
 10
984.562586455472
 20
7541.65008362517
 30
0.0
 40
1.816077594351402
100
AcDbArc
 50
-171.3094770586814
 51
6.77215648967946
  0
ARC
  5
50F
330
1F
100
AcDbEntity
  8
1
  6
Continuous
 62
     4
100
AcDbCircle
 10
946.314980706637
 20
7531.96972876117
 30
0.0
 40
15.29380013750443
100
AcDbArc
 50
-90.12475877998898
 51
-14.72204971128854
  0
ARC
  5
510
330
1F
100
AcDbEntity
  8
1
  6
Continuous
 62
     4
100
AcDbCircle
 10
894.6462674788841
 20
7560.71397842059
 30
0.0
 40
63.47717398793499
100
AcDbArc
 50
140.7564002528367
 51
-170.6708033802733
  0
ARC
  5
511
330
1F
100
AcDbEntity
  8
0
  6
Continuous
 62
     7
100
AcDbCircle
 10
3468.01443056234
 20
4902.3947209864
 30
0.0
 40
11.99999999989996
100
AcDbArc
 50
0.0
 51
90.0
  0
ARC
  5
512
330
1F
100
AcDbEntity
  8
0
  6
Continuous
 62
     7
100
AcDbCircle
 10
3492.01443056234
 20
4902.3947209864
 30
0.0
 40
12.00000000010004
100
AcDbArc
 50
90.0
 51
180.0
  0
ARC
  5
513
330
1F
100
AcDbEntity
  8
0
  6
Continuous
 62
     7
100
AcDbCircle
 10
3075.30133545392
 20
4725.3569962915
 30
0.0
 40
189.038871426668
100
AcDbArc
 50
89.80043093905486
 51
113.4695415955187
  0
ARC
  5
514
330
1F
100
AcDbEntity
  8
0
  6
Continuous
 62
     7
100
AcDbCircle
 10
3884.72752531715
 20
4725.3569962915
 30
0.0
 40
189.0388714266894
100
AcDbArc
 50
66.53045840447692
 51
90.19956906094514
  0
ARC
  5
515
330
1F
100
AcDbEntity
  8
0
  6
Continuous
 62
     7
100
AcDbCircle
 10
795.3013358075179
 20
4725.3569962915
 30
0.0
 40
189.038871426668
100
AcDbArc
 50
89.80043093905489
 51
113.4695415955204
  0
ARC
  5
516
330
1F
100
AcDbEntity
  8
0
  6
Continuous
 62
     7
100
AcDbCircle
 10
1604.72752531716
 20
4725.3569962915
 30
0.0
 40
189.0388714266856
100
AcDbArc
 50
66.53045840447958
 51
90.19956906094811
  0
ARC
  5
517
330
1F
100
AcDbEntity
  8
0
  6
Continuous
 62
     7
100
AcDbCircle
 10
996.014491951118
 20
4902.3947209864
 30
0.0
 40
12.0
100
AcDbArc
 50
90.0
 51
180.0
  0
ARC
  5
518
330
1F
100
AcDbEntity
  8
0
  6
Continuous
 62
     7
100
AcDbCircle
 10
972.014491951098
 20
4902.3947209864
 30
0.0
 40
12.0
100
AcDbArc
 50
0.0
 51
90.0
  0
ARC
  5
519
330
1F
100
AcDbEntity
  8
0
  6
Continuous
 62
     7
100
AcDbCircle
 10
1404.0143693504
 20
4902.3947209864
 30
0.0
 40
11.99999999997999
100
AcDbArc
 50
0.0
 51
90.0
  0
ARC
  5
51A
330
1F
100
AcDbEntity
  8
0
  6
Continuous
 62
     7
100
AcDbCircle
 10
1428.01436935038
 20
4902.3947209864
 30
0.0
 40
12.0
100
AcDbArc
 50
90.0
 51
180.0
  0
ARC
  5
51B
330
1F
100
AcDbEntity
  8
0
  6
Continuous
 62
     7
100
AcDbCircle
 10
35075.3013358075
 20
19943.5057919862
 30
0.0
 40
189.0388714267491
100
AcDbArc
 50
90.19956905953877
 51
113.469541595512
  0
ARC
  5
51C
330
1F
100
AcDbEntity
  8
0
  6
Continuous
 62
     7
100
AcDbCircle
 10
35198.6667365535
 20
19943.5057919862
 30
0.0
 40
189.0388714267826
100
AcDbArc
 50
66.53045840448799
 51
89.80043094046123
  0
ARC
  5
51D
330
1F
100
AcDbEntity
  8
1
  6
Continuous
 62
     3
100
AcDbCircle
 10
35317.7510866337
 20
20011.8610868685
 30
0.0
 40
271.4145256070202
100
AcDbArc
 50
144.1062328733389
 51
153.5995325090638
  0
ARC
  5
51E
330
1F
100
AcDbEntity
  8
1
  6
Continuous
 62
     3
100
AcDbCircle
 10
35317.7510866337
 20
20011.8610868685
 30
0.0
 40
256.4145256068855
100
AcDbArc
 50
146.4981919205327
 51
151.9232659147339
  0
ARC
  5
51F
330
1F
100
AcDbEntity
  8
0
  6
Continuous
 62
     3
100
AcDbCircle
 10
35016.289997475
 20
20199.3455983
 30
0.0
 40
189.0388714268239
100
AcDbArc
 50
19.19981457458463
 51
42.46978711054631
  0
ARC
  5
520
330
1F
100
AcDbEntity
  8
0
  6
Continuous
 62
     3
100
AcDbCircle
 10
35056.4543431456
 20
20082.7014924135
 30
0.0
 40
189.0388714267885
100
AcDbArc
 50
13.85576904070039
 51
18.8006764555648
  0
ARC
  5
521
330
1F
100
AcDbEntity
  8
0
  6
Continuous
 62
     7
100
AcDbCircle
 10
35884.7275253172
 20
19842.5597942259
 30
0.0
 40
189.0388714266544
100
AcDbArc
 50
66.53045840449997
 51
89.80043094046123
  0
ARC
  5
522
330
1F
100
AcDbEntity
  8
0
  6
Continuous
 62
     7
100
AcDbCircle
 10
35340.3896853892
 20
19842.5597942259
 30
0.0
 40
189.0388714267488
100
AcDbArc
 50
90.19956905950791
 51
110.57548933494
  0
ARC
  5
523
330
1F
100
AcDbEntity
  8
1
  6
Continuous
 62
     7
100
AcDbCircle
 10
35312.1453186834
 20
20072.7487033818
 30
0.0
 40
26.9999999999768
100
AcDbArc
 50
51.37170524367024
 51
160.4346270585004
  0
ARC
  5
524
330
1F
100
AcDbEntity
  8
1
  6
Continuous
 62
     7
100
AcDbCircle
 10
35473.7470465648
 20
20011.1235336453
 30
0.0
 40
199.9705960790907
100
AcDbArc
 50
159.3022698945212
 51
177.587830362904
  0
ARC
  5
525
330
1F
100
AcDbEntity
  8
1
  6
Continuous
 62
     7
100
AcDbCircle
 10
35157.2149207982
 20
19863.1505293873
 30
0.0
 40
287.6257541006854
100
AcDbArc
 50
35.84866885861261
 51
53.32653457468616
  0
ARC
  5
526
330
1F
100
AcDbEntity
  8
1
  6
Continuous
 62
     7
100
AcDbCircle
 10
25157.2149207981
 20
16863.1505293873
 30
0.0
 40
287.625754100768
100
AcDbArc
 50
35.84866885860073
 51
53.32653457467046
  0
ARC
  5
527
330
1F
100
AcDbEntity
  8
1
  6
Continuous
 62
     7
100
AcDbCircle
 10
25473.7470465648
 20
17011.1235336453
 30
0.0
 40
199.9705960791859
100
AcDbArc
 50
159.3022698945315
 51
177.5878303629052
  0
ARC
  5
528
330
1F
100
AcDbEntity
  8
1
  6
Continuous
 62
     7
100
AcDbCircle
 10
25312.1453186834
 20
17072.7487033818
 30
0.0
 40
26.99999999997226
100
AcDbArc
 50
51.3717052436823
 51
160.4346270583692
  0
ARC
  5
529
330
1F
100
AcDbEntity
  8
0
  6
Continuous
 62
     7
100
AcDbCircle
 10
25340.3896853892
 20
16842.5597942259
 30
0.0
 40
189.0388714267491
100
AcDbArc
 50
90.19956905953877
 51
110.5754893349679
  0
ARC
  5
52A
330
1F
100
AcDbEntity
  8
0
  6
Continuous
 62
     7
100
AcDbCircle
 10
25884.7275253171
 20
16842.5597942259
 30
0.0
 40
189.0388714266921
100
AcDbArc
 50
66.53045840447368
 51
89.80043094046123
  0
ARC
  5
52B
330
1F
100
AcDbEntity
  8
0
  6
Continuous
 62
     3
100
AcDbCircle
 10
25056.4543431455
 20
17082.7014924135
 30
0.0
 40
189.038871426785
100
AcDbArc
 50
13.85576904070065
 51
18.8006764555552
  0
ARC
  5
52C
330
1F
100
AcDbEntity
  8
0
  6
Continuous
 62
     3
100
AcDbCircle
 10
25016.289997475
 20
17199.3455983
 30
0.0
 40
189.0388714267312
100
AcDbArc
 50
19.19981457459442
 51
42.46978711056642
  0
ARC
  5
52D
330
1F
100
AcDbEntity
  8
1
  6
Continuous
 62
     3
100
AcDbCircle
 10
25317.7510866336
 20
17011.8610868685
 30
0.0
 40
256.4145256068825
100
AcDbArc
 50
146.4981919205322
 51
151.9232659147134
  0
ARC
  5
52E
330
1F
100
AcDbEntity
  8
1
  6
Continuous
 62
     3
100
AcDbCircle
 10
25317.7510866336
 20
17011.8610868685
 30
0.0
 40
271.4145256069348
100
AcDbArc
 50
144.1062328733258
 51
153.5995325090539
  0
ARC
  5
52F
330
1F
100
AcDbEntity
  8
0
  6
Continuous
 62
     7
100
AcDbCircle
 10
25198.6667365534
 20
16943.5057919862
 30
0.0
 40
189.0388714267841
100
AcDbArc
 50
66.53045840448698
 51
89.80043094046123
  0
ARC
  5
530
330
1F
100
AcDbEntity
  8
0
  6
Continuous
 62
     7
100
AcDbCircle
 10
25075.3013358075
 20
16943.5057919862
 30
0.0
 40
189.0388714267491
100
AcDbArc
 50
90.19956905953877
 51
113.469541595514
  0
ARC
  5
531
330
1F
100
AcDbEntity
  8
0
  6
Continuous
 62
     7
100
AcDbCircle
 10
27684.7275253171
 20
16842.5597942259
 30
0.0
 40
189.0388714266921
100
AcDbArc
 50
66.53045840447368
 51
89.80043094046123
  0
ARC
  5
532
330
1F
100
AcDbEntity
  8
0
  6
Continuous
 62
     7
100
AcDbCircle
 10
27572.7678275067
 20
16842.5597942259
 30
0.0
 40
189.0388714267491
100
AcDbArc
 50
90.19956905953877
 51
113.4695415955263
  0
ARC
  5
533
330
1F
100
AcDbEntity
  8
0
  6
Continuous
 62
     7
100
AcDbCircle
 10
37812.7678275068
 20
19842.5597942259
 30
0.0
 40
189.0388714267491
100
AcDbArc
 50
90.19956905953877
 51
113.4695415955263
  0
ARC
  5
534
330
1F
100
AcDbEntity
  8
0
  6
Continuous
 62
     7
100
AcDbCircle
 10
37924.7275253171
 20
19842.5597942259
 30
0.0
 40
189.0388714266921
100
AcDbArc
 50
66.53045840447368
 51
89.80043094046123
  0
ARC
  5
535
330
1F
100
AcDbEntity
  8
0
  6
Continuous
 62
     7
100
AcDbCircle
 10
1724.72752531716
 20
10842.5597942259
 30
0.0
 40
189.0388714266856
100
AcDbArc
 50
66.53045840447958
 51
89.80043094046737
  0
ARC
  5
536
330
1F
100
AcDbEntity
  8
0
  6
Continuous
 62
     7
100
AcDbCircle
 10
1612.76782750674
 20
10842.5597942259
 30
0.0
 40
189.0388714267527
100
AcDbArc
 50
90.19956905953265
 51
113.4695415955204
  0
ARC
  5
537
330
1F
100
AcDbEntity
  8
0
  6
Continuous
 62
     7
100
AcDbCircle
 10
787.261033617938
 20
10842.5597942259
 30
0.0
 40
189.0388714266856
100
AcDbArc
 50
66.53045840447962
 51
89.80043094046739
  0
ARC
  5
538
330
1F
100
AcDbEntity
  8
0
  6
Continuous
 62
     7
100
AcDbCircle
 10
675.301335807528
 20
10842.5597942259
 30
0.0
 40
189.0388714267527
100
AcDbArc
 50
90.19956905953561
 51
113.4695415955232
  0
ARC
  5
539
330
1F
100
AcDbEntity
  8
0
  6
Continuous
 62
     7
100
AcDbCircle
 10
1974.72752531716
 20
13842.5597942259
 30
0.0
 40
189.0388714266855
100
AcDbArc
 50
66.53045840447963
 51
89.80043094046737
  0
ARC
  5
53A
330
1F
100
AcDbEntity
  8
0
  6
Continuous
 62
     7
100
AcDbCircle
 10
1862.76782750674
 20
13842.5597942259
 30
0.0
 40
189.0388714267527
100
AcDbArc
 50
90.19956905953265
 51
113.4695415955204
  0
ARC
  5
53B
330
1F
100
AcDbEntity
  8
0
  6
Continuous
 62
     7
100
AcDbCircle
 10
537.261033617938
 20
13842.5597942259
 30
0.0
 40
189.0388714266856
100
AcDbArc
 50
66.53045840447962
 51
89.80043094046739
  0
ARC
  5
53C
330
1F
100
AcDbEntity
  8
0
  6
Continuous
 62
     7
100
AcDbCircle
 10
425.301335807528
 20
13842.5597942259
 30
0.0
 40
189.0388714267527
100
AcDbArc
 50
90.19956905953565
 51
113.4695415955232
  0
ARC
  5
53D
330
1F
100
AcDbEntity
  8
0
  6
Continuous
 62
     7
100
AcDbCircle
 10
2099.72752531716
 20
16842.5597942259
 30
0.0
 40
189.0388714266837
100
AcDbArc
 50
66.53045840447949
 51
89.80043094046744
  0
ARC
  5
53E
330
1F
100
AcDbEntity
  8
0
  6
Continuous
 62
     7
100
AcDbCircle
 10
1987.76782750674
 20
16842.5597942259
 30
0.0
 40
189.038871426749
100
AcDbArc
 50
90.19956905953265
 51
113.4695415955207
  0
ARC
  5
53F
330
1F
100
AcDbEntity
  8
0
  6
Continuous
 62
     7
100
AcDbCircle
 10
412.261033617938
 20
16842.5597942259
 30
0.0
 40
189.0388714266839
100
AcDbArc
 50
66.53045840447939
 51
89.80043094046739
  0
ARC
  5
540
330
1F
100
AcDbEntity
  8
0
  6
Continuous
 62
     7
100
AcDbCircle
 10
300.301335807528
 20
16842.5597942259
 30
0.0
 40
189.0388714267491
100
AcDbArc
 50
90.19956905953565
 51
113.4695415955234
  0
ARC
  5
541
330
1F
100
AcDbEntity
  8
0
  6
Continuous
 62
     7
100
AcDbCircle
 10
2224.72752531716
 20
19842.5597942259
 30
0.0
 40
189.0388714266837
100
AcDbArc
 50
66.53045840447949
 51
89.80043094046744
  0
ARC
  5
542
330
1F
100
AcDbEntity
  8
0
  6
Continuous
 62
     7
100
AcDbCircle
 10
2112.76782750674
 20
19842.5597942259
 30
0.0
 40
189.038871426749
100
AcDbArc
 50
90.19956905953258
 51
113.4695415955207
  0
ARC
  5
543
330
1F
100
AcDbEntity
  8
0
  6
Continuous
 62
     7
100
AcDbCircle
 10
287.261033617938
 20
19842.5597942259
 30
0.0
 40
189.0388714266839
100
AcDbArc
 50
66.53045840447939
 51
89.80043094046739
  0
ARC
  5
544
330
1F
100
AcDbEntity
  8
0
  6
Continuous
 62
     7
100
AcDbCircle
 10
175.301335807528
 20
19842.5597942259
 30
0.0
 40
189.0388714267491
100
AcDbArc
 50
90.19956905953563
 51
113.4695415955234
  0
ARC
  5
545
330
1F
100
AcDbEntity
  8
0
  6
Continuous
 62
     7
100
AcDbCircle
 10
75.3013358075282
 20
22842.5597942259
 30
0.0
 40
189.0388714267491
100
AcDbArc
 50
90.19956905953576
 51
113.4695415955234
  0
ARC
  5
546
330
1F
100
AcDbEntity
  8
0
  6
Continuous
 62
     7
100
AcDbCircle
 10
187.261033617938
 20
22842.5597942259
 30
0.0
 40
189.0388714266839
100
AcDbArc
 50
66.53045840447939
 51
89.80043094046741
  0
ARC
  5
547
330
1F
100
AcDbEntity
  8
0
  6
Continuous
 62
     7
100
AcDbCircle
 10
2212.76782750674
 20
22842.5597942259
 30
0.0
 40
189.038871426749
100
AcDbArc
 50
90.19956905953258
 51
113.4695415955207
  0
ARC
  5
548
330
1F
100
AcDbEntity
  8
0
  6
Continuous
 62
     7
100
AcDbCircle
 10
2324.72752531716
 20
22842.5597942259
 30
0.0
 40
189.0388714266837
100
AcDbArc
 50
66.53045840447949
 51
89.80043094046744
  0
ARC
  5
549
330
1F
100
AcDbEntity
  8
1
  6
Continuous
 62
     7
100
AcDbCircle
 10
3157.21492079811
 20
22863.1505293873
 30
0.0
 40
287.625754100807
100
AcDbArc
 50
35.84866885859511
 51
53.32653457468592
  0
ARC
  5
54A
330
1F
100
AcDbEntity
  8
1
  6
Continuous
 62
     7
100
AcDbCircle
 10
3473.74704656482
 20
23011.1235336453
 30
0.0
 40
199.9705960791664
100
AcDbArc
 50
159.3022698945294
 51
177.5878303629054
  0
ARC
  5
54B
330
1F
100
AcDbEntity
  8
1
  6
Continuous
 62
     7
100
AcDbCircle
 10
3312.14531868346
 20
23072.7487033818
 30
0.0
 40
27.00000000000897
100
AcDbArc
 50
51.37170524393108
 51
160.4346270585722
  0
ARC
  5
54C
330
1F
100
AcDbEntity
  8
0
  6
Continuous
 62
     7
100
AcDbCircle
 10
3340.38968538921
 20
22842.5597942259
 30
0.0
 40
189.038871426749
100
AcDbArc
 50
90.19956905953272
 51
110.5754893349702
  0
ARC
  5
54D
330
1F
100
AcDbEntity
  8
0
  6
Continuous
 62
     7
100
AcDbCircle
 10
3884.72752531715
 20
22842.5597942259
 30
0.0
 40
189.0388714266837
100
AcDbArc
 50
66.53045840447949
 51
89.80043094046744
  0
ARC
  5
54E
330
1F
100
AcDbEntity
  8
0
  6
Continuous
 62
     3
100
AcDbCircle
 10
3056.45434314556
 20
23082.7014924135
 30
0.0
 40
189.0388714267466
100
AcDbArc
 50
13.85576904070353
 51
18.8006764555525
  0
ARC
  5
54F
330
1F
100
AcDbEntity
  8
0
  6
Continuous
 62
     3
100
AcDbCircle
 10
3016.28999747507
 20
23199.3455983
 30
0.0
 40
189.0388714267299
100
AcDbArc
 50
19.19981457459456
 51
42.46978711057906
  0
ARC
  5
550
330
1F
100
AcDbEntity
  8
1
  6
Continuous
 62
     3
100
AcDbCircle
 10
3317.75108663364
 20
23011.8610868685
 30
0.0
 40
256.4145256068973
100
AcDbArc
 50
146.4981919205344
 51
151.9232659147397
  0
ARC
  5
551
330
1F
100
AcDbEntity
  8
1
  6
Continuous
 62
     3
100
AcDbCircle
 10
3317.75108663364
 20
23011.8610868685
 30
0.0
 40
271.4145256069016
100
AcDbArc
 50
144.1062328733208
 51
153.5995325090537
  0
ARC
  5
552
330
1F
100
AcDbEntity
  8
0
  6
Continuous
 62
     7
100
AcDbCircle
 10
3198.66673655341
 20
22943.5057919862
 30
0.0
 40
189.0388714267814
100
AcDbArc
 50
66.53045840448887
 51
89.8004309404644
  0
ARC
  5
553
330
1F
100
AcDbEntity
  8
0
  6
Continuous
 62
     7
100
AcDbCircle
 10
3075.30133580752
 20
22943.5057919862
 30
0.0
 40
189.038871426749
100
AcDbArc
 50
90.19956905953258
 51
113.4695415955084
  0
ARC
  5
554
330
1F
100
AcDbEntity
  8
0
  6
Continuous
 62
     7
100
AcDbCircle
 10
30074.7602641576
 20
19842.5597942259
 30
0.0
 40
189.0388714267491
100
AcDbArc
 50
90.19956905953877
 51
113.4695415955263
  0
ARC
  5
555
330
1F
100
AcDbEntity
  8
0
  6
Continuous
 62
     7
100
AcDbCircle
 10
30186.7199619681
 20
19842.5597942259
 30
0.0
 40
189.0388714266515
100
AcDbArc
 50
66.53045840450199
 51
89.80043094049211
  0
ARC
  5
556
330
1F
100
AcDbEntity
  8
0
  6
Continuous
 62
     7
100
AcDbCircle
 10
20187.2610336179
 20
16842.5597942259
 30
0.0
 40
189.0388714266921
100
AcDbArc
 50
66.53045840447368
 51
89.80043094046123
  0
ARC
  5
557
330
1F
100
AcDbEntity
  8
0
  6
Continuous
 62
     7
100
AcDbCircle
 10
20075.3013358075
 20
16842.5597942259
 30
0.0
 40
189.0388714267491
100
AcDbArc
 50
90.19956905953877
 51
113.4695415955263
  0
ARC
  5
558
330
1F
100
AcDbEntity
  8
0
  6
Continuous
 62
     7
100
AcDbCircle
 10
22684.7275253171
 20
16943.5057919862
 30
0.0
 40
189.0388714267855
100
AcDbArc
 50
66.53045840448596
 51
89.80043094046123
  0
ARC
  5
559
330
1F
100
AcDbEntity
  8
0
  6
Continuous
 62
     7
100
AcDbCircle
 10
22561.3621245712
 20
16943.5057919862
 30
0.0
 40
189.0388714267491
100
AcDbArc
 50
90.19956905953768
 51
113.469541595513
  0
ARC
  5
55A
330
1F
100
AcDbEntity
  8
1
  6
Continuous
 62
     3
100
AcDbCircle
 10
22442.277774491
 20
17011.8610868685
 30
0.0
 40
271.4145256068692
100
AcDbArc
 50
26.4004674909465
 51
35.89376712665781
  0
ARC
  5
55B
330
1F
100
AcDbEntity
  8
1
  6
Continuous
 62
     3
100
AcDbCircle
 10
22442.277774491
 20
17011.8610868685
 30
0.0
 40
256.4145256068263
100
AcDbArc
 50
28.07673408526692
 51
33.50180807944991
  0
ARC
  5
55C
330
1F
100
AcDbEntity
  8
0
  6
Continuous
 62
     3
100
AcDbCircle
 10
22743.7388636496
 20
17199.3455983
 30
0.0
 40
189.038871426754
100
AcDbArc
 50
137.5302128894329
 51
160.8001854254052
  0
ARC
  5
55D
330
1F
100
AcDbEntity
  8
0
  6
Continuous
 62
     3
100
AcDbCircle
 10
22703.5745179791
 20
17082.7014924135
 30
0.0
 40
189.0388714267275
100
AcDbArc
 50
161.1993235444448
 51
166.1442309592922
  0
ARC
  5
55E
330
1F
100
AcDbEntity
  8
0
  6
Continuous
 62
     7
100
AcDbCircle
 10
21875.3013358075
 20
16842.5597942259
 30
0.0
 40
189.0388714267491
100
AcDbArc
 50
90.19956905953877
 51
113.4695415955263
  0
ARC
  5
55F
330
1F
100
AcDbEntity
  8
0
  6
Continuous
 62
     7
100
AcDbCircle
 10
22419.6391757354
 20
16842.5597942259
 30
0.0
 40
189.0388714266578
100
AcDbArc
 50
69.42451066503207
 51
89.80043094046123
  0
ARC
  5
560
330
1F
100
AcDbEntity
  8
1
  6
Continuous
 62
     7
100
AcDbCircle
 10
22447.8835424412
 20
17072.7487033818
 30
0.0
 40
26.99999999998622
100
AcDbArc
 50
19.56537294142718
 51
128.6282947561828
  0
ARC
  5
561
330
1F
100
AcDbEntity
  8
1
  6
Continuous
 62
     7
100
AcDbCircle
 10
22286.2818145598
 20
17011.1235336453
 30
0.0
 40
199.9705960791661
100
AcDbArc
 50
2.41216963709479
 51
20.69773010544119
  0
ARC
  5
562
330
1F
100
AcDbEntity
  8
1
  6
Continuous
 62
     7
100
AcDbCircle
 10
22602.8139403265
 20
16863.1505293873
 30
0.0
 40
287.6257541008178
100
AcDbArc
 50
126.6734654253174
 51
144.1513311413993
  0
ARC
  5
563
330
1F
100
AcDbEntity
  8
1
  6
Continuous
 62
     7
100
AcDbCircle
 10
32842.2728686767
 20
19863.1505293873
 30
0.0
 40
287.6257541008178
100
AcDbArc
 50
126.6734654253174
 51
144.1513311414107
  0
ARC
  5
564
330
1F
100
AcDbEntity
  8
1
  6
Continuous
 62
     7
100
AcDbCircle
 10
32525.74074291
 20
20011.1235336453
 30
0.0
 40
199.9705960791661
100
AcDbArc
 50
2.41216963709479
 51
20.69773010546849
  0
ARC
  5
565
330
1F
100
AcDbEntity
  8
1
  6
Continuous
 62
     7
100
AcDbCircle
 10
32687.3424707913
 20
20072.7487033818
 30
0.0
 40
26.99999999998622
100
AcDbArc
 50
19.56537294142718
 51
128.6282947560199
  0
ARC
  5
566
330
1F
100
AcDbEntity
  8
0
  6
Continuous
 62
     7
100
AcDbCircle
 10
32659.0981040856
 20
19842.5597942259
 30
0.0
 40
189.0388714266578
100
AcDbArc
 50
69.42451066503207
 51
89.80043094046123
  0
ARC
  5
567
330
1F
100
AcDbEntity
  8
0
  6
Continuous
 62
     7
100
AcDbCircle
 10
32114.7602641576
 20
19842.5597942259
 30
0.0
 40
189.0388714267491
100
AcDbArc
 50
90.19956905953877
 51
113.4695415954867
  0
ARC
  5
568
330
1F
100
AcDbEntity
  8
0
  6
Continuous
 62
     3
100
AcDbCircle
 10
32943.0334463292
 20
20082.7014924135
 30
0.0
 40
189.0388714267275
100
AcDbArc
 50
161.1993235444448
 51
166.1442309592922
  0
ARC
  5
569
330
1F
100
AcDbEntity
  8
0
  6
Continuous
 62
     3
100
AcDbCircle
 10
32983.1977919997
 20
20199.3455983
 30
0.0
 40
189.0388714266843
100
AcDbArc
 50
137.5302128894135
 51
160.8001854254052
  0
ARC
  5
56A
330
1F
100
AcDbEntity
  8
1
  6
Continuous
 62
     3
100
AcDbCircle
 10
32681.7367028412
 20
20011.8610868685
 30
0.0
 40
256.4145256068294
100
AcDbArc
 50
28.07673408526653
 51
33.50180807944945
  0
ARC
  5
56B
330
1F
100
AcDbEntity
  8
1
  6
Continuous
 62
     3
100
AcDbCircle
 10
32681.7367028412
 20
20011.8610868685
 30
0.0
 40
271.4145256068724
100
AcDbArc
 50
26.40046749094616
 51
35.89376712667416
  0
ARC
  5
56C
330
1F
100
AcDbEntity
  8
0
  6
Continuous
 62
     7
100
AcDbCircle
 10
32800.8210529214
 20
19943.5057919862
 30
0.0
 40
189.0388714267491
100
AcDbArc
 50
90.19956905953877
 51
113.469541595513
  0
ARC
  5
56D
330
1F
100
AcDbEntity
  8
0
  6
Continuous
 62
     7
100
AcDbCircle
 10
32924.1864536673
 20
19943.5057919862
 30
0.0
 40
189.038871426745
100
AcDbArc
 50
66.53045840451428
 51
89.80043094046123
  0
ARC
  5
56E
330
1F
100
AcDbEntity
  8
1
  6
Continuous
 62
     7
100
AcDbCircle
 10
3306.65780171931
 20
7939.39472098641
 30
0.0
 40
24.99999999999794
100
AcDbArc
 50
-172.559927293136
 51
-90.0
  0
ARC
  5
56F
330
1F
100
AcDbEntity
  8
1
  6
Continuous
 62
     7
100
AcDbCircle
 10
3157.21492079811
 20
7863.15052938732
 30
0.0
 40
287.6257541007724
100
AcDbArc
 50
43.83632714663511
 51
53.32653457467848
  0
ARC
  5
570
330
1F
100
AcDbEntity
  8
1
  6
Continuous
 62
     7
100
AcDbCircle
 10
3473.74704656483
 20
8011.12353364528
 30
0.0
 40
199.9705960791645
100
AcDbArc
 50
159.3022698945389
 51
-172.5599272931395
  0
ARC
  5
571
330
1F
100
AcDbEntity
  8
1
  6
Continuous
 62
     7
100
AcDbCircle
 10
3312.14531868346
 20
8072.7487033818
 30
0.0
 40
26.99999999999106
100
AcDbArc
 50
51.37170524387352
 51
160.4346270585104
  0
ARC
  5
572
330
1F
100
AcDbEntity
  8
0
  6
Continuous
 62
     7
100
AcDbCircle
 10
3884.72752531715
 20
7725.35699629142
 30
0.0
 40
189.0388714267445
100
AcDbArc
 50
66.53045840448417
 51
89.8004309404644
  0
ARC
  5
573
330
1F
100
AcDbEntity
  8
0
  6
Continuous
 62
     3
100
AcDbCircle
 10
3056.45434314556
 20
8082.70149241351
 30
0.0
 40
189.0388714267423
100
AcDbArc
 50
13.85576904069817
 51
18.80067645554362
  0
ARC
  5
574
330
1F
100
AcDbEntity
  8
0
  6
Continuous
 62
     3
100
AcDbCircle
 10
3016.28999747507
 20
8199.345598299989
 30
0.0
 40
189.0388714267466
100
AcDbArc
 50
19.19981457460913
 51
42.46978711059005
  0
ARC
  5
575
330
1F
100
AcDbEntity
  8
1
  6
Continuous
 62
     3
100
AcDbCircle
 10
3317.75108663364
 20
8011.86108686849
 30
0.0
 40
256.4145256068923
100
AcDbArc
 50
146.4981919205361
 51
151.9232659147336
  0
ARC
  5
576
330
1F
100
AcDbEntity
  8
1
  6
Continuous
 62
     3
100
AcDbCircle
 10
3317.75108663364
 20
8011.86108686849
 30
0.0
 40
271.4145256068899
100
AcDbArc
 50
144.1062328733242
 51
153.5995325090479
  0
ARC
  5
577
330
1F
100
AcDbEntity
  8
0
  6
Continuous
 62
     7
100
AcDbCircle
 10
3198.66673655341
 20
7943.50579198624
 30
0.0
 40
189.0388714267363
100
AcDbArc
 50
66.53045840448294
 51
89.80043094046438
  0
ARC
  5
578
330
1F
100
AcDbEntity
  8
0
  6
Continuous
 62
     7
100
AcDbCircle
 10
3075.30133580752
 20
7943.50579198624
 30
0.0
 40
189.0388714267317
100
AcDbArc
 50
90.19956905953259
 51
113.4695415955143
  0
ARC
  5
579
330
1F
100
AcDbEntity
  8
1
  6
Continuous
 62
     7
100
AcDbCircle
 10
3247.35781627721
 20
7949.70423699657
 30
0.0
 40
162.6566142851223
100
AcDbArc
 50
-12.53759156483149
 51
0.0
  0
ARC
  5
57A
330
1F
100
AcDbEntity
  8
1
  6
Continuous
 62
     7
100
AcDbCircle
 10
3247.35781627721
 20
7949.70423699657
 30
0.0
 40
162.6566142851198
100
AcDbArc
 50
0.0
 51
43.83632714663558
  0
ARC
  5
57B
330
1F
100
AcDbEntity
  8
0
  6
Continuous
 62
     7
100
AcDbCircle
 10
3310.95402141321
 20
7725.35699629142
 30
0.0
 40
189.0388714267417
100
AcDbArc
 50
89.80043094047335
 51
104.0370496424877
  0
ARC
  5
57C
330
1F
100
AcDbEntity
  8
0
  6
Continuous
 62
     7
100
AcDbCircle
 10
6708.01436935038
 20
4902.3947209864
 30
0.0
 40
12.0
100
AcDbArc
 50
90.0
 51
180.0
  0
ARC
  5
57D
330
1F
100
AcDbEntity
  8
0
  6
Continuous
 62
     7
100
AcDbCircle
 10
6684.0143693504
 20
4902.3947209864
 30
0.0
 40
11.99999999997999
100
AcDbArc
 50
0.0
 51
90.0
  0
ARC
  5
57E
330
1F
100
AcDbEntity
  8
0
  6
Continuous
 62
     7
100
AcDbCircle
 10
6252.0144919511
 20
4902.3947209864
 30
0.0
 40
12.0
100
AcDbArc
 50
0.0
 51
90.0
  0
ARC
  5
57F
330
1F
100
AcDbEntity
  8
0
  6
Continuous
 62
     7
100
AcDbCircle
 10
6276.01449195112
 20
4902.3947209864
 30
0.0
 40
12.0
100
AcDbArc
 50
90.0
 51
180.0
  0
ARC
  5
580
330
1F
100
AcDbEntity
  8
0
  6
Continuous
 62
     7
100
AcDbCircle
 10
6884.72752531716
 20
4725.3569962915
 30
0.0
 40
189.0388714266854
100
AcDbArc
 50
66.5304584044797
 51
90.19956906094804
  0
ARC
  5
581
330
1F
100
AcDbEntity
  8
0
  6
Continuous
 62
     7
100
AcDbCircle
 10
6075.30133580752
 20
4725.3569962915
 30
0.0
 40
189.038871426668
100
AcDbArc
 50
89.80043093905501
 51
113.4695415955206
  0
ARC
  5
582
330
1F
100
AcDbEntity
  8
0
  6
Continuous
 62
     7
100
AcDbCircle
 10
9884.72752567076
 20
4725.3569962915
 30
0.0
 40
189.0388714266858
100
AcDbArc
 50
66.53045840447945
 51
90.19956906094804
  0
ARC
  5
583
330
1F
100
AcDbEntity
  8
0
  6
Continuous
 62
     7
100
AcDbCircle
 10
9075.30133580752
 20
4725.3569962915
 30
0.0
 40
189.038871426668
100
AcDbArc
 50
89.80043093905528
 51
113.4695415955187
  0
ARC
  5
584
330
1F
100
AcDbEntity
  8
0
  6
Continuous
 62
     7
100
AcDbCircle
 10
9492.014430915941
 20
4902.3947209864
 30
0.0
 40
12.00000000010004
100
AcDbArc
 50
90.0
 51
180.0
  0
ARC
  5
585
330
1F
100
AcDbEntity
  8
0
  6
Continuous
 62
     7
100
AcDbCircle
 10
9468.014430915941
 20
4902.3947209864
 30
0.0
 40
12.0
100
AcDbArc
 50
0.0
 51
90.0
  0
ARC
  5
586
330
1F
100
AcDbEntity
  8
0
  6
Continuous
 62
     7
100
AcDbCircle
 10
1428.01436935038
 20
1902.3947209864
 30
0.0
 40
12.0
100
AcDbArc
 50
90.0
 51
180.0
  0
ARC
  5
587
330
1F
100
AcDbEntity
  8
0
  6
Continuous
 62
     7
100
AcDbCircle
 10
1404.0143693504
 20
1902.3947209864
 30
0.0
 40
11.99999999997999
100
AcDbArc
 50
0.0
 51
90.0
  0
ARC
  5
588
330
1F
100
AcDbEntity
  8
0
  6
Continuous
 62
     7
100
AcDbCircle
 10
972.014491951098
 20
1902.3947209864
 30
0.0
 40
12.0
100
AcDbArc
 50
0.0
 51
90.0
  0
ARC
  5
589
330
1F
100
AcDbEntity
  8
0
  6
Continuous
 62
     7
100
AcDbCircle
 10
996.014491951118
 20
1902.3947209864
 30
0.0
 40
12.0
100
AcDbArc
 50
90.0
 51
180.0
  0
ARC
  5
58A
330
1F
100
AcDbEntity
  8
0
  6
Continuous
 62
     7
100
AcDbCircle
 10
1604.72752531716
 20
1725.3569962915
 30
0.0
 40
189.0388714266854
100
AcDbArc
 50
66.53045840447955
 51
90.19956906094811
  0
ARC
  5
58B
330
1F
100
AcDbEntity
  8
0
  6
Continuous
 62
     7
100
AcDbCircle
 10
795.3013358075179
 20
1725.3569962915
 30
0.0
 40
189.0388714266677
100
AcDbArc
 50
89.80043093905489
 51
113.4695415955204
  0
ARC
  5
58C
330
1F
100
AcDbEntity
  8
0
  6
Continuous
 62
     7
100
AcDbCircle
 10
3404.72752531715
 20
1725.3569962915
 30
0.0
 40
189.0388714266892
100
AcDbArc
 50
66.53045840447689
 51
90.19956905379215
  0
ARC
  5
58D
330
1F
100
AcDbEntity
  8
0
  6
Continuous
 62
     7
100
AcDbCircle
 10
3075.30133545392
 20
1725.3569962915
 30
0.0
 40
189.0388714266677
100
AcDbArc
 50
89.80043093905486
 51
113.4695415955188
  0
ARC
  5
58E
330
1F
100
AcDbEntity
  8
1
  6
Continuous
 62
     7
100
AcDbCircle
 10
620.019886062461
 20
10954.3662626724
 30
0.0
 40
40.00000000018825
100
AcDbArc
 50
-120.009023734712
 51
-87.83858594961984
  0
ARC
  5
58F
330
1F
100
AcDbEntity
  8
1
  6
Continuous
 62
     7
100
AcDbCircle
 10
842.542483362995
 20
10954.3662626724
 30
0.0
 40
40.00000000004906
100
AcDbArc
 50
-92.16141405038016
 51
-59.9909762651445
  0
ARC
  5
590
330
1F
100
AcDbEntity
  8
1
  6
Continuous
 62
     7
100
AcDbCircle
 10
370.019886062461
 20
13954.3662626721
 30
0.0
 40
39.99999999992838
100
AcDbArc
 50
-120.0090237349271
 51
-87.83858594961443
  0
ARC
  5
591
330
1F
100
AcDbEntity
  8
1
  6
Continuous
 62
     7
100
AcDbCircle
 10
592.542483362995
 20
13954.3662626721
 30
0.0
 40
39.99999999994909
100
AcDbArc
 50
-92.16141405038557
 51
-59.99097626507282
  0
ARC
  5
592
330
1F
100
AcDbEntity
  8
1
  6
Continuous
 62
     7
100
AcDbCircle
 10
467.447105301616
 20
16954.3662626719
 30
0.0
 40
39.99999999994913
100
AcDbArc
 50
-92.16141405038695
 51
-59.9909762651471
  0
ARC
  5
593
330
1F
100
AcDbEntity
  8
1
  6
Continuous
 62
     7
100
AcDbCircle
 10
245.019886062461
 20
16954.3662626719
 30
0.0
 40
39.9999999997567
100
AcDbArc
 50
-120.0090237350692
 51
-87.83858594961443
  0
ARC
  5
594
330
1F
100
AcDbEntity
  8
1
  6
Continuous
 62
     7
100
AcDbCircle
 10
1780.00897506222
 20
10954.3662626724
 30
0.0
 40
40.00000000023579
100
AcDbArc
 50
-92.161414057467
 51
-59.99097626529164
  0
ARC
  5
595
330
1F
100
AcDbEntity
  8
1
  6
Continuous
 62
     7
100
AcDbCircle
 10
1557.48637776168
 20
10954.3662626724
 30
0.0
 40
40.00000000001351
100
AcDbArc
 50
-120.0090237348517
 51
-87.83858594283373
  0
ARC
  5
596
330
1F
100
AcDbEntity
  8
1
  6
Continuous
 62
     7
100
AcDbCircle
 10
1807.48637776168
 20
13954.3662626721
 30
0.0
 40
39.99999999992687
100
AcDbArc
 50
-120.0090237349234
 51
-87.83858594281752
  0
ARC
  5
597
330
1F
100
AcDbEntity
  8
1
  6
Continuous
 62
     7
100
AcDbCircle
 10
2030.00897506222
 20
13954.3662626721
 30
0.0
 40
39.99999999993587
100
AcDbArc
 50
-92.16141405748321
 51
-59.9909762650769
  0
ARC
  5
598
330
1F
100
AcDbEntity
  8
1
  6
Continuous
 62
     7
100
AcDbCircle
 10
2155.00897506222
 20
16954.3662626721
 30
0.0
 40
39.99999999993588
100
AcDbArc
 50
-92.16141405748354
 51
-59.99097626507822
  0
ARC
  5
599
330
1F
100
AcDbEntity
  8
1
  6
Continuous
 62
     7
100
AcDbCircle
 10
1932.48637776168
 20
16954.3662626721
 30
0.0
 40
39.99999999992845
100
AcDbArc
 50
-120.0090237349221
 51
-87.83858594281752
  0
ARC
  5
59A
330
1F
100
AcDbEntity
  8
1
  6
Continuous
 62
     7
100
AcDbCircle
 10
120.019886062461
 20
19954.3662626719
 30
0.0
 40
39.99999999975669
100
AcDbArc
 50
-120.0090237350692
 51
-87.83858594961441
  0
ARC
  5
59B
330
1F
100
AcDbEntity
  8
1
  6
Continuous
 62
     7
100
AcDbCircle
 10
342.447105301616
 20
19954.3662626719
 30
0.0
 40
39.99999999994913
100
AcDbArc
 50
-92.16141405038695
 51
-59.9909762651471
  0
ARC
  5
59C
330
1F
100
AcDbEntity
  8
1
  6
Continuous
 62
     7
100
AcDbCircle
 10
2280.00897506222
 20
19954.3662626721
 30
0.0
 40
39.99999999993588
100
AcDbArc
 50
-92.16141405748354
 51
-59.99097626507822
  0
ARC
  5
59D
330
1F
100
AcDbEntity
  8
1
  6
Continuous
 62
     7
100
AcDbCircle
 10
2057.48637776168
 20
19954.3662626721
 30
0.0
 40
39.99999999992856
100
AcDbArc
 50
-120.0090237349224
 51
-87.83858594281786
  0
ARC
  5
59E
330
1F
100
AcDbEntity
  8
1
  6
Continuous
 62
     7
100
AcDbCircle
 10
2380.00897506222
 20
22954.3662626721
 30
0.0
 40
39.99999999993588
100
AcDbArc
 50
-92.16141405748354
 51
-59.99097626507822
  0
ARC
  5
59F
330
1F
100
AcDbEntity
  8
1
  6
Continuous
 62
     7
100
AcDbCircle
 10
3020.01988606059
 20
23051.3862450539
 30
0.0
 40
39.99999999908156
100
AcDbArc
 50
-120.00902373253
 51
-87.83858590581978
  0
ARC
  5
5A0
330
1F
100
AcDbEntity
  8
1
  6
Continuous
 62
     7
100
AcDbCircle
 10
3253.94818632408
 20
23051.3862450539
 30
0.0
 40
40.00000000000342
100
AcDbArc
 50
-92.16141409417465
 51
-72.95194371975973
  0
ARC
  5
5A1
330
1F
100
AcDbEntity
  8
1
  6
Continuous
 62
     7
100
AcDbCircle
 10
3286.35468132825
 20
22959.393957406
 30
0.0
 40
44.99999999980116
100
AcDbArc
 50
-118.1813889121986
 51
-89.66622072723418
  0
ARC
  5
5A2
330
1F
100
AcDbEntity
  8
1
  6
Continuous
 62
     7
100
AcDbCircle
 10
3938.76252937811
 20
22959.393957406
 30
0.0
 40
44.99999999996361
100
AcDbArc
 50
-90.33377927276452
 51
-61.81861108780142
  0
ARC
  5
5A3
330
1F
100
AcDbEntity
  8
1
  6
Continuous
 62
     3
100
AcDbCircle
 10
3100.29471573711
 20
23286.7380359166
 30
0.0
 40
39.99999998711277
100
AcDbArc
 50
168.9912218123113
 51
-158.838340390686
  0
ARC
  5
5A4
330
1F
100
AcDbEntity
  8
1
  6
Continuous
 62
     7
100
AcDbCircle
 10
3020.01988606059
 20
8051.38624505389
 30
0.0
 40
39.99999999909652
100
AcDbArc
 50
-120.0090237325176
 51
-87.83858590581964
  0
ARC
  5
5A5
330
1F
100
AcDbEntity
  8
1
  6
Continuous
 62
     7
100
AcDbCircle
 10
3253.94818632408
 20
8051.38624505389
 30
0.0
 40
40.00000000000251
100
AcDbArc
 50
-92.16141409417469
 51
-72.95194371977726
  0
ARC
  5
5A6
330
1F
100
AcDbEntity
  8
1
  6
Continuous
 62
     3
100
AcDbCircle
 10
3100.29471573711
 20
8286.73803591658
 30
0.0
 40
39.99999999910229
100
AcDbArc
 50
168.9912217825391
 51
-158.838340390754
  0
ARC
  5
5A7
330
1F
100
AcDbEntity
  8
1
  6
Continuous
 62
     7
100
AcDbCircle
 10
25020.0198860606
 20
17051.3862450539
 30
0.0
 40
39.99999999910635
100
AcDbArc
 50
-120.0090237325915
 51
-87.83858594011878
  0
ARC
  5
5A8
330
1F
100
AcDbEntity
  8
1
  6
Continuous
 62
     7
100
AcDbCircle
 10
25253.9481863241
 20
17051.3862450539
 30
0.0
 40
40.00000000000498
100
AcDbArc
 50
-92.16141409423386
 51
-72.95194371977405
  0
ARC
  5
5A9
330
1F
100
AcDbEntity
  8
1
  6
Continuous
 62
     3
100
AcDbCircle
 10
25100.2947157371
 20
17286.7380359166
 30
0.0
 40
39.99999998718151
100
AcDbArc
 50
168.9912218123304
 51
-158.8383403906862
  0
ARC
  5
5AA
330
1F
100
AcDbEntity
  8
1
  6
Continuous
 62
     7
100
AcDbCircle
 10
25286.3546813282
 20
16959.393957406
 30
0.0
 40
44.99999999979236
100
AcDbArc
 50
-118.1813889121777
 51
-89.66622072717149
  0
ARC
  5
5AB
330
1F
100
AcDbEntity
  8
1
  6
Continuous
 62
     7
100
AcDbCircle
 10
25938.7625293781
 20
16959.393957406
 30
0.0
 40
44.9999999999633
100
AcDbArc
 50
-90.33377927269734
 51
-61.81861108782234
  0
ARC
  5
5AC
330
1F
100
AcDbEntity
  8
1
  6
Continuous
 62
     7
100
AcDbCircle
 10
27740.0089750622
 20
16954.3662626721
 30
0.0
 40
39.9999999999374
100
AcDbArc
 50
-92.16141405754146
 51
-59.99097626510191
  0
ARC
  5
5AD
330
1F
100
AcDbEntity
  8
1
  6
Continuous
 62
     7
100
AcDbCircle
 10
20.0198860624605
 20
22954.3662626719
 30
0.0
 40
39.99999999975643
100
AcDbArc
 50
-120.0090237350685
 51
-87.83858594961386
  0
ARC
  5
5AE
330
1F
100
AcDbEntity
  8
1
  6
Continuous
 62
     7
100
AcDbCircle
 10
242.447105301615
 20
22954.3662626719
 30
0.0
 40
39.99999999994909
100
AcDbArc
 50
-92.1614140503856
 51
-59.9909762651459
  0
ARC
  5
5AF
330
1F
100
AcDbEntity
  8
1
  6
Continuous
 62
     7
100
AcDbCircle
 10
2157.48637776642
 20
22954.3662626724
 30
0.0
 40
40.00000000001362
100
AcDbArc
 50
-120.009023734852
 51
-87.83858594961843
  0
ARC
  5
5B0
330
1F
100
AcDbEntity
  8
1
  6
Continuous
 62
     7
100
AcDbCircle
 10
27517.4863777664
 20
16954.3662626724
 30
0.0
 40
40.00000000000384
100
AcDbArc
 50
-120.0090237348277
 51
-87.8385859496295
  0
ARC
  5
5B1
330
1F
100
AcDbEntity
  8
1
  6
Continuous
 62
     7
100
AcDbCircle
 10
37980.0089750622
 20
19954.3662626721
 30
0.0
 40
39.99999999993356
100
AcDbArc
 50
-92.16141405739566
 51
-59.99097626509739
  0
ARC
  5
5B2
330
1F
100
AcDbEntity
  8
1
  6
Continuous
 62
     7
100
AcDbCircle
 10
37757.4863777664
 20
19954.3662626724
 30
0.0
 40
40.00000000000202
100
AcDbArc
 50
-120.0090237348232
 51
-87.8385859496295
  0
ARC
  5
5B3
330
1F
100
AcDbEntity
  8
1
  6
Continuous
 62
     7
100
AcDbCircle
 10
35020.0198860606
 20
20051.3862450539
 30
0.0
 40
39.99999999910635
100
AcDbArc
 50
-120.0090237325915
 51
-87.83858593998339
  0
ARC
  5
5B4
330
1F
100
AcDbEntity
  8
1
  6
Continuous
 62
     7
100
AcDbCircle
 10
35253.9481863241
 20
20051.3862450539
 30
0.0
 40
40.00000000000512
100
AcDbArc
 50
-92.16141409423908
 51
-72.95194371977405
  0
ARC
  5
5B5
330
1F
100
AcDbEntity
  8
1
  6
Continuous
 62
     7
100
AcDbCircle
 10
35286.3546813283
 20
19959.393957406
 30
0.0
 40
44.99999999979236
100
AcDbArc
 50
-118.1813889121777
 51
-89.66622072730193
  0
ARC
  5
5B6
330
1F
100
AcDbEntity
  8
1
  6
Continuous
 62
     7
100
AcDbCircle
 10
35938.7625293781
 20
19959.393957406
 30
0.0
 40
44.99999999996334
100
AcDbArc
 50
-90.33377927270662
 51
-61.81861108782234
  0
ARC
  5
5B7
330
1F
100
AcDbEntity
  8
1
  6
Continuous
 62
     3
100
AcDbCircle
 10
35100.2947157371
 20
20286.7380359166
 30
0.0
 40
39.99999998708152
100
AcDbArc
 50
168.9912218123026
 51
-158.8383403906354
  0
ARC
  5
5B8
330
1F
100
AcDbEntity
  8
1
  6
Continuous
 62
     7
100
AcDbCircle
 10
35253.9481863241
 20
20051.3862450539
 30
0.0
 40
40.00000000000512
100
AcDbArc
 50
-92.16141409423908
 51
-72.95194371977405
  0
ARC
  5
5B9
330
1F
100
AcDbEntity
  8
1
  6
Continuous
 62
     7
100
AcDbCircle
 10
30019.4788144126
 20
19954.3662626721
 30
0.0
 40
39.99999999996791
100
AcDbArc
 50
-120.00902373502
 51
-87.83858594260435
  0
ARC
  5
5BA
330
1F
100
AcDbEntity
  8
1
  6
Continuous
 62
     7
100
AcDbCircle
 10
30242.0014117083
 20
19954.3662626724
 30
0.0
 40
40.00000000004314
100
AcDbArc
 50
-92.16141405022469
 51
-59.99097626505043
  0
ARC
  5
5BB
330
1F
100
AcDbEntity
  8
1
  6
Continuous
 62
     7
100
AcDbCircle
 10
32060.7252600967
 20
19959.393957406
 30
0.0
 40
44.99999999983874
100
AcDbArc
 50
-118.1813889122879
 51
-89.66622072729658
  0
ARC
  5
5BC
330
1F
100
AcDbEntity
  8
1
  6
Continuous
 62
     7
100
AcDbCircle
 10
32713.1331081465
 20
19959.393957406
 30
0.0
 40
44.99999999996332
100
AcDbArc
 50
-90.33377927270198
 51
-61.81861108771211
  0
ARC
  5
5BD
330
1F
100
AcDbEntity
  8
1
  6
Continuous
 62
     7
100
AcDbCircle
 10
32745.5396031507
 20
20051.3862450539
 30
0.0
 40
39.99999999999825
100
AcDbArc
 50
-107.048056280226
 51
-87.83858590577134
  0
ARC
  5
5BE
330
1F
100
AcDbEntity
  8
1
  6
Continuous
 62
     7
100
AcDbCircle
 10
32979.4679034142
 20
20051.3862450539
 30
0.0
 40
39.99999999909984
100
AcDbArc
 50
-92.16141405988122
 51
-59.9909762675349
  0
ARC
  5
5BF
330
1F
100
AcDbEntity
  8
1
  6
Continuous
 62
     3
100
AcDbCircle
 10
32899.1930737377
 20
20286.7380359166
 30
0.0
 40
40.00000000002218
100
AcDbArc
 50
-21.1616596093119
 51
11.00877818769547
  0
ARC
  5
5C0
330
1F
100
AcDbEntity
  8
1
  6
Continuous
 62
     7
100
AcDbCircle
 10
22740.0089750641
 20
17051.3862450539
 30
0.0
 40
39.99999999910354
100
AcDbArc
 50
-92.16141406002183
 51
-59.99097626753039
  0
ARC
  5
5C1
330
1F
100
AcDbEntity
  8
1
  6
Continuous
 62
     7
100
AcDbCircle
 10
22506.0806748006
 20
17051.3862450539
 30
0.0
 40
39.99999999999825
100
AcDbArc
 50
-107.048056280226
 51
-87.83858590591194
  0
ARC
  5
5C2
330
1F
100
AcDbEntity
  8
1
  6
Continuous
 62
     3
100
AcDbCircle
 10
22659.7341453875
 20
17286.7380359166
 30
0.0
 40
40.0000000000154
100
AcDbArc
 50
-21.16165960931566
 51
11.00877818766959
  0
ARC
  5
5C3
330
1F
100
AcDbEntity
  8
1
  6
Continuous
 62
     7
100
AcDbCircle
 10
22473.6741797964
 20
16959.393957406
 30
0.0
 40
44.9999999999633
100
AcDbArc
 50
-90.33377927269734
 51
-61.81861108782234
  0
ARC
  5
5C4
330
1F
100
AcDbEntity
  8
1
  6
Continuous
 62
     7
100
AcDbCircle
 10
21821.2663317465
 20
16959.393957406
 30
0.0
 40
44.99999999979236
100
AcDbArc
 50
-118.1813889121777
 51
-89.66622072717149
  0
ARC
  5
5C5
330
1F
100
AcDbEntity
  8
1
  6
Continuous
 62
     7
100
AcDbCircle
 10
20020.0198860625
 20
16954.3662626721
 30
0.0
 40
39.99999999996791
100
AcDbArc
 50
-120.00902373502
 51
-87.83858594259914
  0
ARC
  5
5C6
330
1F
100
AcDbEntity
  8
1
  6
Continuous
 62
     7
100
AcDbCircle
 10
20242.5424833583
 20
16954.3662626724
 30
0.0
 40
40.00000000005056
100
AcDbArc
 50
-92.1614140505059
 51
-59.99097626517227
  0
CIRCLE
  5
5C7
330
1F
100
AcDbEntity
  8
1
  6
Continuous
 62
     4
100
AcDbCircle
 10
6174.64626747888
 20
4560.71397842063
 30
0.0
 40
51.73863065773003
  0
CIRCLE
  5
5C8
330
1F
100
AcDbEntity
  8
1
  6
Continuous
 62
     4
100
AcDbCircle
 10
6174.64626747888
 20
4560.71397842063
 30
0.0
 40
61.43549897280991
  0
CIRCLE
  5
5C9
330
1F
100
AcDbEntity
  8
1
  6
Continuous
 62
     4
100
AcDbCircle
 10
6908.25742205468
 20
4560.71397842063
 30
0.0
 40
61.43549897280991
  0
CIRCLE
  5
5CA
330
1F
100
AcDbEntity
  8
1
  6
Continuous
 62
     4
100
AcDbCircle
 10
6908.25742205468
 20
4560.71397842063
 30
0.0
 40
51.73863065773003
  0
CIRCLE
  5
5CB
330
1F
100
AcDbEntity
  8
1
  6
Continuous
 62
     4
100
AcDbCircle
 10
1628.25742205468
 20
7560.71397842059
 30
0.0
 40
51.7386306577298
  0
CIRCLE
  5
5CC
330
1F
100
AcDbEntity
  8
1
  6
Continuous
 62
     4
100
AcDbCircle
 10
1628.25742205468
 20
7560.71397842059
 30
0.0
 40
61.43549897280991
  0
CIRCLE
  5
5CD
330
1F
100
AcDbEntity
  8
1
  6
Continuous
 62
     4
100
AcDbCircle
 10
894.6462674788841
 20
7560.71397842059
 30
0.0
 40
61.43549897280798
  0
CIRCLE
  5
5CE
330
1F
100
AcDbEntity
  8
1
  6
Continuous
 62
     4
100
AcDbCircle
 10
894.6462674788841
 20
7560.71397842059
 30
0.0
 40
51.73863065772798
  0
SPLINE
  5
5CF
330
1F
100
AcDbEntity
  8
1
  6
Continuous
 62
     7
100
AcDbSpline
210
0.0
220
0.0
230
1.0
 70
     8
 71
     3
 72
     9
 73
     5
 74
     3
 42
0.0000000001
 43
0.0000000001
 44
0.00000001
 40
0.0
 40
0.0
 40
0.0
 40
0.0
 40
0.2458227993749907
 40
0.4916455986969876
 40
0.4916455986969876
 40
0.4916455986969876
 40
0.4916455986969876
 10
3265.10278014403
 20
22919.7283968271
 30
0.0
 10
3265.107202963078
 20
22919.64611209744
 30
0.0
 10
3265.116048601172
 20
22919.48154263815
 30
0.0
 10
3265.170788337333
 20
22919.32609195938
 30
0.0
 10
3265.19815820541
 20
22919.24836662
 30
0.0
 11
3265.10278014403
 21
22919.7283968271
 31
0.0
 11
3265.127522125692
 21
22919.48382233326
 31
0.0
 11
3265.19815820541
 21
22919.24836662
 31
0.0
  0
LWPOLYLINE
  5
5D0
330
1F
100
AcDbEntity
  8
VOLLE_LIJNEN
  6
Continuous
 62
     4
100
AcDbPolyline
 90
        3
 70
     0
 43
0.0
 10
6100.93214988794
 20
4576.7249302428
 10
6100.93214988794
 20
4576.6474373563
 10
6100.93214988794
 20
4576.5613480322
  0
LWPOLYLINE
  5
5D1
330
1F
100
AcDbEntity
  8
VOLLE_LIJNEN
  6
Continuous
 62
     4
100
AcDbPolyline
 90
        3
 70
     0
 43
0.0
 10
6834.54330446374
 20
4576.7249302428
 10
6834.54330446374
 20
4576.6474373563
 10
6834.54330446374
 20
4576.5613480322
  0
LWPOLYLINE
  5
5D2
330
1F
100
AcDbEntity
  8
VOLLE_LIJNEN
  6
Continuous
 62
     4
100
AcDbPolyline
 90
        3
 70
     0
 43
0.0
 10
1554.54330446374
 20
7576.72493024276
 10
1554.54330446374
 20
7576.64743735626
 10
1554.54330446374
 20
7576.56134803216
  0
LWPOLYLINE
  5
5D3
330
1F
100
AcDbEntity
  8
VOLLE_LIJNEN
  6
Continuous
 62
     4
100
AcDbPolyline
 90
        3
 70
     0
 43
0.0
 10
820.932149887938
 20
7576.72493024276
 10
820.932149887938
 20
7576.64743735626
 10
820.932149887938
 20
7576.56134803216
  0
ENDSEC
  0
SECTION
  2
OBJECTS
  0
DICTIONARY
  5
C
330
0
100
AcDbDictionary
281
     1
  3
ACAD_GROUP
350
D
  3
ACAD_LAYOUT
350
1A
  3
ACAD_MLINESTYLE
350
17
  3
ACAD_PLOTSETTINGS
350
19
  3
ACAD_PLOTSTYLENAME
350
E
  3
ACAD_TABLESTYLE
350
2A
  3
AcDbVariableDictionary
350
2C
  0
DICTIONARY
  5
D
102
{ACAD_REACTORS
330
C
102
}
330
C
100
AcDbDictionary
281
     1
  0
DICTIONARY
  5
1A
102
{ACAD_REACTORS
330
C
102
}
330
C
100
AcDbDictionary
281
     1
  3
Layout1
350
1E
  3
Layout2
350
26
  3
Model
350
22
  0
DICTIONARY
  5
17
102
{ACAD_REACTORS
330
C
102
}
330
C
100
AcDbDictionary
281
     1
  3
Standard
350
18
  0
DICTIONARY
  5
19
102
{ACAD_REACTORS
330
C
102
}
330
C
100
AcDbDictionary
281
     1
  0
ACDBDICTIONARYWDFLT
  5
E
102
{ACAD_REACTORS
330
C
102
}
330
C
100
AcDbDictionary
281
     1
  3
Normal
350
F
100
AcDbDictionaryWithDefault
340
F
  0
DICTIONARY
  5
2A
102
{ACAD_REACTORS
330
C
102
}
330
C
100
AcDbDictionary
281
     1
  3
Standard
350
2B
  0
DICTIONARY
  5
2C
102
{ACAD_REACTORS
330
C
102
}
330
C
100
AcDbDictionary
281
     1
  3
CTABLESTYLE
350
2D
  0
LAYOUT
  5
1E
102
{ACAD_REACTORS
330
1A
102
}
330
1A
100
AcDbPlotSettings
  1

  2

  4

  6

 40
0.0
 41
0.0
 42
0.0
 43
0.0
 44
0.0
 45
0.0
 46
0.0
 47
0.0
 48
0.0
 49
0.0
140
0.0
141
0.0
142
1.0
143
1.0
 70
   688
 72
     0
 73
     0
 74
     5
  7

 75
    16
147
1.0
148
0.0
149
0.0
100
AcDbLayout
  1
Layout1
 70
     1
 71
     1
 10
0.0
 20
0.0
 11
12.0
 21
9.0
 12
0.0
 22
0.0
 32
0.0
 14
1.00000000000000E+20
 24
1.00000000000000E+20
 34
1.00000000000000E+20
 15
-1.00000000000000E+20
 25
-1.00000000000000E+20
 35
-1.00000000000000E+20
146
0.0
 13
0.0
 23
0.0
 33
0.0
 16
1.0
 26
0.0
 36
0.0
 17
0.0
 27
1.0
 37
0.0
 76
     0
330
1B
  0
LAYOUT
  5
26
102
{ACAD_REACTORS
330
1A
102
}
330
1A
100
AcDbPlotSettings
  1

  2

  4

  6

 40
0.0
 41
0.0
 42
0.0
 43
0.0
 44
0.0
 45
0.0
 46
0.0
 47
0.0
 48
0.0
 49
0.0
140
0.0
141
0.0
142
1.0
143
1.0
 70
   688
 72
     0
 73
     0
 74
     5
  7

 75
    16
147
1.0
148
0.0
149
0.0
100
AcDbLayout
  1
Layout2
 70
     1
 71
     2
 10
0.0
 20
0.0
 11
0.0
 21
0.0
 12
0.0
 22
0.0
 32
0.0
 14
0.0
 24
0.0
 34
0.0
 15
0.0
 25
0.0
 35
0.0
146
0.0
 13
0.0
 23
0.0
 33
0.0
 16
1.0
 26
0.0
 36
0.0
 17
0.0
 27
1.0
 37
0.0
 76
     0
330
23
  0
LAYOUT
  5
22
102
{ACAD_REACTORS
330
1A
102
}
330
1A
100
AcDbPlotSettings
  1

  2

  4

  6

 40
0.0
 41
0.0
 42
0.0
 43
0.0
 44
0.0
 45
0.0
 46
0.0
 47
0.0
 48
0.0
 49
0.0
140
0.0
141
0.0
142
1.0
143
1.0
 70
  1712
 72
     0
 73
     0
 74
     0
  7

 75
     0
147
1.0
148
0.0
149
0.0
100
AcDbLayout
  1
Model
 70
     1
 71
     0
 10
0.0
 20
0.0
 11
0.0
 21
0.0
 12
0.0
 22
0.0
 32
0.0
 14
0.01443056233802
 24
0.0
 34
0.0
 15
38000.0144305623
 25
23326.9848969854
 35
0.0
146
0.0
 13
0.0
 23
0.0
 33
0.0
 16
1.0
 26
0.0
 36
0.0
 17
0.0
 27
1.0
 37
0.0
 76
     0
330
1F
  0
MLINESTYLE
  5
18
102
{ACAD_REACTORS
330
17
102
}
330
17
100
AcDbMlineStyle
  2
Standard
 70
     0
  3

 62
   256
 51
90.0
 52
90.0
 71
     2
 49
0.5
 62
   256
  6
BYLAYER
 49
-0.5
 62
   256
  6
BYLAYER
  0
ACDBPLACEHOLDER
  5
F
102
{ACAD_REACTORS
330
E
102
}
330
E
  0
TABLESTYLE
  5
2B
102
{ACAD_REACTORS
330
2A
102
}
330
2A
100
AcDbTableStyle
  3
Standard
 70
     0
 71
     0
 40
0.06
 41
0.06
280
     0
281
     0
  7
Standard
140
0.18
170
     2
 62
     0
 63
     7
283
     0
274
    -2
284
     1
 64
     0
275
    -2
285
     1
 65
     0
276
    -2
286
     1
 66
     0
277
    -2
287
     1
 67
     0
278
    -2
288
     1
 68
     0
279
    -2
289
     1
 69
     0
  7
Standard
140
0.25
170
     5
 62
     0
 63
     7
283
     0
274
    -2
284
     1
 64
     0
275
    -2
285
     1
 65
     0
276
    -2
286
     1
 66
     0
277
    -2
287
     1
 67
     0
278
    -2
288
     1
 68
     0
279
    -2
289
     1
 69
     0
  7
Standard
140
0.18
170
     5
 62
     0
 63
     7
283
     0
274
    -2
284
     1
 64
     0
275
    -2
285
     1
 65
     0
276
    -2
286
     1
 66
     0
277
    -2
287
     1
 67
     0
278
    -2
288
     1
 68
     0
279
    -2
289
     1
 69
     0
  0
DICTIONARYVAR
  5
2D
102
{ACAD_REACTORS
330
2C
102
}
330
2C
100
DictionaryVariables
280
     0
  1
Standard
  0
ENDSEC
  0
EOF
