  0
SECTION
  2
HEADER
  9
$ACADVER
  1
AC1015
  9
$ACADMAINTVER
 70
     6
  9
$DWGCODEPAGE
  3
ANSI_1252
  9
$INSBASE
 10
0.0
 20
0.0
 30
0.0
  9
$EXTMIN
 10
9714.598220243872
 20
-17324.0445873285
 30
0.0
  9
$EXTMAX
 10
19250.55995115812
 20
-14332.91458732534
 30
0.0
  9
$LIMMIN
 10
0.0
 20
0.0
  9
$LIMMAX
 10
12.0
 20
9.0
  9
$ORTHOMODE
 70
     0
  9
$REGENMODE
 70
     1
  9
$FILLMODE
 70
     1
  9
$QTEXTMODE
 70
     0
  9
$MIRRTEXT
 70
     1
  9
$LTSCALE
 40
1.0
  9
$ATTMODE
 70
     1
  9
$TEXTSIZE
 40
0.2
  9
$TRACEWID
 40
0.05
  9
$TEXTSTYLE
  7
Standard
  9
$CLAYER
  8
0
  9
$CELTYPE
  6
ByLayer
  9
$CECOLOR
 62
   256
  9
$CELTSCALE
 40
1.0
  9
$DISPSILH
 70
     0
  9
$DIMSCALE
 40
1.0
  9
$DIMASZ
 40
0.18
  9
$DIMEXO
 40
0.0625
  9
$DIMDLI
 40
0.38
  9
$DIMRND
 40
0.0
  9
$DIMDLE
 40
0.0
  9
$DIMEXE
 40
0.18
  9
$DIMTP
 40
0.0
  9
$DIMTM
 40
0.0
  9
$DIMTXT
 40
0.18
  9
$DIMCEN
 40
0.09
  9
$DIMTSZ
 40
0.0
  9
$DIMTOL
 70
     0
  9
$DIMLIM
 70
     0
  9
$DIMTIH
 70
     1
  9
$DIMTOH
 70
     1
  9
$DIMSE1
 70
     0
  9
$DIMSE2
 70
     0
  9
$DIMTAD
 70
     0
  9
$DIMZIN
 70
     0
  9
$DIMBLK
  1

  9
$DIMASO
 70
     1
  9
$DIMSHO
 70
     1
  9
$DIMPOST
  1

  9
$DIMAPOST
  1

  9
$DIMALT
 70
     0
  9
$DIMALTD
 70
     2
  9
$DIMALTF
 40
25.4
  9
$DIMLFAC
 40
1.0
  9
$DIMTOFL
 70
     0
  9
$DIMTVP
 40
0.0
  9
$DIMTIX
 70
     0
  9
$DIMSOXD
 70
     0
  9
$DIMSAH
 70
     0
  9
$DIMBLK1
  1

  9
$DIMBLK2
  1

  9
$DIMSTYLE
  2
Standard
  9
$DIMCLRD
 70
     0
  9
$DIMCLRE
 70
     0
  9
$DIMCLRT
 70
     0
  9
$DIMTFAC
 40
1.0
  9
$DIMGAP
 40
0.09
  9
$DIMJUST
 70
     0
  9
$DIMSD1
 70
     0
  9
$DIMSD2
 70
     0
  9
$DIMTOLJ
 70
     1
  9
$DIMTZIN
 70
     0
  9
$DIMALTZ
 70
     0
  9
$DIMALTTZ
 70
     0
  9
$DIMUPT
 70
     0
  9
$DIMDEC
 70
     4
  9
$DIMTDEC
 70
     4
  9
$DIMALTU
 70
     2
  9
$DIMALTTD
 70
     2
  9
$DIMTXSTY
  7
Standard
  9
$DIMAUNIT
 70
     0
  9
$DIMADEC
 70
     0
  9
$DIMALTRND
 40
0.0
  9
$DIMAZIN
 70
     0
  9
$DIMDSEP
 70
    46
  9
$DIMATFIT
 70
     3
  9
$DIMFRAC
 70
     0
  9
$DIMLDRBLK
  1

  9
$DIMLUNIT
 70
     2
  9
$DIMLWD
 70
    -2
  9
$DIMLWE
 70
    -2
  9
$DIMTMOVE
 70
     0
  9
$LUNITS
 70
     2
  9
$LUPREC
 70
     4
  9
$SKETCHINC
 40
0.1
  9
$FILLETRAD
 40
0.5
  9
$AUNITS
 70
     0
  9
$AUPREC
 70
     0
  9
$MENU
  1
.
  9
$ELEVATION
 40
0.0
  9
$PELEVATION
 40
0.0
  9
$THICKNESS
 40
0.0
  9
$LIMCHECK
 70
     0
  9
$CHAMFERA
 40
0.5
  9
$CHAMFERB
 40
0.5
  9
$CHAMFERC
 40
1.0
  9
$CHAMFERD
 40
0.0
  9
$SKPOLY
 70
     0
  9
$TDCREATE
 40
2456968.3622839
  9
$TDUCREATE
 40
2456968.320617234
  9
$TDUPDATE
 40
2456968.362283912
  9
$TDUUPDATE
 40
2456968.320617246
  9
$TDINDWG
 40
0.0000000116
  9
$TDUSRTIMER
 40
0.0000000116
  9
$USRTIMER
 70
     1
  9
$ANGBASE
 50
0.0
  9
$ANGDIR
 70
     0
  9
$PDMODE
 70
     0
  9
$PDSIZE
 40
0.0
  9
$PLINEWID
 40
0.0
  9
$SPLFRAME
 70
     0
  9
$SPLINETYPE
 70
     6
  9
$SPLINESEGS
 70
     8
  9
$HANDSEED
  5
1C2
  9
$SURFTAB1
 70
     6
  9
$SURFTAB2
 70
     6
  9
$SURFTYPE
 70
     6
  9
$SURFU
 70
     6
  9
$SURFV
 70
     6
  9
$UCSBASE
  2

  9
$UCSNAME
  2

  9
$UCSORG
 10
0.0
 20
0.0
 30
0.0
  9
$UCSXDIR
 10
1.0
 20
0.0
 30
0.0
  9
$UCSYDIR
 10
0.0
 20
1.0
 30
0.0
  9
$UCSORTHOREF
  2

  9
$UCSORTHOVIEW
 70
     0
  9
$UCSORGTOP
 10
0.0
 20
0.0
 30
0.0
  9
$UCSORGBOTTOM
 10
0.0
 20
0.0
 30
0.0
  9
$UCSORGLEFT
 10
0.0
 20
0.0
 30
0.0
  9
$UCSORGRIGHT
 10
0.0
 20
0.0
 30
0.0
  9
$UCSORGFRONT
 10
0.0
 20
0.0
 30
0.0
  9
$UCSORGBACK
 10
0.0
 20
0.0
 30
0.0
  9
$PUCSBASE
  2

  9
$PUCSNAME
  2

  9
$PUCSORG
 10
0.0
 20
0.0
 30
0.0
  9
$PUCSXDIR
 10
1.0
 20
0.0
 30
0.0
  9
$PUCSYDIR
 10
0.0
 20
1.0
 30
0.0
  9
$PUCSORTHOREF
  2

  9
$PUCSORTHOVIEW
 70
     0
  9
$PUCSORGTOP
 10
0.0
 20
0.0
 30
0.0
  9
$PUCSORGBOTTOM
 10
0.0
 20
0.0
 30
0.0
  9
$PUCSORGLEFT
 10
0.0
 20
0.0
 30
0.0
  9
$PUCSORGRIGHT
 10
0.0
 20
0.0
 30
0.0
  9
$PUCSORGFRONT
 10
0.0
 20
0.0
 30
0.0
  9
$PUCSORGBACK
 10
0.0
 20
0.0
 30
0.0
  9
$USERI1
 70
     0
  9
$USERI2
 70
     0
  9
$USERI3
 70
     0
  9
$USERI4
 70
     0
  9
$USERI5
 70
     0
  9
$USERR1
 40
17.0
  9
$USERR2
 40
0.0
  9
$USERR3
 40
0.0
  9
$USERR4
 40
0.0
  9
$USERR5
 40
0.0
  9
$WORLDVIEW
 70
     1
  9
$SHADEDGE
 70
     3
  9
$SHADEDIF
 70
    70
  9
$TILEMODE
 70
     1
  9
$MAXACTVP
 70
    64
  9
$PINSBASE
 10
0.0
 20
0.0
 30
0.0
  9
$PLIMCHECK
 70
     0
  9
$PEXTMIN
 10
1.00000000000000E+20
 20
1.00000000000000E+20
 30
1.00000000000000E+20
  9
$PEXTMAX
 10
-1.00000000000000E+20
 20
-1.00000000000000E+20
 30
-1.00000000000000E+20
  9
$PLIMMIN
 10
0.0
 20
0.0
  9
$PLIMMAX
 10
12.0
 20
9.0
  9
$UNITMODE
 70
     0
  9
$VISRETAIN
 70
     1
  9
$PLINEGEN
 70
     0
  9
$PSLTSCALE
 70
     1
  9
$TREEDEPTH
 70
  3020
  9
$CMLSTYLE
  2
Standard
  9
$CMLJUST
 70
     0
  9
$CMLSCALE
 40
1.0
  9
$PROXYGRAPHICS
 70
     1
  9
$MEASUREMENT
 70
     1
  9
$CELWEIGHT
370
    -1
  9
$ENDCAPS
280
     0
  9
$JOINSTYLE
280
     0
  9
$LWDISPLAY
290
     0
  9
$INSUNITS
 70
     1
  9
$HYPERLINKBASE
  1

  9
$STYLESHEET
  1

  9
$XEDIT
290
     1
  9
$CEPSNTYPE
380
     0
  9
$PSTYLEMODE
290
     1
  9
$FINGERPRINTGUID
  2
{26912D61-6E4B-43EE-80F9-23D005E6F22F}
  9
$VERSIONGUID
  2
{FAEB1C32-E019-11D5-929B-00C0DF256EC4}
  9
$EXTNAMES
290
     1
  9
$PSVPSCALE
 40
0.0
  9
$OLESTARTUP
290
     0
  0
ENDSEC
  0
SECTION
  2
CLASSES
  0
CLASS
  1
ACDBDICTIONARYWDFLT
  2
AcDbDictionaryWithDefault
  3
ObjectDBX Classes
 90
        0
280
     0
281
     0
  0
CLASS
  1
VISUALSTYLE
  2
AcDbVisualStyle
  3
ObjectDBX Classes
 90
     4095
280
     0
281
     0
  0
CLASS
  1
MATERIAL
  2
AcDbMaterial
  3
ObjectDBX Classes
 90
     1153
280
     0
281
     0
  0
CLASS
  1
DICTIONARYVAR
  2
AcDbDictionaryVar
  3
ObjectDBX Classes
 90
        0
280
     0
281
     0
  0
CLASS
  1
ACDBPLACEHOLDER
  2
AcDbPlaceHolder
  3
ObjectDBX Classes
 90
        0
280
     0
281
     0
  0
CLASS
  1
LAYOUT
  2
AcDbLayout
  3
ObjectDBX Classes
 90
        0
280
     0
281
     0
  0
ENDSEC
  0
SECTION
  2
TABLES
  0
TABLE
  2
VPORT
  5
8
330
0
100
AcDbSymbolTable
 70
     1
  0
VPORT
  5
29
330
8
100
AcDbSymbolTableRecord
100
AcDbViewportTableRecord
  2
*Active
 70
     0
 10
0.0
 20
0.0
 11
1.0
 21
1.0
 12
14482.579085701
 22
-15828.47958732692
 13
0.0
 23
0.0
 14
0.5
 24
0.5
 15
0.5
 25
0.5
 16
0.0
 26
0.0
 36
1.0
 17
0.0
 27
0.0
 37
0.0
 40
6545.01663091162
 41
1.60267857142857
 42
50.0
 43
0.0
 44
0.0
 50
0.0
 51
0.0
 71
     0
 72
   100
 73
     1
 74
     3
 75
     0
 76
     0
 77
     0
 78
     0
281
     0
 65
     1
110
0.0
120
0.0
130
0.0
111
1.0
121
0.0
131
0.0
112
0.0
122
1.0
132
0.0
 79
     0
146
0.0
  0
ENDTAB
  0
TABLE
  2
LTYPE
  5
5
330
0
100
AcDbSymbolTable
 70
     8
  0
LTYPE
  5
14
330
5
100
AcDbSymbolTableRecord
100
AcDbLinetypeTableRecord
  2
ByBlock
 70
     0
  3

 72
    65
 73
     0
 40
0.0
  0
LTYPE
  5
15
330
5
100
AcDbSymbolTableRecord
100
AcDbLinetypeTableRecord
  2
ByLayer
 70
     0
  3

 72
    65
 73
     0
 40
0.0
  0
LTYPE
  5
16
330
5
100
AcDbSymbolTableRecord
100
AcDbLinetypeTableRecord
  2
Continuous
 70
     0
  3
Solid line
 72
    65
 73
     0
 40
0.0
  0
LTYPE
  5
3F
330
5
100
AcDbSymbolTableRecord
100
AcDbLinetypeTableRecord
  2
DASHED
 70
     0
  3
Dashed
 72
    65
 73
     2
 40
15.0
 49
7.0
 74
     0
 49
-8.0
 74
     0
  0
LTYPE
  5
40
330
5
100
AcDbSymbolTableRecord
100
AcDbLinetypeTableRecord
  2
DOTTED
 70
     0
  3
Dotted
 72
    65
 73
     2
 40
1.0
 49
0.0
 74
     0
 49
-1.0
 74
     0
  0
LTYPE
  5
41
330
5
100
AcDbSymbolTableRecord
100
AcDbLinetypeTableRecord
  2
DOT_CENTER
 70
     0
  3
Dot_Center
 72
    65
 73
     4
 40
14.0
 49
12.0
 74
     0
 49
-1.0
 74
     0
 49
0.0
 74
     0
 49
-1.0
 74
     0
  0
LTYPE
  5
42
330
5
100
AcDbSymbolTableRecord
100
AcDbLinetypeTableRecord
  2
LONG_DASHED
 70
     0
  3
Long_Dashed
 72
    65
 73
     2
 40
15.0
 49
10.0
 74
     0
 49
-5.0
 74
     0
  0
LTYPE
  5
43
330
5
100
AcDbSymbolTableRecord
100
AcDbLinetypeTableRecord
  2
DASH_CENTER
 70
     0
  3
Dash_Center
 72
    65
 73
     4
 40
14.0
 49
11.0
 74
     0
 49
-1.0
 74
     0
 49
1.0
 74
     0
 49
-1.0
 74
     0
  0
LTYPE
  5
44
330
5
100
AcDbSymbolTableRecord
100
AcDbLinetypeTableRecord
  2
PHANTOM
 70
     0
  3
Phantom
 72
    65
 73
     6
 40
13.0
 49
10.0
 74
     0
 49
-1.0
 74
     0
 49
0.0
 74
     0
 49
-1.0
 74
     0
 49
0.0
 74
     0
 49
-1.0
 74
     0
  0
LTYPE
  5
45
330
5
100
AcDbSymbolTableRecord
100
AcDbLinetypeTableRecord
  2
CENTER_DASH_DASH
 70
     0
  3
Center_Dash_Dash
 72
    65
 73
     6
 40
14.0
 49
9.0
 74
     0
 49
-1.0
 74
     0
 49
1.0
 74
     0
 49
-1.0
 74
     0
 49
1.0
 74
     0
 49
-1.0
 74
     0
  0
ENDTAB
  0
TABLE
  2
LAYER
  5
2
330
0
100
AcDbSymbolTable
 70
     4
  0
LAYER
  5
10
330
2
100
AcDbSymbolTableRecord
100
AcDbLayerTableRecord
  2
0
 70
     0
 62
     7
  6
Continuous
370
    -3
390
F
  0
LAYER
  5
46
330
2
100
AcDbSymbolTableRecord
100
AcDbLayerTableRecord
  2
1
 70
     0
 62
     7
  6
Continuous
370
    -3
390
F
  0
LAYER
  5
47
330
2
100
AcDbSymbolTableRecord
100
AcDbLayerTableRecord
  2
100
 70
     0
 62
     7
  6
Continuous
370
    -3
390
F
  0
LAYER
  5
48
330
2
100
AcDbSymbolTableRecord
100
AcDbLayerTableRecord
  2
143
 70
     0
 62
     7
  6
Continuous
370
    -3
390
F
  0
ENDTAB
  0
TABLE
  2
STYLE
  5
3
330
0
100
AcDbSymbolTable
 70
     1
  0
STYLE
  5
11
330
3
100
AcDbSymbolTableRecord
100
AcDbTextStyleTableRecord
  2
Standard
 70
     0
 40
0.0
 41
1.0
 50
0.0
 71
     0
 42
0.2
  3
txt
  4

  0
ENDTAB
  0
TABLE
  2
VIEW
  5
6
330
0
100
AcDbSymbolTable
 70
     0
  0
ENDTAB
  0
TABLE
  2
UCS
  5
7
330
0
100
AcDbSymbolTable
 70
     0
  0
ENDTAB
  0
TABLE
  2
APPID
  5
9
330
0
100
AcDbSymbolTable
 70
     1
  0
APPID
  5
12
330
9
100
AcDbSymbolTableRecord
100
AcDbRegAppTableRecord
  2
ACAD
 70
     0
  0
ENDTAB
  0
TABLE
  2
DIMSTYLE
  5
A
330
0
100
AcDbSymbolTable
 70
     1
100
AcDbDimStyleTable
  0
DIMSTYLE
105
27
330
A
100
AcDbSymbolTableRecord
100
AcDbDimStyleTableRecord
  2
Standard
 70
     0
340
11
  0
ENDTAB
  0
TABLE
  2
BLOCK_RECORD
  5
1
330
0
100
AcDbSymbolTable
 70
     1
  0
BLOCK_RECORD
  5
1F
330
1
100
AcDbSymbolTableRecord
100
AcDbBlockTableRecord
  2
*Model_Space
340
22
  0
BLOCK_RECORD
  5
1B
330
1
100
AcDbSymbolTableRecord
100
AcDbBlockTableRecord
  2
*Paper_Space
340
1E
  0
BLOCK_RECORD
  5
23
330
1
100
AcDbSymbolTableRecord
100
AcDbBlockTableRecord
  2
*Paper_Space0
340
26
  0
ENDTAB
  0
ENDSEC
  0
SECTION
  2
BLOCKS
  0
BLOCK
  5
20
330
1F
100
AcDbEntity
  8
0
100
AcDbBlockBegin
  2
*Model_Space
 70
     0
 10
0.0
 20
0.0
 30
0.0
  3
*Model_Space
  1

  0
ENDBLK
  5
21
330
1F
100
AcDbEntity
  8
0
100
AcDbBlockEnd
  0
BLOCK
  5
1C
330
1B
100
AcDbEntity
 67
     1
  8
0
100
AcDbBlockBegin
  2
*Paper_Space
 70
     0
 10
0.0
 20
0.0
 30
0.0
  3
*Paper_Space
  1

  0
ENDBLK
  5
1D
330
1B
100
AcDbEntity
 67
     1
  8
0
100
AcDbBlockEnd
  0
BLOCK
  5
24
330
23
100
AcDbEntity
  8
0
100
AcDbBlockBegin
  2
*Paper_Space0
 70
     0
 10
0.0
 20
0.0
 30
0.0
  3
*Paper_Space0
  1

  0
ENDBLK
  5
25
330
23
100
AcDbEntity
  8
0
100
AcDbBlockEnd
  0
ENDSEC
  0
SECTION
  2
ENTITIES
  0
LINE
  5
49
330
1F
100
AcDbEntity
  8
1
  6
Continuous
 62
     5
100
AcDbLine
 10
9837.87346798458
 20
-15557.7709007099
 30
0.0
 11
10445.8734679846
 21
-15557.7709007099
 31
0.0
  0
LINE
  5
4A
330
1F
100
AcDbEntity
  8
100
  6
Continuous
 62
     5
100
AcDbLine
 10
10453.1587922709
 20
-15547.6650277467
 30
0.0
 11
10454.1475913575
 21
-15548.814280439
 31
0.0
  0
LINE
  5
4B
330
1F
100
AcDbEntity
  8
100
  6
Continuous
 62
     5
100
AcDbLine
 10
10454.8734679846
 20
-15550.7709007099
 30
0.0
 11
10454.8734679846
 21
-15553.7709007099
 31
0.0
  0
LINE
  5
4C
330
1F
100
AcDbEntity
  8
1
  6
Continuous
 62
     7
100
AcDbLine
 10
9810.09794196429
 20
-15453.7992915483
 30
0.0
 11
9848.92950022696
 21
-15496.5960174612
 31
0.0
  0
LINE
  5
4D
330
1F
100
AcDbEntity
  8
1
  6
Continuous
 62
     7
100
AcDbLine
 10
9716.337962489
 20
-15190.5296871767
 30
0.0
 11
9768.36033282451
 21
-15369.2709007099
 31
0.0
  0
LINE
  5
4E
330
1F
100
AcDbEntity
  8
1
  6
Continuous
 62
     7
100
AcDbLine
 10
10064.9305522368
 20
-15372.4754515513
 30
0.0
 11
10170.8734679846
 21
-15370.967592891
 31
0.0
  0
LINE
  5
4F
330
1F
100
AcDbEntity
  8
1
  6
Continuous
 62
     7
100
AcDbLine
 10
10231.8672268862
 20
-15337.3695328562
 30
0.0
 11
10251.6617493045
 21
-15312.1063934641
 31
0.0
  0
LINE
  5
50
330
1F
100
AcDbEntity
  8
1
  6
Continuous
 62
     5
100
AcDbLine
 10
10171.8734679846
 20
-15509.378426759
 30
0.0
 11
10171.8734679846
 21
-15370.9597068382
 31
0.0
  0
LINE
  5
51
330
1F
100
AcDbEntity
  8
1
  6
Continuous
 62
     5
100
AcDbLine
 10
10111.8734679846
 20
-15509.378426759
 30
0.0
 11
10111.8734679846
 21
-15371.8073249328
 31
0.0
  0
LINE
  5
52
330
1F
100
AcDbEntity
  8
1
  6
Continuous
 62
     5
100
AcDbLine
 10
10079.3734679846
 20
-15509.378426759
 30
0.0
 11
10204.3734679846
 21
-15509.378426759
 31
0.0
  0
LINE
  5
53
330
1F
100
AcDbEntity
  8
100
  6
Continuous
 62
     5
100
AcDbLine
 10
10451.3324269749
 20
-15546.6552507575
 30
0.0
 11
10204.3734679846
 21
-15509.378426759
 31
0.0
  0
LINE
  5
54
330
1F
100
AcDbEntity
  8
100
  6
Continuous
 62
     5
100
AcDbLine
 10
9832.41450899427
 20
-15546.6552507575
 30
0.0
 11
10079.3734679846
 21
-15509.378426759
 31
0.0
  0
LINE
  5
55
330
1F
100
AcDbEntity
  8
100
  6
Continuous
 62
     5
100
AcDbLine
 10
9828.87346798458
 20
-15553.7709007099
 30
0.0
 11
9828.87346798458
 21
-15550.7709007099
 31
0.0
  0
LINE
  5
56
330
1F
100
AcDbEntity
  8
100
  6
Continuous
 62
     5
100
AcDbLine
 10
9829.59934461161
 20
-15548.814280439
 30
0.0
 11
9830.58814369829
 21
-15547.6650277467
 31
0.0
  0
LINE
  5
57
330
1F
100
AcDbEntity
  8
1
  6
Continuous
 62
     5
100
AcDbLine
 10
11824.8224217698
 20
-15509.378426759
 30
0.0
 11
11824.8224217698
 21
-15496.5960174612
 31
0.0
  0
LINE
  5
58
330
1F
100
AcDbEntity
  8
1
  6
Continuous
 62
     5
100
AcDbLine
 10
11884.8224217698
 20
-15509.378426759
 30
0.0
 11
11884.8224217698
 21
-15496.5960174612
 31
0.0
  0
LINE
  5
59
330
1F
100
AcDbEntity
  8
1
  6
Continuous
 62
     5
100
AcDbLine
 10
11550.8224217698
 20
-15557.7709007099
 30
0.0
 11
12158.8224217698
 21
-15557.7709007099
 31
0.0
  0
LINE
  5
5A
330
1F
100
AcDbEntity
  8
100
  6
Continuous
 62
     5
100
AcDbLine
 10
12164.2813807601
 20
-15546.6552507575
 30
0.0
 11
11917.3224217698
 21
-15509.378426759
 31
0.0
  0
LINE
  5
5B
330
1F
100
AcDbEntity
  8
100
  6
Continuous
 62
     5
100
AcDbLine
 10
11545.3634627795
 20
-15546.6552507575
 30
0.0
 11
11792.3224217698
 21
-15509.378426759
 31
0.0
  0
LINE
  5
5C
330
1F
100
AcDbEntity
  8
1
  6
Continuous
 62
     5
100
AcDbLine
 10
11792.3224217698
 20
-15509.378426759
 30
0.0
 11
11917.3224217698
 21
-15509.378426759
 31
0.0
  0
LINE
  5
5D
330
1F
100
AcDbEntity
  8
100
  6
Continuous
 62
     5
100
AcDbLine
 10
12167.8224217698
 20
-15550.7709007099
 30
0.0
 11
12167.8224217698
 21
-15553.7709007099
 31
0.0
  0
LINE
  5
5E
330
1F
100
AcDbEntity
  8
100
  6
Continuous
 62
     5
100
AcDbLine
 10
12166.107746056
 20
-15547.6650277467
 30
0.0
 11
12167.0965451427
 21
-15548.814280439
 31
0.0
  0
LINE
  5
5F
330
1F
100
AcDbEntity
  8
100
  6
Continuous
 62
     5
100
AcDbLine
 10
11542.5482983968
 20
-15548.814280439
 30
0.0
 11
11543.5370974835
 21
-15547.6650277467
 31
0.0
  0
LINE
  5
60
330
1F
100
AcDbEntity
  8
100
  6
Continuous
 62
     5
100
AcDbLine
 10
11541.8224217698
 20
-15553.7709007099
 30
0.0
 11
11541.8224217698
 21
-15550.7709007099
 31
0.0
  0
LINE
  5
61
330
1F
100
AcDbEntity
  8
1
  6
Continuous
 62
     1
100
AcDbLine
 10
10215.919049684
 20
-15277.4020433845
 30
0.0
 11
9833.85619056173
 21
-15194.0224054364
 31
0.0
  0
LINE
  5
62
330
1F
100
AcDbEntity
  8
1
  6
Continuous
 62
     1
100
AcDbLine
 10
9848.92950022696
 20
-15496.5960174612
 30
0.0
 11
9767.42886917826
 21
-15208.0050325811
 31
0.0
  0
LINE
  5
63
330
1F
100
AcDbEntity
  8
1
  6
Continuous
 62
     7
100
AcDbLine
 10
12114.7698235052
 20
-15202.4469297047
 30
0.0
 11
12114.7698235052
 21
-15084.4469297047
 31
0.0
  0
LINE
  5
64
330
1F
100
AcDbEntity
  8
1
  6
Continuous
 62
     7
100
AcDbLine
 10
11594.8750200343
 20
-15084.4469297047
 30
0.0
 11
11594.8750200343
 21
-15202.4469297047
 31
0.0
  0
LINE
  5
65
330
1F
100
AcDbEntity
  8
1
  6
Continuous
 62
     7
100
AcDbLine
 10
12114.7698235052
 20
-14529.5048114858
 30
0.0
 11
12114.7698235052
 21
-15446.5960174612
 31
0.0
  0
LINE
  5
66
330
1F
100
AcDbEntity
  8
1
  6
Continuous
 62
     7
100
AcDbLine
 10
12064.7698235052
 20
-15496.5960174612
 30
0.0
 11
11644.8750200343
 21
-15496.5960174612
 31
0.0
  0
LINE
  5
67
330
1F
100
AcDbEntity
  8
1
  6
Continuous
 62
     7
100
AcDbLine
 10
11594.8750200343
 20
-15446.5960174612
 30
0.0
 11
11594.8750200343
 21
-14529.5048114858
 31
0.0
  0
LINE
  5
68
330
1F
100
AcDbEntity
  8
1
  6
Continuous
 62
     1
100
AcDbLine
 10
11854.8224217698
 20
-14733.6329636484
 30
0.0
 11
11854.8224217698
 21
-15137.9430069373
 31
0.0
  0
LINE
  5
69
330
1F
100
AcDbEntity
  8
1
  6
Continuous
 62
     1
100
AcDbLine
 10
15364.7102010164
 20
-14733.6329636484
 30
0.0
 11
15364.7102010164
 21
-15137.9430069373
 31
0.0
  0
LINE
  5
6A
330
1F
100
AcDbEntity
  8
1
  6
Continuous
 62
     7
100
AcDbLine
 10
15104.7627992809
 20
-15446.5960174612
 30
0.0
 11
15104.7627992809
 21
-14529.5048114858
 31
0.0
  0
LINE
  5
6B
330
1F
100
AcDbEntity
  8
1
  6
Continuous
 62
     7
100
AcDbLine
 10
15574.6576027518
 20
-15496.5960174612
 30
0.0
 11
15154.7627992809
 21
-15496.5960174612
 31
0.0
  0
LINE
  5
6C
330
1F
100
AcDbEntity
  8
1
  6
Continuous
 62
     7
100
AcDbLine
 10
15624.6576027518
 20
-14529.5048114858
 30
0.0
 11
15624.6576027518
 21
-15446.5960174612
 31
0.0
  0
LINE
  5
6D
330
1F
100
AcDbEntity
  8
1
  6
Continuous
 62
     7
100
AcDbLine
 10
15104.7627992809
 20
-15084.4469297047
 30
0.0
 11
15104.7627992809
 21
-15202.4469297047
 31
0.0
  0
LINE
  5
6E
330
1F
100
AcDbEntity
  8
1
  6
Continuous
 62
     7
100
AcDbLine
 10
15624.6576027518
 20
-15202.4469297047
 30
0.0
 11
15624.6576027518
 21
-15084.4469297047
 31
0.0
  0
LINE
  5
6F
330
1F
100
AcDbEntity
  8
1
  6
Continuous
 62
     1
100
AcDbLine
 10
13358.8172794736
 20
-15476.5960174612
 30
0.0
 11
13277.3166484249
 21
-15188.0050325811
 31
0.0
  0
LINE
  5
70
330
1F
100
AcDbEntity
  8
1
  6
Continuous
 62
     1
100
AcDbLine
 10
13725.8068289306
 20
-15257.4020433845
 30
0.0
 11
13343.7439698084
 21
-15174.0224054364
 31
0.0
  0
LINE
  5
71
330
1F
100
AcDbEntity
  8
100
  6
Continuous
 62
     5
100
AcDbLine
 10
15051.7102010164
 20
-15553.7709007099
 30
0.0
 11
15051.7102010164
 21
-15550.7709007099
 31
0.0
  0
LINE
  5
72
330
1F
100
AcDbEntity
  8
100
  6
Continuous
 62
     5
100
AcDbLine
 10
15052.4360776434
 20
-15548.814280439
 30
0.0
 11
15053.4248767301
 21
-15547.6650277467
 31
0.0
  0
LINE
  5
73
330
1F
100
AcDbEntity
  8
100
  6
Continuous
 62
     5
100
AcDbLine
 10
15675.9955253027
 20
-15547.6650277467
 30
0.0
 11
15676.9843243894
 21
-15548.814280439
 31
0.0
  0
LINE
  5
74
330
1F
100
AcDbEntity
  8
100
  6
Continuous
 62
     5
100
AcDbLine
 10
15677.7102010164
 20
-15550.7709007099
 30
0.0
 11
15677.7102010164
 21
-15553.7709007099
 31
0.0
  0
LINE
  5
75
330
1F
100
AcDbEntity
  8
1
  6
Continuous
 62
     5
100
AcDbLine
 10
15302.2102010164
 20
-15509.378426759
 30
0.0
 11
15427.2102010164
 21
-15509.378426759
 31
0.0
  0
LINE
  5
76
330
1F
100
AcDbEntity
  8
100
  6
Continuous
 62
     5
100
AcDbLine
 10
15055.2512420261
 20
-15546.6552507575
 30
0.0
 11
15302.2102010164
 21
-15509.378426759
 31
0.0
  0
LINE
  5
77
330
1F
100
AcDbEntity
  8
100
  6
Continuous
 62
     5
100
AcDbLine
 10
15674.1691600067
 20
-15546.6552507575
 30
0.0
 11
15427.2102010164
 21
-15509.378426759
 31
0.0
  0
LINE
  5
78
330
1F
100
AcDbEntity
  8
1
  6
Continuous
 62
     5
100
AcDbLine
 10
15060.7102010164
 20
-15557.7709007099
 30
0.0
 11
15668.7102010164
 21
-15557.7709007099
 31
0.0
  0
LINE
  5
79
330
1F
100
AcDbEntity
  8
1
  6
Continuous
 62
     5
100
AcDbLine
 10
15394.7102010164
 20
-15509.378426759
 30
0.0
 11
15394.7102010164
 21
-15496.5960174612
 31
0.0
  0
LINE
  5
7A
330
1F
100
AcDbEntity
  8
1
  6
Continuous
 62
     5
100
AcDbLine
 10
15334.7102010164
 20
-15509.378426759
 30
0.0
 11
15334.7102010164
 21
-15496.5960174612
 31
0.0
  0
LINE
  5
7B
330
1F
100
AcDbEntity
  8
100
  6
Continuous
 62
     5
100
AcDbLine
 10
13339.4871238583
 20
-15548.814280439
 30
0.0
 11
13340.4759229449
 21
-15547.6650277467
 31
0.0
  0
LINE
  5
7C
330
1F
100
AcDbEntity
  8
100
  6
Continuous
 62
     5
100
AcDbLine
 10
13338.7612472312
 20
-15553.7709007099
 30
0.0
 11
13338.7612472312
 21
-15550.7709007099
 31
0.0
  0
LINE
  5
7D
330
1F
100
AcDbEntity
  8
100
  6
Continuous
 62
     5
100
AcDbLine
 10
13342.3022882409
 20
-15546.6552507575
 30
0.0
 11
13589.2612472312
 21
-15509.378426759
 31
0.0
  0
LINE
  5
7E
330
1F
100
AcDbEntity
  8
100
  6
Continuous
 62
     5
100
AcDbLine
 10
13961.2202062215
 20
-15546.6552507575
 30
0.0
 11
13714.2612472312
 21
-15509.378426759
 31
0.0
  0
LINE
  5
7F
330
1F
100
AcDbEntity
  8
1
  6
Continuous
 62
     5
100
AcDbLine
 10
13589.2612472312
 20
-15509.378426759
 30
0.0
 11
13714.2612472312
 21
-15509.378426759
 31
0.0
  0
LINE
  5
80
330
1F
100
AcDbEntity
  8
1
  6
Continuous
 62
     5
100
AcDbLine
 10
13621.7612472312
 20
-15509.378426759
 30
0.0
 11
13621.7612472312
 21
-15351.8073249328
 31
0.0
  0
LINE
  5
81
330
1F
100
AcDbEntity
  8
1
  6
Continuous
 62
     5
100
AcDbLine
 10
13681.7612472312
 20
-15509.378426759
 30
0.0
 11
13681.7612472312
 21
-15350.9533601445
 31
0.0
  0
LINE
  5
82
330
1F
100
AcDbEntity
  8
1
  6
Continuous
 62
     7
100
AcDbLine
 10
13741.7550061329
 20
-15317.3695328562
 30
0.0
 11
13761.5495285511
 21
-15292.1063934641
 31
0.0
  0
LINE
  5
83
330
1F
100
AcDbEntity
  8
1
  6
Continuous
 62
     7
100
AcDbLine
 10
13574.8183314835
 20
-15352.4754515513
 30
0.0
 11
13680.7612472312
 21
-15350.967592891
 31
0.0
  0
LINE
  5
84
330
1F
100
AcDbEntity
  8
1
  6
Continuous
 62
     7
100
AcDbLine
 10
13226.2257417356
 20
-15170.5296871767
 30
0.0
 11
13278.2481120712
 21
-15349.2709007099
 31
0.0
  0
LINE
  5
85
330
1F
100
AcDbEntity
  8
1
  6
Continuous
 62
     7
100
AcDbLine
 10
13319.9857212109
 20
-15433.7992915483
 30
0.0
 11
13358.8172794736
 21
-15476.5960174612
 31
0.0
  0
LINE
  5
86
330
1F
100
AcDbEntity
  8
100
  6
Continuous
 62
     5
100
AcDbLine
 10
13964.7612472312
 20
-15550.7709007099
 30
0.0
 11
13964.7612472312
 21
-15553.7709007099
 31
0.0
  0
LINE
  5
87
330
1F
100
AcDbEntity
  8
100
  6
Continuous
 62
     5
100
AcDbLine
 10
13963.0465715175
 20
-15547.6650277467
 30
0.0
 11
13964.0353706042
 21
-15548.814280439
 31
0.0
  0
LINE
  5
88
330
1F
100
AcDbEntity
  8
1
  6
Continuous
 62
     5
100
AcDbLine
 10
13347.7612472312
 20
-15557.7709007099
 30
0.0
 11
13955.7612472312
 21
-15557.7709007099
 31
0.0
  0
LINE
  5
89
330
1F
100
AcDbEntity
  8
1
  6
Continuous
 62
     1
100
AcDbLine
 10
18876.8758238298
 20
-14613.6329636484
 30
0.0
 11
18876.8758238298
 21
-15097.9430069373
 31
0.0
  0
LINE
  5
8A
330
1F
100
AcDbEntity
  8
1
  6
Continuous
 62
     7
100
AcDbLine
 10
18616.9284220943
 20
-15446.5960174612
 30
0.0
 11
18616.9284220943
 21
-14409.5048114858
 31
0.0
  0
LINE
  5
8B
330
1F
100
AcDbEntity
  8
1
  6
Continuous
 62
     7
100
AcDbLine
 10
19086.8232255653
 20
-15496.5960174612
 30
0.0
 11
18666.9284220943
 21
-15496.5960174612
 31
0.0
  0
LINE
  5
8C
330
1F
100
AcDbEntity
  8
1
  6
Continuous
 62
     7
100
AcDbLine
 10
19136.8232255653
 20
-14409.5048114858
 30
0.0
 11
19136.8232255653
 21
-15446.5960174612
 31
0.0
  0
LINE
  5
8D
330
1F
100
AcDbEntity
  8
1
  6
Continuous
 62
     7
100
AcDbLine
 10
18616.9284220943
 20
-15044.4469297047
 30
0.0
 11
18616.9284220943
 21
-15162.4469297047
 31
0.0
  0
LINE
  5
8E
330
1F
100
AcDbEntity
  8
1
  6
Continuous
 62
     7
100
AcDbLine
 10
19136.8232255653
 20
-15162.4469297047
 30
0.0
 11
19136.8232255653
 21
-15044.4469297047
 31
0.0
  0
LINE
  5
8F
330
1F
100
AcDbEntity
  8
1
  6
Continuous
 62
     1
100
AcDbLine
 10
16870.982902287
 20
-15496.5960174612
 30
0.0
 11
16789.4822712383
 21
-15208.0050325811
 31
0.0
  0
LINE
  5
90
330
1F
100
AcDbEntity
  8
1
  6
Continuous
 62
     1
100
AcDbLine
 10
17237.972451744
 20
-15237.4020433845
 30
0.0
 11
16855.9095926218
 21
-15154.0224054364
 31
0.0
  0
LINE
  5
91
330
1F
100
AcDbEntity
  8
100
  6
Continuous
 62
     5
100
AcDbLine
 10
18563.8758238298
 20
-15553.7709007099
 30
0.0
 11
18563.8758238298
 21
-15550.7709007099
 31
0.0
  0
LINE
  5
92
330
1F
100
AcDbEntity
  8
100
  6
Continuous
 62
     5
100
AcDbLine
 10
18564.6017004568
 20
-15548.814280439
 30
0.0
 11
18565.5904995435
 21
-15547.6650277467
 31
0.0
  0
LINE
  5
93
330
1F
100
AcDbEntity
  8
100
  6
Continuous
 62
     5
100
AcDbLine
 10
19188.1611481161
 20
-15547.6650277467
 30
0.0
 11
19189.1499472028
 21
-15548.814280439
 31
0.0
  0
LINE
  5
94
330
1F
100
AcDbEntity
  8
100
  6
Continuous
 62
     5
100
AcDbLine
 10
19189.8758238298
 20
-15550.7709007099
 30
0.0
 11
19189.8758238298
 21
-15553.7709007099
 31
0.0
  0
LINE
  5
95
330
1F
100
AcDbEntity
  8
1
  6
Continuous
 62
     5
100
AcDbLine
 10
18814.3758238298
 20
-15509.378426759
 30
0.0
 11
18939.3758238298
 21
-15509.378426759
 31
0.0
  0
LINE
  5
96
330
1F
100
AcDbEntity
  8
100
  6
Continuous
 62
     5
100
AcDbLine
 10
18567.4168648395
 20
-15546.6552507575
 30
0.0
 11
18814.3758238298
 21
-15509.378426759
 31
0.0
  0
LINE
  5
97
330
1F
100
AcDbEntity
  8
100
  6
Continuous
 62
     5
100
AcDbLine
 10
19186.3347828201
 20
-15546.6552507575
 30
0.0
 11
18939.3758238298
 21
-15509.378426759
 31
0.0
  0
LINE
  5
98
330
1F
100
AcDbEntity
  8
1
  6
Continuous
 62
     5
100
AcDbLine
 10
18572.8758238298
 20
-15557.7709007099
 30
0.0
 11
19180.8758238298
 21
-15557.7709007099
 31
0.0
  0
LINE
  5
99
330
1F
100
AcDbEntity
  8
1
  6
Continuous
 62
     5
100
AcDbLine
 10
18906.8758238298
 20
-15509.378426759
 30
0.0
 11
18906.8758238298
 21
-15496.5960174612
 31
0.0
  0
LINE
  5
9A
330
1F
100
AcDbEntity
  8
1
  6
Continuous
 62
     5
100
AcDbLine
 10
18846.8758238298
 20
-15509.378426759
 30
0.0
 11
18846.8758238298
 21
-15496.5960174612
 31
0.0
  0
LINE
  5
9B
330
1F
100
AcDbEntity
  8
100
  6
Continuous
 62
     5
100
AcDbLine
 10
16851.6527466717
 20
-15548.814280439
 30
0.0
 11
16852.6415457584
 21
-15547.6650277467
 31
0.0
  0
LINE
  5
9C
330
1F
100
AcDbEntity
  8
100
  6
Continuous
 62
     5
100
AcDbLine
 10
16850.9268700446
 20
-15553.7709007099
 30
0.0
 11
16850.9268700446
 21
-15550.7709007099
 31
0.0
  0
LINE
  5
9D
330
1F
100
AcDbEntity
  8
100
  6
Continuous
 62
     5
100
AcDbLine
 10
16854.4679110543
 20
-15546.6552507575
 30
0.0
 11
17101.4268700446
 21
-15509.378426759
 31
0.0
  0
LINE
  5
9E
330
1F
100
AcDbEntity
  8
100
  6
Continuous
 62
     5
100
AcDbLine
 10
17473.3858290349
 20
-15546.6552507575
 30
0.0
 11
17226.4268700446
 21
-15509.378426759
 31
0.0
  0
LINE
  5
9F
330
1F
100
AcDbEntity
  8
1
  6
Continuous
 62
     5
100
AcDbLine
 10
17101.4268700446
 20
-15509.378426759
 30
0.0
 11
17226.4268700446
 21
-15509.378426759
 31
0.0
  0
LINE
  5
A0
330
1F
100
AcDbEntity
  8
1
  6
Continuous
 62
     5
100
AcDbLine
 10
17133.9268700446
 20
-15509.378426759
 30
0.0
 11
17133.9268700446
 21
-15331.8073249328
 31
0.0
  0
LINE
  5
A1
330
1F
100
AcDbEntity
  8
1
  6
Continuous
 62
     5
100
AcDbLine
 10
17193.9268700446
 20
-15509.378426759
 30
0.0
 11
17193.9268700446
 21
-15330.9533601445
 31
0.0
  0
LINE
  5
A2
330
1F
100
AcDbEntity
  8
1
  6
Continuous
 62
     7
100
AcDbLine
 10
17253.9206289463
 20
-15297.3695328562
 30
0.0
 11
17273.7151513646
 21
-15272.1063934641
 31
0.0
  0
LINE
  5
A3
330
1F
100
AcDbEntity
  8
1
  6
Continuous
 62
     7
100
AcDbLine
 10
17086.9839542969
 20
-15332.4754515513
 30
0.0
 11
17192.9268700446
 21
-15330.967592891
 31
0.0
  0
LINE
  5
A4
330
1F
100
AcDbEntity
  8
1
  6
Continuous
 62
     7
100
AcDbLine
 10
16738.3913645491
 20
-15190.5296871767
 30
0.0
 11
16790.4137348846
 21
-15369.2709007099
 31
0.0
  0
LINE
  5
A5
330
1F
100
AcDbEntity
  8
1
  6
Continuous
 62
     7
100
AcDbLine
 10
16832.1513440243
 20
-15453.7992915483
 30
0.0
 11
16870.982902287
 21
-15496.5960174612
 31
0.0
  0
LINE
  5
A6
330
1F
100
AcDbEntity
  8
100
  6
Continuous
 62
     5
100
AcDbLine
 10
17476.9268700446
 20
-15550.7709007099
 30
0.0
 11
17476.9268700446
 21
-15553.7709007099
 31
0.0
  0
LINE
  5
A7
330
1F
100
AcDbEntity
  8
100
  6
Continuous
 62
     5
100
AcDbLine
 10
17475.2121943309
 20
-15547.6650277467
 30
0.0
 11
17476.2009934176
 21
-15548.814280439
 31
0.0
  0
LINE
  5
A8
330
1F
100
AcDbEntity
  8
1
  6
Continuous
 62
     5
100
AcDbLine
 10
16859.9268700446
 20
-15557.7709007099
 30
0.0
 11
17467.9268700446
 21
-15557.7709007099
 31
0.0
  0
LINE
  5
A9
330
1F
100
AcDbEntity
  8
1
  6
Continuous
 62
     7
100
AcDbLine
 10
11594.8750200343
 20
-16643.2936061046
 30
0.0
 11
11594.8750200343
 21
-17284.0659938515
 31
0.0
  0
LINE
  5
AA
330
1F
100
AcDbEntity
  8
1
  6
Continuous
 62
     7
100
AcDbLine
 10
11644.8750200343
 20
-17324.0445873285
 30
0.0
 11
12064.7698235052
 21
-17324.0445873285
 31
0.0
  0
LINE
  5
AB
330
1F
100
AcDbEntity
  8
1
  6
Continuous
 62
     7
100
AcDbLine
 10
12114.7698235052
 20
-16643.2936061046
 30
0.0
 11
12114.7698235052
 21
-17284.0659938519
 31
0.0
  0
LINE
  5
AC
330
1F
100
AcDbEntity
  8
1
  6
Continuous
 62
     1
100
AcDbLine
 10
11854.8224217698
 20
-16653.7941214694
 30
0.0
 11
11854.8224217698
 21
-16850.0135846737
 31
0.0
  0
ARC
  5
AD
330
1F
100
AcDbEntity
  8
1
  6
Continuous
 62
     7
100
AcDbCircle
 10
11644.8750200343
 20
-15446.5960174612
 30
0.0
 40
50.0
100
AcDbArc
 50
180.0
 51
270.0
  0
ARC
  5
AE
330
1F
100
AcDbEntity
  8
1
  6
Continuous
 62
     7
100
AcDbCircle
 10
12064.7698235052
 20
-15446.5960174612
 30
0.0
 40
50.0
100
AcDbArc
 50
270.0
 51
0.0
  0
ARC
  5
AF
330
1F
100
AcDbEntity
  8
1
  6
Continuous
 62
     7
100
AcDbCircle
 10
11644.8750200343
 20
-14529.5048114858
 30
0.0
 40
50.000000000046
100
AcDbArc
 50
103.9761313614957
 51
180.0
  0
ARC
  5
B0
330
1F
100
AcDbEntity
  8
1
  6
Continuous
 62
     7
100
AcDbCircle
 10
12064.7698235052
 20
-14529.5048114858
 30
0.0
 40
50.0
100
AcDbArc
 50
0.0
 51
76.02386863850428
  0
ARC
  5
B1
330
1F
100
AcDbEntity
  8
1
  6
Continuous
 62
     7
100
AcDbCircle
 10
15574.6576027518
 20
-14529.5048114858
 30
0.0
 40
50.0
100
AcDbArc
 50
0.0
 51
76.02386863839506
  0
ARC
  5
B2
330
1F
100
AcDbEntity
  8
1
  6
Continuous
 62
     7
100
AcDbCircle
 10
15154.7627992809
 20
-14529.5048114858
 30
0.0
 40
50.00000000004556
100
AcDbArc
 50
103.9761313614937
 51
180.0
  0
ARC
  5
B3
330
1F
100
AcDbEntity
  8
1
  6
Continuous
 62
     7
100
AcDbCircle
 10
15574.6576027518
 20
-15446.5960174612
 30
0.0
 40
50.0
100
AcDbArc
 50
270.0
 51
0.0
  0
ARC
  5
B4
330
1F
100
AcDbEntity
  8
1
  6
Continuous
 62
     7
100
AcDbCircle
 10
15154.7627992809
 20
-15446.5960174612
 30
0.0
 40
50.0
100
AcDbArc
 50
180.0
 51
270.0
  0
ARC
  5
B5
330
1F
100
AcDbEntity
  8
1
  6
Continuous
 62
     7
100
AcDbCircle
 10
19086.8232255653
 20
-14409.5048114858
 30
0.0
 40
50.0
100
AcDbArc
 50
0.0
 51
76.02386863850226
  0
ARC
  5
B6
330
1F
100
AcDbEntity
  8
1
  6
Continuous
 62
     7
100
AcDbCircle
 10
18666.9284220943
 20
-14409.5048114858
 30
0.0
 40
50.00000000002183
100
AcDbArc
 50
103.9761313613845
 51
180.0
  0
ARC
  5
B7
330
1F
100
AcDbEntity
  8
1
  6
Continuous
 62
     7
100
AcDbCircle
 10
19086.8232255653
 20
-15446.5960174612
 30
0.0
 40
50.0
100
AcDbArc
 50
270.0
 51
0.0
  0
ARC
  5
B8
330
1F
100
AcDbEntity
  8
1
  6
Continuous
 62
     7
100
AcDbCircle
 10
18666.9284220943
 20
-15446.5960174612
 30
0.0
 40
50.0
100
AcDbArc
 50
180.0
 51
270.0
  0
ARC
  5
B9
330
1F
100
AcDbEntity
  8
1
  6
Continuous
 62
     7
100
AcDbCircle
 10
11644.8750200343
 20
-17274.0445873285
 30
0.0
 40
50.0
100
AcDbArc
 50
180.0
 51
270.0
  0
ARC
  5
BA
330
1F
100
AcDbEntity
  8
1
  6
Continuous
 62
     7
100
AcDbCircle
 10
12064.7698235052
 20
-17274.0445873285
 30
0.0
 40
50.0
100
AcDbArc
 50
270.0
 51
0.0
  0
ARC
  5
BB
330
1F
100
AcDbEntity
  8
1
  6
Continuous
 62
     7
100
AcDbCircle
 10
11644.8750200343
 20
-16643.2936061046
 30
0.0
 40
50.00000000005743
100
AcDbArc
 50
109.5108997496
 51
180.0
  0
ARC
  5
BC
330
1F
100
AcDbEntity
  8
1
  6
Continuous
 62
     7
100
AcDbCircle
 10
12064.7698235052
 20
-16643.2936061046
 30
0.0
 40
50.0
100
AcDbArc
 50
0.0
 51
70.48910025039807
  0
ARC
  5
BD
330
1F
100
AcDbEntity
  8
100
  6
Continuous
 62
     5
100
AcDbCircle
 10
10450.8846688979
 20
-15549.6216480176
 30
0.0
 40
3.000000000021918
100
AcDbArc
 50
40.70818925949512
 51
81.41637851981994
  0
ARC
  5
BE
330
1F
100
AcDbEntity
  8
100
  6
Continuous
 62
     5
100
AcDbCircle
 10
10451.8734679846
 20
-15550.7709007099
 30
0.0
 40
3.0
100
AcDbArc
 50
0.0
 51
40.70818926073762
  0
ARC
  5
BF
330
1F
100
AcDbEntity
  8
1
  6
Continuous
 62
     5
100
AcDbCircle
 10
10445.487131046
 20
-15544.7766425982
 30
0.0
 40
13.00000000398423
100
AcDbArc
 50
271.7029796602235
 51
316.2219982894316
  0
ARC
  5
C0
330
1F
100
AcDbEntity
  8
1
  6
Continuous
 62
     5
100
AcDbCircle
 10
9838.25980492311
 20
-15544.7766425982
 30
0.0
 40
13.00000000397933
100
AcDbArc
 50
223.7780017107848
 51
268.297020340089
  0
ARC
  5
C1
330
1F
100
AcDbEntity
  8
1
  6
Continuous
 62
     7
100
AcDbCircle
 10
9099.08706441035
 20
-15533.4017427918
 30
0.0
 40
774.3501304341858
100
AcDbArc
 50
8.1860930876551
 51
20.98673536516127
  0
ARC
  5
C2
330
1F
100
AcDbEntity
  8
1
  6
Continuous
 62
     7
100
AcDbCircle
 10
9780.80643569807
 20
-15442.5778840956
 30
0.0
 40
86.94084571195927
100
AcDbArc
 50
321.587368309494
 51
12.91709725408144
  0
ARC
  5
C3
330
1F
100
AcDbEntity
  8
1
  6
Continuous
 62
     7
100
AcDbCircle
 10
9961.98862237622
 20
-15326.2315929174
 30
0.0
 40
198.3539677696886
100
AcDbArc
 50
192.5318527874067
 51
220.0257311007458
  0
ARC
  5
C4
330
1F
100
AcDbEntity
  8
1
  6
Continuous
 62
     7
100
AcDbCircle
 10
10593.996233883
 20
-14586.0779111029
 30
0.0
 40
251.2477539500721
100
AcDbArc
 50
169.6556316659172
 51
198.4931156098833
  0
ARC
  5
C5
330
1F
100
AcDbEntity
  8
143
  6
Continuous
 62
     7
100
AcDbCircle
 10
10040.807492783
 20
-15947.2430443505
 30
0.0
 40
993.9446395072407
100
AcDbArc
 50
81.0891421114747
 51
98.51999608700467
  0
ARC
  5
C6
330
1F
100
AcDbEntity
  8
143
  6
Continuous
 62
     7
100
AcDbCircle
 10
9934.82898137692
 20
-15154.9692833832
 30
0.0
 40
195.1183559241096
100
AcDbArc
 50
102.2136936126996
 51
156.0930490294132
  0
ARC
  5
C7
330
1F
100
AcDbEntity
  8
1
  6
Continuous
 62
     7
100
AcDbCircle
 10
10455.7041210247
 20
-14459.9200655042
 30
0.0
 40
7.005478178923711
100
AcDbArc
 50
61.37394206013216
 51
116.7562036565855
  0
ARC
  5
C8
330
1F
100
AcDbEntity
  8
1
  6
Continuous
 62
     7
100
AcDbCircle
 10
10892.5420712567
 20
-14597.0379538018
 30
0.0
 40
456.5433410371925
100
AcDbArc
 50
161.7111179013193
 51
203.5423051427436
  0
ARC
  5
C9
330
1F
100
AcDbEntity
  8
1
  6
Continuous
 62
     7
100
AcDbCircle
 10
10403.0652838722
 20
-14815.249644821
 30
0.0
 40
79.48120389680858
100
AcDbArc
 50
350.8136060270669
 51
26.81622001524356
  0
ARC
  5
CA
330
1F
100
AcDbEntity
  8
1
  6
Continuous
 62
     7
100
AcDbCircle
 10
7653.10410251624
 20
-13666.820215329
 30
0.0
 40
3057.478101963916
100
AcDbArc
 50
332.8784909582412
 51
337.6809707528622
  0
ARC
  5
CB
330
1F
100
AcDbEntity
  8
1
  6
Continuous
 62
     7
100
AcDbCircle
 10
11010.0431690727
 20
-15360.1525773249
 30
0.0
 40
702.6763375497371
100
AcDbArc
 50
154.772324691697
 51
180.0012601634263
  0
ARC
  5
CC
330
1F
100
AcDbEntity
  8
1
  6
Continuous
 62
     7
100
AcDbCircle
 10
10246.0965826637
 20
-15385.4291138533
 30
0.0
 40
66.27341603584406
100
AcDbArc
 50
22.40584096850522
 51
53.97496000788094
  0
ARC
  5
CD
330
1F
100
AcDbEntity
  8
1
  6
Continuous
 62
     7
100
AcDbCircle
 10
10369.4948267783
 20
-14352.0923602042
 30
0.0
 40
131.2064875323707
100
AcDbArc
 50
281.1949048353977
 51
309.2727958057416
  0
ARC
  5
CE
330
1F
100
AcDbEntity
  8
1
  6
Continuous
 62
     7
100
AcDbCircle
 10
10398.2362240452
 20
-14522.9064504366
 30
0.0
 40
42.23078271206771
100
AcDbArc
 50
94.43828055192648
 51
137.9186222434586
  0
ARC
  5
CF
330
1F
100
AcDbEntity
  8
1
  6
Continuous
 62
     7
100
AcDbCircle
 10
10463.7616742836
 20
-14564.0413206622
 30
0.0
 40
119.1852355520377
100
AcDbArc
 50
144.3663744349795
 51
168.8349841955051
  0
ARC
  5
D0
330
1F
100
AcDbEntity
  8
1
  6
Continuous
 62
     7
100
AcDbCircle
 10
9702.55608603247
 20
-14873.3991841919
 30
0.0
 40
685.3726245371536
100
AcDbArc
 50
9.95525644561553
 51
17.63436320190988
  0
ARC
  5
D1
330
1F
100
AcDbEntity
  8
1
  6
Continuous
 62
     7
100
AcDbCircle
 10
10222.7355052977
 20
-14769.0769488099
 30
0.0
 40
155.5199583280604
100
AcDbArc
 50
317.2663742012909
 51
5.22558868199265
  0
ARC
  5
D2
330
1F
100
AcDbEntity
  8
1
  6
Continuous
 62
     7
100
AcDbCircle
 10
11660.5071397949
 20
-16065.4181934823
 30
0.0
 40
1780.387072982886
100
AcDbArc
 50
138.0218503563772
 51
142.5639642403865
  0
ARC
  5
D3
330
1F
100
AcDbEntity
  8
1
  6
Continuous
 62
     7
100
AcDbCircle
 10
10537.6914401685
 20
-15210.9535183933
 30
0.0
 40
367.6785610494741
100
AcDbArc
 50
148.9377126025509
 51
160.0796960286901
  0
ARC
  5
D4
330
1F
100
AcDbEntity
  8
1
  6
Continuous
 62
     7
100
AcDbCircle
 10
10362.9650578485
 20
-15161.7146714632
 30
0.0
 40
187.0991623156292
100
AcDbArc
 50
156.0221765160168
 51
245.3984093218754
  0
ARC
  5
D5
330
1F
100
AcDbEntity
  8
1
  6
Continuous
 62
     7
100
AcDbCircle
 10
10242.4768597893
 20
-15018.6661375543
 30
0.0
 40
31.97062165738793
100
AcDbArc
 50
3.68507936299933
 51
59.9967753711645
  0
ARC
  5
D6
330
1F
100
AcDbEntity
  8
1
  6
Continuous
 62
     7
100
AcDbCircle
 10
10178.4379404182
 20
-15097.6138414575
 30
0.0
 40
133.3228188805267
100
AcDbArc
 50
53.11285815587622
 51
82.9648256345003
  0
ARC
  5
D7
330
1F
100
AcDbEntity
  8
1
  6
Continuous
 62
     7
100
AcDbCircle
 10
10372.1571728897
 20
-15349.6910855816
 30
0.0
 40
673.837843596084
100
AcDbArc
 50
156.0261087632745
 51
161.840503353277
  0
ARC
  5
D8
330
1F
100
AcDbEntity
  8
1
  6
Continuous
 62
     7
100
AcDbCircle
 10
10648.8481691424
 20
-19482.8095128093
 30
0.0
 40
4481.869228685253
100
AcDbArc
 50
94.79273425696171
 51
98.3251150273931
  0
ARC
  5
D9
330
1F
100
AcDbEntity
  8
1
  6
Continuous
 62
     7
100
AcDbCircle
 10
10033.6032302708
 20
-15246.0291822649
 30
0.0
 40
200.7076508778135
100
AcDbArc
 50
98.31284718211286
 51
157.7047867771573
  0
ARC
  5
DA
330
1F
100
AcDbEntity
  8
1
  6
Continuous
 62
     7
100
AcDbCircle
 10
9790.45498544027
 20
-15152.6157119003
 30
0.0
 40
59.98482204346138
100
AcDbArc
 50
167.5469049447274
 51
343.2681251769522
  0
ARC
  5
DB
330
1F
100
AcDbEntity
  8
1
  6
Continuous
 62
     7
100
AcDbCircle
 10
10170.8034155742
 20
-15298.677499688
 30
0.0
 40
72.29012714498933
100
AcDbArc
 50
270.0555222164811
 51
327.6403124203058
  0
ARC
  5
DC
330
1F
100
AcDbEntity
  8
1
  6
Continuous
 62
     7
100
AcDbCircle
 10
10065.8681203367
 20
-15189.1390782827
 30
0.0
 40
183.3387705783946
100
AcDbArc
 50
253.1810664784154
 51
269.7069963483377
  0
ARC
  5
DD
330
1F
100
AcDbEntity
  8
1
  6
Continuous
 62
     7
100
AcDbCircle
 10
10092.1454362359
 20
-15200.1220160087
 30
0.0
 40
182.6396850830084
100
AcDbArc
 50
226.5739846396027
 51
244.2572787237001
  0
ARC
  5
DE
330
1F
100
AcDbEntity
  8
1
  6
Continuous
 62
     7
100
AcDbCircle
 10
9721.21832091243
 20
-15620.6189312653
 30
0.0
 40
378.2448496863185
100
AcDbArc
 50
49.55435173787729
 51
74.53622169969474
  0
ARC
  5
DF
330
1F
100
AcDbEntity
  8
1
  6
Continuous
 62
     7
100
AcDbCircle
 10
9764.53761656056
 20
-15177.4630635938
 30
0.0
 40
49.93939631666699
100
AcDbArc
 50
130.8375245731618
 51
195.1679667187809
  0
ARC
  5
E0
330
1F
100
AcDbEntity
  8
100
  6
Continuous
 62
     5
100
AcDbCircle
 10
9831.87346798458
 20
-15550.7709007099
 30
0.0
 40
2.999999999997291
100
AcDbArc
 50
139.291810740146
 51
180.0
  0
ARC
  5
E1
330
1F
100
AcDbEntity
  8
100
  6
Continuous
 62
     5
100
AcDbCircle
 10
9832.86226707126
 20
-15549.6216480176
 30
0.0
 40
3.000000000040672
100
AcDbArc
 50
98.58362147997396
 51
139.291810740097
  0
ARC
  5
E2
330
1F
100
AcDbEntity
  8
1
  6
Continuous
 62
     7
100
AcDbCircle
 10
8959.61507942503
 20
-22691.3827717553
 30
0.0
 40
7599.000000000004
100
AcDbArc
 50
80.77269461876581
 51
83.20108881482324
  0
ARC
  5
E3
330
1F
100
AcDbEntity
  8
1
  6
Continuous
 62
     1
100
AcDbCircle
 10
10098.7458847549
 20
-15261.8655612535
 30
0.0
 40
230.3403009379848
100
AcDbArc
 50
12.76951820616068
 51
62.85338582955936
  0
ARC
  5
E4
330
1F
100
AcDbEntity
  8
1
  6
Continuous
 62
     1
100
AcDbCircle
 10
10457.275615225
 20
-14897.2123319724
 30
0.0
 40
118.9999999999162
100
AcDbArc
 50
81.92136403591857
 51
136.2189001152092
  0
ARC
  5
E5
330
1F
100
AcDbEntity
  8
1
  6
Continuous
 62
     5
100
AcDbCircle
 10
12158.4360848312
 20
-15544.7766425982
 30
0.0
 40
13.00000000398423
100
AcDbArc
 50
271.7029796602235
 51
316.2219982894316
  0
ARC
  5
E6
330
1F
100
AcDbEntity
  8
100
  6
Continuous
 62
     5
100
AcDbCircle
 10
12164.8224217698
 20
-15550.7709007099
 30
0.0
 40
3.0
100
AcDbArc
 50
0.0
 51
40.70818926073762
  0
ARC
  5
E7
330
1F
100
AcDbEntity
  8
100
  6
Continuous
 62
     5
100
AcDbCircle
 10
12163.8336226831
 20
-15549.6216480176
 30
0.0
 40
2.99999999994608
100
AcDbArc
 50
40.70818926074129
 51
81.41637851981994
  0
ARC
  5
E8
330
1F
100
AcDbEntity
  8
100
  6
Continuous
 62
     5
100
AcDbCircle
 10
11545.8112208564
 20
-15549.6216480176
 30
0.0
 40
3.000000000027369
100
AcDbArc
 50
98.58362147829074
 51
139.291810739236
  0
ARC
  5
E9
330
1F
100
AcDbEntity
  8
100
  6
Continuous
 62
     5
100
AcDbCircle
 10
11544.8224217698
 20
-15550.7709007099
 30
0.0
 40
3.000000000020732
100
AcDbArc
 50
139.2918107405312
 51
180.0
  0
ARC
  5
EA
330
1F
100
AcDbEntity
  8
1
  6
Continuous
 62
     5
100
AcDbCircle
 10
11551.2087587083
 20
-15544.7766425982
 30
0.0
 40
13.00000000395831
100
AcDbArc
 50
223.7780017108735
 51
268.2970203402172
  0
ARC
  5
EB
330
1F
100
AcDbEntity
  8
1
  6
Continuous
 62
     7
100
AcDbCircle
 10
12106.2177163493
 20
-15173.6906932138
 30
0.0
 40
44.99999999896053
100
AcDbArc
 50
300.1557389635481
 51
352.6892759033162
  0
ARC
  5
EC
330
1F
100
AcDbEntity
  8
1
  6
Continuous
 62
     7
100
AcDbCircle
 10
12289.6097708196
 20
-15112.6671675141
 30
0.0
 40
126.0000000001363
100
AcDbArc
 50
132.7387415311271
 51
175.6435199474062
  0
ARC
  5
ED
330
1F
100
AcDbEntity
  8
1
  6
Continuous
 62
     7
100
AcDbCircle
 10
12169.4654243335
 20
-14969.1115741931
 30
0.0
 40
61.65981230874436
100
AcDbArc
 50
304.1726803340923
 51
337.005139546184
  0
ARC
  5
EE
330
1F
100
AcDbEntity
  8
1
  6
Continuous
 62
     7
100
AcDbCircle
 10
11787.8292475847
 20
-15077.7136743566
 30
0.0
 40
377.0000000000246
100
AcDbArc
 50
344.349420515826
 51
356.1395202564827
  0
ARC
  5
EF
330
1F
100
AcDbEntity
  8
1
  6
Continuous
 62
     7
100
AcDbCircle
 10
12199.8027425707
 20
-14981.9857902561
 30
0.0
 40
28.70380652740219
100
AcDbArc
 50
337.0051395460865
 51
129.0999367138559
  0
ARC
  5
F0
330
1F
100
AcDbEntity
  8
1
  6
Continuous
 62
     7
100
AcDbCircle
 10
12276.6391603464
 20
-15090.9766940664
 30
0.0
 40
162.0009877501226
100
AcDbArc
 50
125.8765523025545
 51
177.6899565679411
  0
ARC
  5
F1
330
1F
100
AcDbEntity
  8
1
  6
Continuous
 62
     7
100
AcDbCircle
 10
12125.762113084
 20
-15202.0351411166
 30
0.0
 40
11.00000000115882
100
AcDbArc
 50
182.1453874866287
 51
286.1595815314309
  0
ARC
  5
F2
330
1F
100
AcDbEntity
  8
1
  6
Continuous
 62
     7
100
AcDbCircle
 10
11583.8827304555
 20
-15202.0351411166
 30
0.0
 40
11.00000000123037
100
AcDbArc
 50
253.8404184685691
 51
357.8546125133713
  0
ARC
  5
F3
330
1F
100
AcDbEntity
  8
1
  6
Continuous
 62
     7
100
AcDbCircle
 10
11433.0056831932
 20
-15090.9766940664
 30
0.0
 40
162.0009877500658
100
AcDbArc
 50
2.31004343206039
 51
54.12344769747364
  0
ARC
  5
F4
330
1F
100
AcDbEntity
  8
1
  6
Continuous
 62
     7
100
AcDbCircle
 10
11509.8421009688
 20
-14981.9857902561
 30
0.0
 40
28.70380652742346
100
AcDbArc
 50
50.90006328614407
 51
202.9948604539121
  0
ARC
  5
F5
330
1F
100
AcDbEntity
  8
1
  6
Continuous
 62
     7
100
AcDbCircle
 10
11921.8155959548
 20
-15077.7136743566
 30
0.0
 40
376.9999999999908
100
AcDbArc
 50
183.8604797423598
 51
195.650579484174
  0
ARC
  5
F6
330
1F
100
AcDbEntity
  8
1
  6
Continuous
 62
     7
100
AcDbCircle
 10
11540.179419206
 20
-14969.1115741931
 30
0.0
 40
61.65981230877721
100
AcDbArc
 50
202.9948604538154
 51
235.8273196658816
  0
ARC
  5
F7
330
1F
100
AcDbEntity
  8
1
  6
Continuous
 62
     7
100
AcDbCircle
 10
11420.0350727199
 20
-15112.6671675141
 30
0.0
 40
126.0000000000231
100
AcDbArc
 50
4.35648005605685
 51
47.2612584688755
  0
ARC
  5
F8
330
1F
100
AcDbEntity
  8
1
  6
Continuous
 62
     7
100
AcDbCircle
 10
11603.4271271902
 20
-15173.6906932138
 30
0.0
 40
44.99999999896477
100
AcDbArc
 50
187.3107240966838
 51
239.8442610364519
  0
ARC
  5
F9
330
1F
100
AcDbEntity
  8
1
  6
Continuous
 62
     7
100
AcDbCircle
 10
11674.8970030806
 20
-15253.910236669
 30
0.0
 40
124.9999999999031
100
AcDbArc
 50
87.82850868745216
 51
129.8049345126228
  0
ARC
  5
FA
330
1F
100
AcDbEntity
  8
1
  6
Continuous
 62
     7
100
AcDbCircle
 10
11712.998983416
 20
-15755.7860195695
 30
0.0
 40
627.6734670816622
100
AcDbArc
 50
82.6098713569118
 51
93.04714601800585
  0
ARC
  5
FB
330
1F
100
AcDbEntity
  8
1
  6
Continuous
 62
     7
100
AcDbCircle
 10
11845.0235795088
 20
-14861.1163776361
 30
0.0
 40
276.9999999998768
100
AcDbArc
 50
259.3293416030897
 51
272.0272543901176
  0
ARC
  5
FC
330
1F
100
AcDbEntity
  8
1
  6
Continuous
 62
     7
100
AcDbCircle
 10
11864.6212640307
 20
-14861.1163776361
 30
0.0
 40
276.9999999998504
100
AcDbArc
 50
267.9727456099035
 51
280.6706583969305
  0
ARC
  5
FD
330
1F
100
AcDbEntity
  8
1
  6
Continuous
 62
     7
100
AcDbCircle
 10
11996.6458601235
 20
-15755.7860195695
 30
0.0
 40
627.6734670816923
100
AcDbArc
 50
86.95285398199417
 51
97.39012864307931
  0
ARC
  5
FE
330
1F
100
AcDbEntity
  8
1
  6
Continuous
 62
     7
100
AcDbCircle
 10
12034.7478404589
 20
-15253.910236669
 30
0.0
 40
124.9999999998751
100
AcDbArc
 50
50.19506548737722
 51
92.17149131254702
  0
ARC
  5
FF
330
1F
100
AcDbEntity
  8
1
  6
Continuous
 62
     7
100
AcDbCircle
 10
11854.8224217698
 20
-15373.0547427376
 30
0.0
 40
919.2838420277017
100
AcDbArc
 50
76.02386863849857
 51
103.9761313615076
  0
ARC
  5
100
330
1F
100
AcDbEntity
  8
1
  6
Continuous
 62
     1
100
AcDbCircle
 10
11854.8224217698
 20
-13130.5687985682
 30
0.0
 40
1603.064165080226
100
AcDbArc
 50
260.6679059692262
 51
279.3320940307702
  0
ARC
  5
101
330
1F
100
AcDbEntity
  8
1
  6
Continuous
 62
     1
100
AcDbCircle
 10
15364.7102010164
 20
-13130.5687985682
 30
0.0
 40
1603.064165080226
100
AcDbArc
 50
260.6679059692262
 51
279.3320940307702
  0
ARC
  5
102
330
1F
100
AcDbEntity
  8
1
  6
Continuous
 62
     7
100
AcDbCircle
 10
15364.7102010164
 20
-15373.0547427376
 30
0.0
 40
919.2838420277258
100
AcDbArc
 50
76.02386863849252
 51
103.9761313615075
  0
ARC
  5
103
330
1F
100
AcDbEntity
  8
1
  6
Continuous
 62
     7
100
AcDbCircle
 10
15544.6356197055
 20
-15253.910236669
 30
0.0
 40
124.9999999998762
100
AcDbArc
 50
50.19506548737657
 51
92.17149131254702
  0
ARC
  5
104
330
1F
100
AcDbEntity
  8
1
  6
Continuous
 62
     7
100
AcDbCircle
 10
15506.5336393701
 20
-15755.7860195695
 30
0.0
 40
627.6734670816923
100
AcDbArc
 50
86.95285398199417
 51
97.39012864307917
  0
ARC
  5
105
330
1F
100
AcDbEntity
  8
1
  6
Continuous
 62
     7
100
AcDbCircle
 10
15374.5090432773
 20
-14861.1163776361
 30
0.0
 40
276.9999999998504
100
AcDbArc
 50
267.9727456099035
 51
280.6706583969309
  0
ARC
  5
106
330
1F
100
AcDbEntity
  8
1
  6
Continuous
 62
     7
100
AcDbCircle
 10
15354.9113587555
 20
-14861.1163776361
 30
0.0
 40
276.9999999998957
100
AcDbArc
 50
259.3293416030691
 51
272.0272543900965
  0
ARC
  5
107
330
1F
100
AcDbEntity
  8
1
  6
Continuous
 62
     7
100
AcDbCircle
 10
15222.8867626627
 20
-15755.7860195695
 30
0.0
 40
627.6734670816493
100
AcDbArc
 50
82.60987135692086
 51
93.04714601800585
  0
ARC
  5
108
330
1F
100
AcDbEntity
  8
1
  6
Continuous
 62
     7
100
AcDbCircle
 10
15184.7847823273
 20
-15253.910236669
 30
0.0
 40
124.999999999903
100
AcDbArc
 50
87.828508687453
 51
129.8049345126587
  0
ARC
  5
109
330
1F
100
AcDbEntity
  8
1
  6
Continuous
 62
     7
100
AcDbCircle
 10
15113.3149064369
 20
-15173.6906932138
 30
0.0
 40
44.99999999896658
100
AcDbArc
 50
187.3107240966835
 51
239.8442610363417
  0
ARC
  5
10A
330
1F
100
AcDbEntity
  8
1
  6
Continuous
 62
     7
100
AcDbCircle
 10
14929.9228519666
 20
-15112.6671675141
 30
0.0
 40
125.9999999999446
100
AcDbArc
 50
4.35648005259374
 51
47.2612584688755
  0
ARC
  5
10B
330
1F
100
AcDbEntity
  8
1
  6
Continuous
 62
     7
100
AcDbCircle
 10
15050.0671984527
 20
-14969.1115741931
 30
0.0
 40
61.65981230886931
100
AcDbArc
 50
202.9948604537791
 51
235.8273196658816
  0
ARC
  5
10C
330
1F
100
AcDbEntity
  8
1
  6
Continuous
 62
     7
100
AcDbCircle
 10
15431.7033752015
 20
-15077.7136743566
 30
0.0
 40
377.0000000000034
100
AcDbArc
 50
183.8604797435173
 51
195.650579484174
  0
ARC
  5
10D
330
1F
100
AcDbEntity
  8
1
  6
Continuous
 62
     7
100
AcDbCircle
 10
15019.7298802155
 20
-14981.9857902561
 30
0.0
 40
28.70380652742346
100
AcDbArc
 50
50.90006328614407
 51
202.994860453834
  0
ARC
  5
10E
330
1F
100
AcDbEntity
  8
1
  6
Continuous
 62
     7
100
AcDbCircle
 10
14942.8934624398
 20
-15090.9766940664
 30
0.0
 40
162.000987750064
100
AcDbArc
 50
2.31004343206041
 51
54.12344769744549
  0
ARC
  5
10F
330
1F
100
AcDbEntity
  8
1
  6
Continuous
 62
     7
100
AcDbCircle
 10
15093.7705097021
 20
-15202.0351411166
 30
0.0
 40
11.00000000123037
100
AcDbArc
 50
253.8404184685691
 51
357.854612513371
  0
ARC
  5
110
330
1F
100
AcDbEntity
  8
1
  6
Continuous
 62
     7
100
AcDbCircle
 10
15635.6498923307
 20
-15202.0351411166
 30
0.0
 40
11.00000000125879
100
AcDbArc
 50
182.1453874866092
 51
286.1595815314309
  0
ARC
  5
111
330
1F
100
AcDbEntity
  8
1
  6
Continuous
 62
     7
100
AcDbCircle
 10
15786.526939593
 20
-15090.9766940664
 30
0.0
 40
162.0009877501237
100
AcDbArc
 50
125.876552302555
 51
177.6899565679411
  0
ARC
  5
112
330
1F
100
AcDbEntity
  8
1
  6
Continuous
 62
     7
100
AcDbCircle
 10
15709.6905218173
 20
-14981.9857902561
 30
0.0
 40
28.70380652749596
100
AcDbArc
 50
337.005139546166
 51
129.0999367138559
  0
ARC
  5
113
330
1F
100
AcDbEntity
  8
1
  6
Continuous
 62
     7
100
AcDbCircle
 10
15297.7170268313
 20
-15077.7136743566
 30
0.0
 40
377.0000000000246
100
AcDbArc
 50
344.349420515826
 51
356.1395202576402
  0
ARC
  5
114
330
1F
100
AcDbEntity
  8
1
  6
Continuous
 62
     7
100
AcDbCircle
 10
15679.3532035801
 20
-14969.1115741931
 30
0.0
 40
61.65981230880157
100
AcDbArc
 50
304.1726803341706
 51
337.005139546221
  0
ARC
  5
115
330
1F
100
AcDbEntity
  8
1
  6
Continuous
 62
     7
100
AcDbCircle
 10
15799.4975500662
 20
-15112.6671675141
 30
0.0
 40
126.0000000000684
100
AcDbArc
 50
132.7387415310937
 51
175.6435199439432
  0
ARC
  5
116
330
1F
100
AcDbEntity
  8
1
  6
Continuous
 62
     7
100
AcDbCircle
 10
15616.1054955959
 20
-15173.6906932138
 30
0.0
 40
44.99999999901079
100
AcDbArc
 50
300.1557389636583
 51
352.6892759033162
  0
ARC
  5
117
330
1F
100
AcDbEntity
  8
1
  6
Continuous
 62
     5
100
AcDbCircle
 10
15061.0965379549
 20
-15544.7766425982
 30
0.0
 40
13.00000000395831
100
AcDbArc
 50
223.7780017108735
 51
268.2970203402172
  0
ARC
  5
118
330
1F
100
AcDbEntity
  8
100
  6
Continuous
 62
     5
100
AcDbCircle
 10
15054.7102010164
 20
-15550.7709007099
 30
0.0
 40
3.000000000019353
100
AcDbArc
 50
139.2918107405086
 51
180.0
  0
ARC
  5
119
330
1F
100
AcDbEntity
  8
100
  6
Continuous
 62
     5
100
AcDbCircle
 10
15055.6990001031
 20
-15549.6216480176
 30
0.0
 40
3.000000000042573
100
AcDbArc
 50
98.5836214802144
 51
139.2918107405049
  0
ARC
  5
11A
330
1F
100
AcDbEntity
  8
100
  6
Continuous
 62
     5
100
AcDbCircle
 10
15673.7214019297
 20
-15549.6216480176
 30
0.0
 40
3.00000000002054
100
AcDbArc
 50
40.70818925951778
 51
81.41637851981994
  0
ARC
  5
11B
330
1F
100
AcDbEntity
  8
100
  6
Continuous
 62
     5
100
AcDbCircle
 10
15674.7102010164
 20
-15550.7709007099
 30
0.0
 40
3.0
100
AcDbArc
 50
0.0
 51
40.70818925949144
  0
ARC
  5
11C
330
1F
100
AcDbEntity
  8
1
  6
Continuous
 62
     5
100
AcDbCircle
 10
15668.3238640779
 20
-15544.7766425982
 30
0.0
 40
13.00000000398126
100
AcDbArc
 50
271.7029796597828
 51
316.2219982891265
  0
ARC
  5
11D
330
1F
100
AcDbEntity
  8
1
  6
Continuous
 62
     1
100
AcDbCircle
 10
13967.1633944716
 20
-14877.2123319724
 30
0.0
 40
118.9999999999165
100
AcDbArc
 50
81.9213640359177
 51
136.2189001152092
  0
ARC
  5
11E
330
1F
100
AcDbEntity
  8
1
  6
Continuous
 62
     1
100
AcDbCircle
 10
13608.6336640015
 20
-15241.8655612535
 30
0.0
 40
230.3403009380824
100
AcDbArc
 50
12.76951820615518
 51
62.85338582955936
  0
ARC
  5
11F
330
1F
100
AcDbEntity
  8
1
  6
Continuous
 62
     7
100
AcDbCircle
 10
12469.5028586717
 20
-22671.3827717553
 30
0.0
 40
7598.999999999993
100
AcDbArc
 50
80.77269461876632
 51
83.20108881482349
  0
ARC
  5
120
330
1F
100
AcDbEntity
  8
100
  6
Continuous
 62
     5
100
AcDbCircle
 10
13342.7500463179
 20
-15549.6216480176
 30
0.0
 40
3.000000000042301
100
AcDbArc
 50
98.58362148018007
 51
139.2918107405049
  0
ARC
  5
121
330
1F
100
AcDbEntity
  8
100
  6
Continuous
 62
     5
100
AcDbCircle
 10
13341.7612472312
 20
-15550.7709007099
 30
0.0
 40
2.999999999943515
100
AcDbArc
 50
139.2918107392624
 51
180.0
  0
ARC
  5
122
330
1F
100
AcDbEntity
  8
1
  6
Continuous
 62
     7
100
AcDbCircle
 10
13274.4253958072
 20
-15157.4630635938
 30
0.0
 40
49.93939631664082
100
AcDbArc
 50
130.8375245731271
 51
195.1679667187683
  0
ARC
  5
123
330
1F
100
AcDbEntity
  8
1
  6
Continuous
 62
     7
100
AcDbCircle
 10
13231.1061001591
 20
-15600.6189312653
 30
0.0
 40
378.2448496862984
100
AcDbArc
 50
49.55435173788086
 51
74.53622169969182
  0
ARC
  5
124
330
1F
100
AcDbEntity
  8
1
  6
Continuous
 62
     7
100
AcDbCircle
 10
13602.0332154825
 20
-15180.1220160087
 30
0.0
 40
182.6396850829809
100
AcDbArc
 50
226.5739846396118
 51
244.2572787237284
  0
ARC
  5
125
330
1F
100
AcDbEntity
  8
1
  6
Continuous
 62
     7
100
AcDbCircle
 10
13575.7558995834
 20
-15169.1390782827
 30
0.0
 40
183.3387705783952
100
AcDbArc
 50
253.1810664784149
 51
269.7069963483377
  0
ARC
  5
126
330
1F
100
AcDbEntity
  8
1
  6
Continuous
 62
     7
100
AcDbCircle
 10
13680.6911948209
 20
-15278.677499688
 30
0.0
 40
72.29012714498924
100
AcDbArc
 50
270.0555222164018
 51
327.6403124203066
  0
ARC
  5
127
330
1F
100
AcDbEntity
  8
1
  6
Continuous
 62
     7
100
AcDbCircle
 10
13300.3427646869
 20
-15132.6157119003
 30
0.0
 40
59.98482204341164
100
AcDbArc
 50
167.5469049447169
 51
343.2681251769687
  0
ARC
  5
128
330
1F
100
AcDbEntity
  8
1
  6
Continuous
 62
     7
100
AcDbCircle
 10
13543.4910095175
 20
-15226.0291822649
 30
0.0
 40
200.7076508778277
100
AcDbArc
 50
98.31284718214062
 51
157.7047867771582
  0
ARC
  5
129
330
1F
100
AcDbEntity
  8
1
  6
Continuous
 62
     7
100
AcDbCircle
 10
14158.7359483891
 20
-19462.8095128093
 30
0.0
 40
4481.869228685253
100
AcDbArc
 50
94.79273425696171
 51
98.32511502739388
  0
ARC
  5
12A
330
1F
100
AcDbEntity
  8
1
  6
Continuous
 62
     7
100
AcDbCircle
 10
13882.0449521364
 20
-15329.6910855816
 30
0.0
 40
673.8378435961039
100
AcDbArc
 50
156.0261087632753
 51
161.8405033532775
  0
ARC
  5
12B
330
1F
100
AcDbEntity
  8
1
  6
Continuous
 62
     7
100
AcDbCircle
 10
13688.3257196649
 20
-15077.6138414575
 30
0.0
 40
133.3228188804677
100
AcDbArc
 50
53.11285815590999
 51
82.9648256345003
  0
ARC
  5
12C
330
1F
100
AcDbEntity
  8
1
  6
Continuous
 62
     7
100
AcDbCircle
 10
13752.364639036
 20
-14998.6661375543
 30
0.0
 40
31.97062165738612
100
AcDbArc
 50
3.68507936299954
 51
59.99677537131978
  0
ARC
  5
12D
330
1F
100
AcDbEntity
  8
1
  6
Continuous
 62
     7
100
AcDbCircle
 10
13872.8528370951
 20
-15141.7146714632
 30
0.0
 40
187.0991623155378
100
AcDbArc
 50
156.0221765160044
 51
245.3984093218882
  0
ARC
  5
12E
330
1F
100
AcDbEntity
  8
1
  6
Continuous
 62
     7
100
AcDbCircle
 10
14047.5792194152
 20
-15190.9535183933
 30
0.0
 40
367.6785610495583
100
AcDbArc
 50
148.9377126025588
 51
160.07969602869
  0
ARC
  5
12F
330
1F
100
AcDbEntity
  8
1
  6
Continuous
 62
     7
100
AcDbCircle
 10
15170.3949190415
 20
-16045.4181934823
 30
0.0
 40
1780.387072982812
100
AcDbArc
 50
138.021850356375
 51
142.5639642403866
  0
ARC
  5
130
330
1F
100
AcDbEntity
  8
1
  6
Continuous
 62
     7
100
AcDbCircle
 10
13732.6232845443
 20
-14749.0769488099
 30
0.0
 40
155.5199583281352
100
AcDbArc
 50
317.2663742013164
 51
5.22558868199259
  0
ARC
  5
131
330
1F
100
AcDbEntity
  8
1
  6
Continuous
 62
     7
100
AcDbCircle
 10
13212.4438652791
 20
-14853.3991841919
 30
0.0
 40
685.3726245371249
100
AcDbArc
 50
9.95525644561595
 51
17.63436320190813
  0
ARC
  5
132
330
1F
100
AcDbEntity
  8
1
  6
Continuous
 62
     7
100
AcDbCircle
 10
13973.6494535303
 20
-14544.0413206622
 30
0.0
 40
119.1852355520391
100
AcDbArc
 50
144.3663744349801
 51
168.8349841955051
  0
ARC
  5
133
330
1F
100
AcDbEntity
  8
1
  6
Continuous
 62
     7
100
AcDbCircle
 10
13908.1240032919
 20
-14502.9064504366
 30
0.0
 40
42.23078271206771
100
AcDbArc
 50
94.43828055192648
 51
137.9186222434586
  0
ARC
  5
134
330
1F
100
AcDbEntity
  8
1
  6
Continuous
 62
     7
100
AcDbCircle
 10
13879.3826060249
 20
-14332.0923602042
 30
0.0
 40
131.2064875323902
100
AcDbArc
 50
281.1949048354405
 51
309.2727958057754
  0
ARC
  5
135
330
1F
100
AcDbEntity
  8
1
  6
Continuous
 62
     7
100
AcDbCircle
 10
13755.9843619103
 20
-15365.4291138533
 30
0.0
 40
66.27341603584574
100
AcDbArc
 50
22.40584096850462
 51
53.97496000782879
  0
ARC
  5
136
330
1F
100
AcDbEntity
  8
1
  6
Continuous
 62
     7
100
AcDbCircle
 10
14519.9309483194
 20
-15340.1525773249
 30
0.0
 40
702.6763375498276
100
AcDbArc
 50
154.7723246917004
 51
180.0012601634263
  0
ARC
  5
137
330
1F
100
AcDbEntity
  8
1
  6
Continuous
 62
     7
100
AcDbCircle
 10
11162.9918817629
 20
-13646.820215329
 30
0.0
 40
3057.478101963862
100
AcDbArc
 50
332.8784909582407
 51
337.6809707528618
  0
ARC
  5
138
330
1F
100
AcDbEntity
  8
1
  6
Continuous
 62
     7
100
AcDbCircle
 10
13912.9530631188
 20
-14795.249644821
 30
0.0
 40
79.48120389680858
100
AcDbArc
 50
350.8136060270669
 51
26.81622001524356
  0
ARC
  5
139
330
1F
100
AcDbEntity
  8
1
  6
Continuous
 62
     7
100
AcDbCircle
 10
14402.4298505033
 20
-14577.0379538018
 30
0.0
 40
456.5433410371942
100
AcDbArc
 50
161.7111179013194
 51
203.5423051427436
  0
ARC
  5
13A
330
1F
100
AcDbEntity
  8
1
  6
Continuous
 62
     7
100
AcDbCircle
 10
13965.5919002713
 20
-14439.9200655042
 30
0.0
 40
7.005478178923711
100
AcDbArc
 50
61.37394206013216
 51
116.7562036558549
  0
ARC
  5
13B
330
1F
100
AcDbEntity
  8
143
  6
Continuous
 62
     7
100
AcDbCircle
 10
13444.7167606236
 20
-15134.9692833832
 30
0.0
 40
195.11835592412
100
AcDbArc
 50
102.2136936127137
 51
156.0930490294132
  0
ARC
  5
13C
330
1F
100
AcDbEntity
  8
143
  6
Continuous
 62
     7
100
AcDbCircle
 10
13550.6952720296
 20
-15927.2430443505
 30
0.0
 40
993.9446395072563
100
AcDbArc
 50
81.08914211146902
 51
98.51999608700291
  0
ARC
  5
13D
330
1F
100
AcDbEntity
  8
1
  6
Continuous
 62
     7
100
AcDbCircle
 10
14103.8840131297
 20
-14566.0779111029
 30
0.0
 40
251.2477539500721
100
AcDbArc
 50
169.6556316659172
 51
198.4931156098831
  0
ARC
  5
13E
330
1F
100
AcDbEntity
  8
1
  6
Continuous
 62
     7
100
AcDbCircle
 10
13471.8764016229
 20
-15306.2315929174
 30
0.0
 40
198.3539677696779
100
AcDbArc
 50
192.5318527874074
 51
220.0257311007329
  0
ARC
  5
13F
330
1F
100
AcDbEntity
  8
1
  6
Continuous
 62
     7
100
AcDbCircle
 10
13290.6942149447
 20
-15422.5778840956
 30
0.0
 40
86.94084571196782
100
AcDbArc
 50
321.5873683094985
 51
12.91709725407394
  0
ARC
  5
140
330
1F
100
AcDbEntity
  8
1
  6
Continuous
 62
     7
100
AcDbCircle
 10
12608.974843657
 20
-15513.4017427918
 30
0.0
 40
774.3501304342165
100
AcDbArc
 50
8.18609308765478
 51
20.9867353651602
  0
ARC
  5
141
330
1F
100
AcDbEntity
  8
1
  6
Continuous
 62
     5
100
AcDbCircle
 10
13348.1475841698
 20
-15544.7766425982
 30
0.0
 40
13.00000000403055
100
AcDbArc
 50
223.7780017105684
 51
268.2970203397765
  0
ARC
  5
142
330
1F
100
AcDbEntity
  8
1
  6
Continuous
 62
     5
100
AcDbCircle
 10
13955.3749102927
 20
-15544.7766425982
 30
0.0
 40
13.00000000398126
100
AcDbArc
 50
271.7029796597828
 51
316.2219982891265
  0
ARC
  5
143
330
1F
100
AcDbEntity
  8
100
  6
Continuous
 62
     5
100
AcDbCircle
 10
13961.7612472312
 20
-15550.7709007099
 30
0.0
 40
3.0
100
AcDbArc
 50
0.0
 51
40.70818925946879
  0
ARC
  5
144
330
1F
100
AcDbEntity
  8
100
  6
Continuous
 62
     5
100
AcDbCircle
 10
13960.7724481445
 20
-15549.6216480176
 30
0.0
 40
3.00000000002054
100
AcDbArc
 50
40.70818925951778
 51
81.41637851981994
  0
ARC
  5
145
330
1F
100
AcDbEntity
  8
1
  6
Continuous
 62
     1
100
AcDbCircle
 10
18876.8758238298
 20
-13010.5687985682
 30
0.0
 40
1603.064165080226
100
AcDbArc
 50
260.6679059692264
 51
279.3320940307736
  0
ARC
  5
146
330
1F
100
AcDbEntity
  8
1
  6
Continuous
 62
     7
100
AcDbCircle
 10
18876.8758238298
 20
-15253.0547427376
 30
0.0
 40
919.2838420277262
100
AcDbArc
 50
76.02386863849242
 51
103.9761313615014
  0
ARC
  5
147
330
1F
100
AcDbEntity
  8
1
  6
Continuous
 62
     7
100
AcDbCircle
 10
19056.8012425189
 20
-15213.910236669
 30
0.0
 40
124.999999999938
100
AcDbArc
 50
50.19506548734263
 51
92.17149131254702
  0
ARC
  5
148
330
1F
100
AcDbEntity
  8
1
  6
Continuous
 62
     7
100
AcDbCircle
 10
19018.6992621835
 20
-15715.7860195695
 30
0.0
 40
627.6734670816923
100
AcDbArc
 50
86.95285398199417
 51
97.39012864307948
  0
ARC
  5
149
330
1F
100
AcDbEntity
  8
1
  6
Continuous
 62
     7
100
AcDbCircle
 10
18886.6746660907
 20
-14821.1163776361
 30
0.0
 40
276.9999999998504
100
AcDbArc
 50
267.9727456099031
 51
280.6706583969302
  0
ARC
  5
14A
330
1F
100
AcDbEntity
  8
1
  6
Continuous
 62
     7
100
AcDbCircle
 10
18867.0769815689
 20
-14821.1163776361
 30
0.0
 40
276.999999999895
100
AcDbArc
 50
259.3293416030698
 51
272.0272543900969
  0
ARC
  5
14B
330
1F
100
AcDbEntity
  8
1
  6
Continuous
 62
     7
100
AcDbCircle
 10
18735.0523854761
 20
-15715.7860195695
 30
0.0
 40
627.6734670816493
100
AcDbArc
 50
82.60987135692086
 51
93.04714601800585
  0
ARC
  5
14C
330
1F
100
AcDbEntity
  8
1
  6
Continuous
 62
     7
100
AcDbCircle
 10
18696.9504051407
 20
-15213.910236669
 30
0.0
 40
124.9999999999031
100
AcDbArc
 50
87.82850868745133
 51
129.8049345126228
  0
ARC
  5
14D
330
1F
100
AcDbEntity
  8
1
  6
Continuous
 62
     7
100
AcDbCircle
 10
18625.4805292503
 20
-15133.6906932138
 30
0.0
 40
44.99999999896477
100
AcDbArc
 50
187.3107240966838
 51
239.8442610364519
  0
ARC
  5
14E
330
1F
100
AcDbEntity
  8
1
  6
Continuous
 62
     7
100
AcDbCircle
 10
18442.08847478
 20
-15072.6671675141
 30
0.0
 40
125.9999999999446
100
AcDbArc
 50
4.35648005259374
 51
47.26125846887609
  0
ARC
  5
14F
330
1F
100
AcDbEntity
  8
1
  6
Continuous
 62
     7
100
AcDbCircle
 10
18562.2328212661
 20
-14929.1115741931
 30
0.0
 40
61.65981230886931
100
AcDbArc
 50
202.9948604537791
 51
235.8273196658803
  0
ARC
  5
150
330
1F
100
AcDbEntity
  8
1
  6
Continuous
 62
     7
100
AcDbCircle
 10
18943.8689980149
 20
-15037.7136743566
 30
0.0
 40
377.0000000000015
100
AcDbArc
 50
183.8604797435173
 51
195.6505794841741
  0
ARC
  5
151
330
1F
100
AcDbEntity
  8
1
  6
Continuous
 62
     7
100
AcDbCircle
 10
18531.8955030289
 20
-14941.9857902561
 30
0.0
 40
28.7038065274246
100
AcDbArc
 50
50.90006328614126
 51
202.9948604538355
  0
ARC
  5
152
330
1F
100
AcDbEntity
  8
1
  6
Continuous
 62
     7
100
AcDbCircle
 10
18455.0590852532
 20
-15050.9766940664
 30
0.0
 40
162.0009877500658
100
AcDbArc
 50
2.31004343206039
 51
54.12344769744497
  0
ARC
  5
153
330
1F
100
AcDbEntity
  8
1
  6
Continuous
 62
     7
100
AcDbCircle
 10
18605.9361325155
 20
-15162.0351411166
 30
0.0
 40
11.00000000120253
100
AcDbArc
 50
253.8404184690696
 51
357.8546125133713
  0
ARC
  5
154
330
1F
100
AcDbEntity
  8
1
  6
Continuous
 62
     7
100
AcDbCircle
 10
19147.8155151441
 20
-15162.0351411166
 30
0.0
 40
11.00000000115882
100
AcDbArc
 50
182.1453874866287
 51
286.15958153144
  0
ARC
  5
155
330
1F
100
AcDbEntity
  8
1
  6
Continuous
 62
     7
100
AcDbCircle
 10
19298.6925624064
 20
-15050.9766940664
 30
0.0
 40
162.0009877501215
100
AcDbArc
 50
125.876552302554
 51
177.6899565679396
  0
ARC
  5
156
330
1F
100
AcDbEntity
  8
1
  6
Continuous
 62
     7
100
AcDbCircle
 10
19221.8561446307
 20
-14941.9857902561
 30
0.0
 40
28.70380652749428
100
AcDbArc
 50
337.0051395461645
 51
129.0999367138531
  0
ARC
  5
157
330
1F
100
AcDbEntity
  8
1
  6
Continuous
 62
     7
100
AcDbCircle
 10
18809.8826496447
 20
-15037.7136743566
 30
0.0
 40
377.0000000000228
100
AcDbArc
 50
344.3494205158259
 51
356.1395202576402
  0
ARC
  5
158
330
1F
100
AcDbEntity
  8
1
  6
Continuous
 62
     7
100
AcDbCircle
 10
19191.5188263935
 20
-14929.1115741931
 30
0.0
 40
61.65981230880055
100
AcDbArc
 50
304.1726803341692
 51
337.0051395462196
  0
ARC
  5
159
330
1F
100
AcDbEntity
  8
1
  6
Continuous
 62
     7
100
AcDbCircle
 10
19311.6631728797
 20
-15072.6671675141
 30
0.0
 40
126.0000000001363
100
AcDbArc
 50
132.7387415311271
 51
175.6435199439466
  0
ARC
  5
15A
330
1F
100
AcDbEntity
  8
1
  6
Continuous
 62
     7
100
AcDbCircle
 10
19128.2711184093
 20
-15133.6906932138
 30
0.0
 40
44.99999999901171
100
AcDbArc
 50
300.1557389636602
 51
352.6892759033162
  0
ARC
  5
15B
330
1F
100
AcDbEntity
  8
1
  6
Continuous
 62
     5
100
AcDbCircle
 10
18573.2621607683
 20
-15544.7766425982
 30
0.0
 40
13.00000000395831
100
AcDbArc
 50
223.7780017108735
 51
268.2970203402172
  0
ARC
  5
15C
330
1F
100
AcDbEntity
  8
100
  6
Continuous
 62
     5
100
AcDbCircle
 10
18566.8758238298
 20
-15550.7709007099
 30
0.0
 40
3.000000000020732
100
AcDbArc
 50
139.2918107405312
 51
180.0
  0
ARC
  5
15D
330
1F
100
AcDbEntity
  8
100
  6
Continuous
 62
     5
100
AcDbCircle
 10
18567.8646229165
 20
-15549.6216480176
 30
0.0
 40
3.000000000042301
100
AcDbArc
 50
98.58362148018007
 51
139.2918107404596
  0
ARC
  5
15E
330
1F
100
AcDbEntity
  8
100
  6
Continuous
 62
     5
100
AcDbCircle
 10
19185.8870247431
 20
-15549.6216480176
 30
0.0
 40
3.000000000021918
100
AcDbArc
 50
40.70818925949512
 51
81.41637851981994
  0
ARC
  5
15F
330
1F
100
AcDbEntity
  8
100
  6
Continuous
 62
     5
100
AcDbCircle
 10
19186.8758238298
 20
-15550.7709007099
 30
0.0
 40
3.0
100
AcDbArc
 50
0.0
 51
40.70818925946879
  0
ARC
  5
160
330
1F
100
AcDbEntity
  8
1
  6
Continuous
 62
     5
100
AcDbCircle
 10
19180.4894868913
 20
-15544.7766425982
 30
0.0
 40
13.00000000398126
100
AcDbArc
 50
271.7029796597828
 51
316.2219982891265
  0
ARC
  5
161
330
1F
100
AcDbEntity
  8
1
  6
Continuous
 62
     1
100
AcDbCircle
 10
17479.3290172851
 20
-14777.2123319724
 30
0.0
 40
118.9999999999019
100
AcDbArc
 50
81.92136403596713
 51
138.9291487192795
  0
ARC
  5
162
330
1F
100
AcDbEntity
  8
1
  6
Continuous
 62
     1
100
AcDbCircle
 10
17120.7992868149
 20
-15221.8655612535
 30
0.0
 40
230.3403009380824
100
AcDbArc
 50
12.76951820615518
 51
62.85338582952625
  0
ARC
  5
163
330
1F
100
AcDbEntity
  8
1
  6
Continuous
 62
     7
100
AcDbCircle
 10
15981.6684814851
 20
-22651.3827717553
 30
0.0
 40
7598.999999999993
100
AcDbArc
 50
80.77269461876632
 51
83.20108881482349
  0
ARC
  5
164
330
1F
100
AcDbEntity
  8
100
  6
Continuous
 62
     5
100
AcDbCircle
 10
16854.9156691313
 20
-15549.6216480176
 30
0.0
 40
3.000000000042301
100
AcDbArc
 50
98.58362148018007
 51
139.291810739236
  0
ARC
  5
165
330
1F
100
AcDbEntity
  8
100
  6
Continuous
 62
     5
100
AcDbCircle
 10
16853.9268700446
 20
-15550.7709007099
 30
0.0
 40
2.999999999943515
100
AcDbArc
 50
139.2918107392624
 51
180.0
  0
ARC
  5
166
330
1F
100
AcDbEntity
  8
1
  6
Continuous
 62
     7
100
AcDbCircle
 10
16818.3932743153
 20
-15157.4630635938
 30
0.0
 40
86.56620103373672
100
AcDbArc
 50
138.1259876584858
 51
202.4564298041448
  0
ARC
  5
167
330
1F
100
AcDbEntity
  8
1
  6
Continuous
 62
     7
100
AcDbCircle
 10
16743.2717229725
 20
-15580.6189312653
 30
0.0
 40
378.2448496863008
100
AcDbArc
 50
49.55435173788044
 51
77.46559101201402
  0
ARC
  5
168
330
1F
100
AcDbEntity
  8
1
  6
Continuous
 62
     7
100
AcDbCircle
 10
17114.1988382959
 20
-15160.1220160087
 30
0.0
 40
182.6396850829796
100
AcDbArc
 50
226.5739846396123
 51
244.2572787237289
  0
ARC
  5
169
330
1F
100
AcDbEntity
  8
1
  6
Continuous
 62
     7
100
AcDbCircle
 10
17087.9215223968
 20
-15149.1390782827
 30
0.0
 40
183.3387705783941
100
AcDbArc
 50
253.1810664784159
 51
269.7069963483377
  0
ARC
  5
16A
330
1F
100
AcDbEntity
  8
1
  6
Continuous
 62
     7
100
AcDbCircle
 10
17192.8568176343
 20
-15258.677499688
 30
0.0
 40
72.29012714498924
100
AcDbArc
 50
270.0555222164032
 51
327.6403124203066
  0
ARC
  5
16B
330
1F
100
AcDbEntity
  8
1
  6
Continuous
 62
     7
100
AcDbCircle
 10
16812.5083875003
 20
-15112.6157119003
 30
0.0
 40
59.98482204341164
100
AcDbArc
 50
167.5469049447169
 51
343.2681251769682
  0
ARC
  5
16C
330
1F
100
AcDbEntity
  8
1
  6
Continuous
 62
     7
100
AcDbCircle
 10
17055.6566323309
 20
-15206.0291822649
 30
0.0
 40
200.7076508778133
100
AcDbArc
 50
98.31284718211234
 51
157.7047867771586
  0
ARC
  5
16D
330
1F
100
AcDbEntity
  8
1
  6
Continuous
 62
     7
100
AcDbCircle
 10
17670.9015712025
 20
-19442.8095128093
 30
0.0
 40
4481.869228685253
100
AcDbArc
 50
94.79273425696171
 51
98.32511502739388
  0
ARC
  5
16E
330
1F
100
AcDbEntity
  8
1
  6
Continuous
 62
     7
100
AcDbCircle
 10
17394.2105749498
 20
-15309.6910855816
 30
0.0
 40
673.8378435961039
100
AcDbArc
 50
156.0261087632753
 51
161.8405033532775
  0
ARC
  5
16F
330
1F
100
AcDbEntity
  8
1
  6
Continuous
 62
     7
100
AcDbCircle
 10
17200.4913424783
 20
-15057.6138414575
 30
0.0
 40
133.3228188805267
100
AcDbArc
 50
53.11285815587622
 51
82.96482563450108
  0
ARC
  5
170
330
1F
100
AcDbEntity
  8
1
  6
Continuous
 62
     7
100
AcDbCircle
 10
17264.5302618494
 20
-14978.6661375543
 30
0.0
 40
31.97062165738793
100
AcDbArc
 50
3.68507936299933
 51
59.99677537116169
  0
ARC
  5
171
330
1F
100
AcDbEntity
  8
1
  6
Continuous
 62
     7
100
AcDbCircle
 10
17385.0184599085
 20
-15121.7146714632
 30
0.0
 40
187.0991623155378
100
AcDbArc
 50
156.0221765160044
 51
245.3984093218887
  0
ARC
  5
172
330
1F
100
AcDbEntity
  8
1
  6
Continuous
 62
     7
100
AcDbCircle
 10
17559.7448422286
 20
-15170.9535183933
 30
0.0
 40
367.6785610495583
100
AcDbArc
 50
148.9377126025588
 51
160.07969602869
  0
ARC
  5
173
330
1F
100
AcDbEntity
  8
1
  6
Continuous
 62
     7
100
AcDbCircle
 10
19514.671079465
 20
-15992.4181934823
 30
0.0
 40
2478.816437136065
100
AcDbArc
 50
150.415534048748
 51
154.9576479327592
  0
ARC
  5
174
330
1F
100
AcDbEntity
  8
1
  6
Continuous
 62
     7
100
AcDbCircle
 10
16724.6094880925
 20
-14753.3991841919
 30
0.0
 40
685.3726245371231
100
AcDbArc
 50
9.95525644561598
 51
17.63436320190817
  0
ARC
  5
175
330
1F
100
AcDbEntity
  8
1
  6
Continuous
 62
     7
100
AcDbCircle
 10
17485.8150763437
 20
-14444.0413206622
 30
0.0
 40
119.1852355520391
100
AcDbArc
 50
144.3663744349801
 51
168.8349841955052
  0
ARC
  5
176
330
1F
100
AcDbEntity
  8
1
  6
Continuous
 62
     7
100
AcDbCircle
 10
17420.2896261053
 20
-14402.9064504366
 30
0.0
 40
42.23078271206771
100
AcDbArc
 50
94.43828055192648
 51
137.9186222434586
  0
ARC
  5
177
330
1F
100
AcDbEntity
  8
1
  6
Continuous
 62
     7
100
AcDbCircle
 10
17391.5482288383
 20
-14232.0923602042
 30
0.0
 40
131.2064875323902
100
AcDbArc
 50
281.1949048354405
 51
309.2727958057754
  0
ARC
  5
178
330
1F
100
AcDbEntity
  8
1
  6
Continuous
 62
     7
100
AcDbCircle
 10
17268.1499847237
 20
-15345.4291138533
 30
0.0
 40
66.27341603584406
100
AcDbArc
 50
22.40584096850522
 51
53.97496000782752
  0
ARC
  5
179
330
1F
100
AcDbEntity
  8
1
  6
Continuous
 62
     7
100
AcDbCircle
 10
18032.0965711328
 20
-15320.1525773249
 30
0.0
 40
702.6763375498276
100
AcDbArc
 50
154.7723246917004
 51
180.0012601634263
  0
ARC
  5
17A
330
1F
100
AcDbEntity
  8
1
  6
Continuous
 62
     7
100
AcDbCircle
 10
14675.1575045763
 20
-13626.820215329
 30
0.0
 40
3057.478101963862
100
AcDbArc
 50
332.8784909582407
 51
337.6809707528618
  0
ARC
  5
17B
330
1F
100
AcDbEntity
  8
1
  6
Continuous
 62
     7
100
AcDbCircle
 10
17302.0208991169
 20
-14735.2496448209
 30
0.0
 40
208.3323947684808
100
AcDbArc
 50
345.3503437913875
 51
21.35295777958299
  0
ARC
  5
17C
330
1F
100
AcDbEntity
  8
1
  6
Continuous
 62
     7
100
AcDbCircle
 10
17914.5954733167
 20
-14477.0379538018
 30
0.0
 40
456.5433410371925
100
AcDbArc
 50
161.7111179013193
 51
203.5423051427436
  0
ARC
  5
17D
330
1F
100
AcDbEntity
  8
1
  6
Continuous
 62
     7
100
AcDbCircle
 10
17477.7575230847
 20
-14339.9200655042
 30
0.0
 40
7.005478178923711
100
AcDbArc
 50
61.37394206013216
 51
116.7562036558549
  0
ARC
  5
17E
330
1F
100
AcDbEntity
  8
143
  6
Continuous
 62
     7
100
AcDbCircle
 10
16956.882383437
 20
-15114.9692833832
 30
0.0
 40
195.1183559241204
100
AcDbArc
 50
102.2136936127142
 51
156.0930490294134
  0
ARC
  5
17F
330
1F
100
AcDbEntity
  8
143
  6
Continuous
 62
     7
100
AcDbCircle
 10
17062.860894843
 20
-15907.2430443505
 30
0.0
 40
993.9446395072559
100
AcDbArc
 50
81.08914211146912
 51
98.51999608700301
  0
ARC
  5
180
330
1F
100
AcDbEntity
  8
1
  6
Continuous
 62
     7
100
AcDbCircle
 10
17616.0496359431
 20
-14466.0779111029
 30
0.0
 40
251.2477539500757
100
AcDbArc
 50
169.6556316659174
 51
198.493115609883
  0
ARC
  5
181
330
1F
100
AcDbEntity
  8
1
  6
Continuous
 62
     7
100
AcDbCircle
 10
16984.0420244363
 20
-15326.2315929174
 30
0.0
 40
198.3539677696779
100
AcDbArc
 50
192.5318527874074
 51
220.0257311007326
  0
ARC
  5
182
330
1F
100
AcDbEntity
  8
1
  6
Continuous
 62
     7
100
AcDbCircle
 10
16802.8598377581
 20
-15442.5778840956
 30
0.0
 40
86.94084571196782
100
AcDbArc
 50
321.5873683094985
 51
12.91709725407421
  0
ARC
  5
183
330
1F
100
AcDbEntity
  8
1
  6
Continuous
 62
     7
100
AcDbCircle
 10
16121.1404664704
 20
-15533.4017427918
 30
0.0
 40
774.3501304342146
100
AcDbArc
 50
8.1860930876548
 51
24.57277624669889
  0
ARC
  5
184
330
1F
100
AcDbEntity
  8
1
  6
Continuous
 62
     5
100
AcDbCircle
 10
16860.3132069832
 20
-15544.7766425982
 30
0.0
 40
13.00000000402923
100
AcDbArc
 50
223.778001710574
 51
268.2970203397845
  0
ARC
  5
185
330
1F
100
AcDbEntity
  8
1
  6
Continuous
 62
     5
100
AcDbCircle
 10
17467.5405331061
 20
-15544.7766425982
 30
0.0
 40
13.00000000398126
100
AcDbArc
 50
271.7029796597828
 51
316.2219982891265
  0
ARC
  5
186
330
1F
100
AcDbEntity
  8
100
  6
Continuous
 62
     5
100
AcDbCircle
 10
17473.9268700446
 20
-15550.7709007099
 30
0.0
 40
3.0
100
AcDbArc
 50
0.0
 51
40.70818925951411
  0
ARC
  5
187
330
1F
100
AcDbEntity
  8
100
  6
Continuous
 62
     5
100
AcDbCircle
 10
17472.9380709579
 20
-15549.6216480176
 30
0.0
 40
3.00000000001916
100
AcDbArc
 50
40.70818925954044
 51
81.41637851981994
  0
ARC
  5
188
330
1F
100
AcDbEntity
  8
1
  6
Continuous
 62
     7
100
AcDbCircle
 10
17126.8422484503
 20
-14625.007457789
 30
0.0
 40
273.0000000002016
100
AcDbArc
 50
328.2629535610541
 51
357.9207043769493
  0
ARC
  5
189
330
1F
100
AcDbEntity
  8
1
  6
Continuous
 62
     7
100
AcDbCircle
 10
11854.8224217698
 20
-17235.8085337477
 30
0.0
 40
678.6110490402043
100
AcDbArc
 50
70.48910025035008
 51
109.5108997496579
  0
ARC
  5
18A
330
1F
100
AcDbEntity
  8
1
  6
Continuous
 62
     7
100
AcDbCircle
 10
11625.6190820954
 20
-16823.9209568158
 30
0.0
 40
38.99999999863729
100
AcDbArc
 50
217.9722090405827
 51
273.2387004381087
  0
ARC
  5
18B
330
1F
100
AcDbEntity
  8
1
  6
Continuous
 62
     7
100
AcDbCircle
 10
12084.0257614441
 20
-16823.9209568158
 30
0.0
 40
38.99999999868091
100
AcDbArc
 50
266.7612995620408
 51
322.0277909594174
  0
ARC
  5
18C
330
1F
100
AcDbEntity
  8
1
  6
Continuous
 62
     7
100
AcDbCircle
 10
11854.8224217698
 20
-18862.22315293
 30
0.0
 40
2012.209568256265
100
AcDbArc
 50
83.52259912402577
 51
96.47740087597423
  0
ARC
  5
18D
330
1F
100
AcDbEntity
  8
1
  6
Continuous
 62
     1
100
AcDbCircle
 10
11854.8224217698
 20
-18764.8954914154
 30
0.0
 40
2111.101369945955
100
AcDbArc
 50
82.92701672519932
 51
97.07298327480345
  0
ARC
  5
18E
330
1F
100
AcDbEntity
  8
1
  6
Continuous
 62
     7
100
AcDbCircle
 10
12386.6855519446
 20
-17107.5178910054
 30
0.0
 40
905.4116316665531
100
AcDbArc
 50
159.0014050760318
 51
181.3549409636567
  0
ARC
  5
18F
330
1F
100
AcDbEntity
  8
1
  6
Continuous
 62
     7
100
AcDbCircle
 10
11791.9536995395
 20
-17101.7154697235
 30
0.0
 40
311.6170203957999
100
AcDbArc
 50
185.0096993119044
 51
219.0051917173729
  0
ARC
  5
190
330
1F
100
AcDbEntity
  8
1
  6
Continuous
 62
     7
100
AcDbCircle
 10
11567.4728665302
 20
-16791.606924604
 30
0.0
 40
27.43261494135437
100
AcDbArc
 50
2.70034601506293
 51
161.8645144457863
  0
ARC
  5
191
330
1F
100
AcDbEntity
  8
1
  6
Continuous
 62
     7
100
AcDbCircle
 10
11569.9726562692
 20
-17283.2193531326
 30
0.0
 40
24.91675182618735
100
AcDbArc
 50
215.9412013753168
 51
358.0527847474664
  0
ARC
  5
192
330
1F
100
AcDbEntity
  8
1
  6
Continuous
 62
     7
100
AcDbCircle
 10
11322.9592915949
 20
-17107.5178910054
 30
0.0
 40
905.4116316665009
100
AcDbArc
 50
358.6450590363434
 51
20.9985949239682
  0
ARC
  5
193
330
1F
100
AcDbEntity
  8
1
  6
Continuous
 62
     7
100
AcDbCircle
 10
12142.1719770093
 20
-16791.606924604
 30
0.0
 40
27.43261494137772
100
AcDbArc
 50
18.13548555421367
 51
177.2996539849371
  0
ARC
  5
194
330
1F
100
AcDbEntity
  8
1
  6
Continuous
 62
     7
100
AcDbCircle
 10
12139.6721872703
 20
-17283.2193531326
 30
0.0
 40
24.91675182677258
100
AcDbArc
 50
181.9472152534533
 51
324.0587986246833
  0
ARC
  5
195
330
1F
100
AcDbEntity
  8
1
  6
Continuous
 62
     7
100
AcDbCircle
 10
12139.6721872703
 20
-17283.2193531326
 30
0.0
 40
24.91675182677258
100
AcDbArc
 50
181.9472152534533
 51
324.0587986246833
  0
ARC
  5
196
330
1F
100
AcDbEntity
  8
1
  6
Continuous
 62
     7
100
AcDbCircle
 10
11917.691144
 20
-17101.7154697235
 30
0.0
 40
311.6170203958512
100
AcDbArc
 50
320.9948082826271
 51
354.9903006880956
  0
ENDSEC
  0
SECTION
  2
OBJECTS
  0
DICTIONARY
  5
C
330
0
100
AcDbDictionary
281
     1
  3
ACAD_GROUP
350
D
  3
ACAD_LAYOUT
350
1A
  3
ACAD_MATERIAL
350
3B
  3
ACAD_MLEADERSTYLE
350
199
  3
ACAD_MLINESTYLE
350
17
  3
ACAD_PLOTSETTINGS
350
19
  3
ACAD_PLOTSTYLENAME
350
E
  3
ACAD_VISUALSTYLE
350
2A
  3
AcDbVariableDictionary
350
197
  0
DICTIONARY
  5
D
102
{ACAD_REACTORS
330
C
102
}
330
C
100
AcDbDictionary
281
     1
  0
DICTIONARY
  5
1A
102
{ACAD_REACTORS
330
C
102
}
330
C
100
AcDbDictionary
281
     1
  3
Layout1
350
1E
  3
Layout2
350
26
  3
Model
350
22
  0
DICTIONARY
  5
3B
102
{ACAD_REACTORS
330
C
102
}
330
C
100
AcDbDictionary
281
     1
  3
ByBlock
350
3D
  3
ByLayer
350
3C
  3
Global
350
3E
  0
DICTIONARY
  5
199
102
{ACAD_REACTORS
330
C
102
}
330
C
100
AcDbDictionary
281
     1
  0
DICTIONARY
  5
17
102
{ACAD_REACTORS
330
C
102
}
330
C
100
AcDbDictionary
281
     1
  3
Standard
350
18
  0
DICTIONARY
  5
19
102
{ACAD_REACTORS
330
C
102
}
330
C
100
AcDbDictionary
281
     1
  0
ACDBDICTIONARYWDFLT
  5
E
102
{ACAD_REACTORS
330
C
102
}
330
C
100
AcDbDictionary
281
     1
  3
Normal
350
F
100
AcDbDictionaryWithDefault
340
F
  0
DICTIONARY
  5
2A
102
{ACAD_REACTORS
330
C
102
}
330
C
100
AcDbDictionary
281
     1
  3
2dWireframe
350
2F
  3
3D Hidden
350
31
  3
3dWireframe
350
30
  3
Basic
350
32
  3
Brighten
350
36
  3
ColorChange
350
3A
  3
Conceptual
350
34
  3
Dim
350
35
  3
Facepattern
350
39
  3
Flat
350
2B
  3
FlatWithEdges
350
2C
  3
Gouraud
350
2D
  3
GouraudWithEdges
350
2E
  3
Linepattern
350
38
  3
Realistic
350
33
  3
Thicken
350
37
  0
DICTIONARY
  5
197
102
{ACAD_REACTORS
330
C
102
}
330
C
100
AcDbDictionary
281
     1
  3
DIMASSOC
350
19A
  3
HIDETEXT
350
19B
  0
LAYOUT
  5
1E
102
{ACAD_REACTORS
330
1A
102
}
330
1A
100
AcDbPlotSettings
  1

  2
none_device
  4

  6

 40
0.0
 41
0.0
 42
0.0
 43
0.0
 44
0.0
 45
0.0
 46
0.0
 47
0.0
 48
0.0
 49
0.0
140
0.0
141
0.0
142
1.0
143
1.0
 70
   688
 72
     0
 73
     0
 74
     5
  7

 75
    16
147
1.0
148
0.0
149
0.0
100
AcDbLayout
  1
Layout1
 70
     1
 71
     1
 10
0.0
 20
0.0
 11
12.0
 21
9.0
 12
0.0
 22
0.0
 32
0.0
 14
1.00000000000000E+20
 24
1.00000000000000E+20
 34
1.00000000000000E+20
 15
-1.00000000000000E+20
 25
-1.00000000000000E+20
 35
-1.00000000000000E+20
146
0.0
 13
0.0
 23
0.0
 33
0.0
 16
1.0
 26
0.0
 36
0.0
 17
0.0
 27
1.0
 37
0.0
 76
     0
330
1B
  0
LAYOUT
  5
26
102
{ACAD_REACTORS
330
1A
102
}
330
1A
100
AcDbPlotSettings
  1

  2
none_device
  4

  6

 40
0.0
 41
0.0
 42
0.0
 43
0.0
 44
0.0
 45
0.0
 46
0.0
 47
0.0
 48
0.0
 49
0.0
140
0.0
141
0.0
142
1.0
143
1.0
 70
   688
 72
     0
 73
     0
 74
     5
  7

 75
    16
147
1.0
148
0.0
149
0.0
100
AcDbLayout
  1
Layout2
 70
     1
 71
     2
 10
0.0
 20
0.0
 11
0.0
 21
0.0
 12
0.0
 22
0.0
 32
0.0
 14
0.0
 24
0.0
 34
0.0
 15
0.0
 25
0.0
 35
0.0
146
0.0
 13
0.0
 23
0.0
 33
0.0
 16
1.0
 26
0.0
 36
0.0
 17
0.0
 27
1.0
 37
0.0
 76
     0
330
23
  0
LAYOUT
  5
22
102
{ACAD_REACTORS
330
1A
102
}
330
1A
100
AcDbPlotSettings
  1

  2
none_device
  4

  6

 40
0.0
 41
0.0
 42
0.0
 43
0.0
 44
0.0
 45
0.0
 46
0.0
 47
0.0
 48
0.0
 49
0.0
140
0.0
141
0.0
142
1.0
143
1.0
 70
  1712
 72
     0
 73
     0
 74
     0
  7

 75
     0
147
1.0
148
0.0
149
0.0
100
AcDbLayout
  1
Model
 70
     1
 71
     0
 10
0.0
 20
0.0
 11
12.0
 21
9.0
 12
0.0
 22
0.0
 32
0.0
 14
9714.598220243872
 24
-17324.0445873285
 34
0.0
 15
19250.55995115812
 25
-14332.91458732534
 35
0.0
146
0.0
 13
0.0
 23
0.0
 33
0.0
 16
1.0
 26
0.0
 36
0.0
 17
0.0
 27
1.0
 37
0.0
 76
     0
330
1F
331
29
  0
MATERIAL
  5
3D
102
{ACAD_REACTORS
330
3B
102
}
102
{ACAD_XDICTIONARY
360
1BE
102
}
330
3B
100
AcDbMaterial
  1
ByBlock
  0
MATERIAL
  5
3C
102
{ACAD_REACTORS
330
3B
102
}
102
{ACAD_XDICTIONARY
360
1BC
102
}
330
3B
100
AcDbMaterial
  1
ByLayer
  0
MATERIAL
  5
3E
102
{ACAD_REACTORS
330
3B
102
}
102
{ACAD_XDICTIONARY
360
1C0
102
}
330
3B
100
AcDbMaterial
  1
Global
  0
MLINESTYLE
  5
18
102
{ACAD_REACTORS
330
17
102
}
330
17
100
AcDbMlineStyle
  2
Standard
 70
     0
  3

 62
   256
 51
90.0
 52
90.0
 71
     2
 49
0.5
 62
   256
  6
BYLAYER
 49
-0.5
 62
   256
  6
BYLAYER
  0
ACDBPLACEHOLDER
  5
F
102
{ACAD_REACTORS
330
E
102
}
330
E
  0
VISUALSTYLE
  5
2F
102
{ACAD_REACTORS
330
2A
102
}
102
{ACAD_XDICTIONARY
360
1A4
102
}
330
2A
100
AcDbVisualStyle
  2
2dWireframe
 70
     4
 71
     0
 72
     2
 73
     0
 90
        0
 40
-0.6
 41
-30.0
 62
     5
 63
     7
 74
     1
 91
        4
 64
     7
 65
   257
 75
     1
175
     1
 42
1.0
 92
        0
 66
   257
 43
1.0
 76
     1
 77
     6
 78
     2
 67
     7
 79
     5
170
     0
171
     0
290
     0
174
     0
 93
        1
 44
0.0
173
     0
291
     0
 45
0.0
1001
ACAD
1000
AcDbSavedByObjectVersion
1070
     0
  0
VISUALSTYLE
  5
31
102
{ACAD_REACTORS
330
2A
102
}
102
{ACAD_XDICTIONARY
360
1A8
102
}
330
2A
100
AcDbVisualStyle
  2
3D Hidden
 70
     6
 71
     1
 72
     2
 73
     2
 90
        0
 40
-0.6
 41
-30.0
 62
     5
 63
     7
 74
     2
 91
        2
 64
     7
 65
   257
 75
     2
175
     1
 42
40.0
 92
        0
 66
   257
 43
1.0
 76
     1
 77
     6
 78
     2
 67
     7
 79
     3
170
     0
171
     0
290
     0
174
     0
 93
        1
 44
0.0
173
     0
291
     0
 45
0.0
1001
ACAD
1000
AcDbSavedByObjectVersion
1070
     0
  0
VISUALSTYLE
  5
30
102
{ACAD_REACTORS
330
2A
102
}
102
{ACAD_XDICTIONARY
360
1A6
102
}
330
2A
100
AcDbVisualStyle
  2
3dWireframe
 70
     5
 71
     0
 72
     2
 73
     0
 90
        0
 40
-0.6
 41
-30.0
 62
     5
 63
     7
 74
     1
 91
        4
 64
     7
 65
   257
 75
     1
175
     1
 42
1.0
 92
        0
 66
   257
 43
1.0
 76
     1
 77
     6
 78
     2
 67
     7
 79
     5
170
     0
171
     0
290
     0
174
     0
 93
        1
 44
0.0
173
     0
291
     0
 45
0.0
1001
ACAD
1000
AcDbSavedByObjectVersion
1070
     0
  0
VISUALSTYLE
  5
32
102
{ACAD_REACTORS
330
2A
102
}
102
{ACAD_XDICTIONARY
360
1AA
102
}
330
2A
100
AcDbVisualStyle
  2
Basic
 70
     7
 71
     1
 72
     0
 73
     1
 90
        0
 40
-0.6
 41
-30.0
 62
     5
 63
     7
 74
     0
 91
        4
 64
     7
 65
   257
 75
     1
175
     1
 42
1.0
 92
        8
 66
     7
 43
1.0
 76
     1
 77
     6
 78
     2
 67
     7
 79
     5
170
     0
171
     0
290
     0
174
     0
 93
        1
 44
0.0
173
     0
291
     1
 45
0.0
1001
ACAD
1000
AcDbSavedByObjectVersion
1070
     0
  0
VISUALSTYLE
  5
36
102
{ACAD_REACTORS
330
2A
102
}
102
{ACAD_XDICTIONARY
360
1B2
102
}
330
2A
100
AcDbVisualStyle
  2
Brighten
 70
    12
 71
     2
 72
     2
 73
     0
 90
        0
 40
-0.6
 41
-30.0
 62
     5
 63
     7
 74
     1
 91
        4
 64
     7
 65
   257
 75
     1
175
     1
 42
1.0
 92
        8
 66
     7
 43
1.0
 76
     1
 77
     6
 78
     2
 67
     7
 79
     5
170
     0
171
     0
290
     0
174
     0
 93
        1
 44
50.0
173
     0
291
     1
 45
0.0
1001
ACAD
1000
AcDbSavedByObjectVersion
1070
     0
  0
VISUALSTYLE
  5
3A
102
{ACAD_REACTORS
330
2A
102
}
102
{ACAD_XDICTIONARY
360
1BA
102
}
330
2A
100
AcDbVisualStyle
  2
ColorChange
 70
    16
 71
     2
 72
     2
 73
     3
 90
        0
 40
-0.6
 41
-30.0
 62
     5
 63
     8
 74
     1
 91
        4
 64
     7
 65
   257
 75
     1
175
     1
 42
1.0
 92
        8
 66
     8
 43
1.0
 76
     1
 77
     6
 78
     2
 67
     7
 79
     5
170
     0
171
     0
290
     0
174
     0
 93
        1
 44
0.0
173
     0
291
     1
 45
0.0
1001
ACAD
1000
AcDbSavedByObjectVersion
1070
     0
  0
VISUALSTYLE
  5
34
102
{ACAD_REACTORS
330
2A
102
}
102
{ACAD_XDICTIONARY
360
1AE
102
}
330
2A
100
AcDbVisualStyle
  2
Conceptual
 70
     9
 71
     3
 72
     2
 73
     0
 90
        0
 40
-0.6
 41
-30.0
 62
     5
 63
     7
 74
     2
 91
        2
 64
     7
 65
   257
 75
     1
175
     1
 42
40.0
 92
        8
 66
     7
 43
1.0
 76
     1
 77
     6
 78
     2
 67
     7
 79
     3
170
     0
171
     0
290
     0
174
     0
 93
        1
 44
0.0
173
     0
291
     0
 45
0.0
1001
ACAD
1000
AcDbSavedByObjectVersion
1070
     0
  0
VISUALSTYLE
  5
35
102
{ACAD_REACTORS
330
2A
102
}
102
{ACAD_XDICTIONARY
360
1B0
102
}
330
2A
100
AcDbVisualStyle
  2
Dim
 70
    11
 71
     2
 72
     2
 73
     0
 90
        0
 40
-0.6
 41
-30.0
 62
     5
 63
     7
 74
     1
 91
        4
 64
     7
 65
   257
 75
     1
175
     1
 42
1.0
 92
        8
 66
     7
 43
1.0
 76
     1
 77
     6
 78
     2
 67
     7
 79
     5
170
     0
171
     0
290
     0
174
     0
 93
        1
 44
-50.0
173
     0
291
     1
 45
0.0
1001
ACAD
1000
AcDbSavedByObjectVersion
1070
     0
  0
VISUALSTYLE
  5
39
102
{ACAD_REACTORS
330
2A
102
}
102
{ACAD_XDICTIONARY
360
1B8
102
}
330
2A
100
AcDbVisualStyle
  2
Facepattern
 70
    15
 71
     2
 72
     2
 73
     0
 90
        0
 40
-0.6
 41
-30.0
 62
     5
 63
     7
 74
     1
 91
        4
 64
     7
 65
   257
 75
     1
175
     1
 42
1.0
 92
        8
 66
     7
 43
1.0
 76
     1
 77
     6
 78
     2
 67
     7
 79
     5
170
     0
171
     0
290
     0
174
     0
 93
        1
 44
0.0
173
     0
291
     1
 45
0.0
1001
ACAD
1000
AcDbSavedByObjectVersion
1070
     0
  0
VISUALSTYLE
  5
2B
102
{ACAD_REACTORS
330
2A
102
}
102
{ACAD_XDICTIONARY
360
19C
102
}
330
2A
100
AcDbVisualStyle
  2
Flat
 70
     0
 71
     2
 72
     1
 73
     1
 90
        2
 40
-0.6
 41
30.0
 62
     5
 63
     7
 74
     0
 91
        4
 64
     7
 65
   257
 75
     1
175
     1
 42
1.0
 92
        8
 66
     7
 43
1.0
 76
     1
 77
     6
 78
     2
 67
     7
 79
     5
170
     0
171
     0
290
     0
174
     0
 93
       13
 44
0.0
173
     0
291
     1
 45
0.0
1001
ACAD
1000
AcDbSavedByObjectVersion
1070
     0
  0
VISUALSTYLE
  5
2C
102
{ACAD_REACTORS
330
2A
102
}
102
{ACAD_XDICTIONARY
360
19E
102
}
330
2A
100
AcDbVisualStyle
  2
FlatWithEdges
 70
     1
 71
     2
 72
     1
 73
     1
 90
        2
 40
-0.6
 41
30.0
 62
     5
 63
     7
 74
     1
 91
        4
 64
     7
 65
   257
 75
     1
175
     1
 42
1.0
 92
        0
 66
   257
 43
1.0
 76
     1
 77
     6
 78
     2
 67
     7
 79
     5
170
     0
171
     0
290
     0
174
     0
 93
       13
 44
0.0
173
     0
291
     1
 45
0.0
1001
ACAD
1000
AcDbSavedByObjectVersion
1070
     0
  0
VISUALSTYLE
  5
2D
102
{ACAD_REACTORS
330
2A
102
}
102
{ACAD_XDICTIONARY
360
1A0
102
}
330
2A
100
AcDbVisualStyle
  2
Gouraud
 70
     2
 71
     2
 72
     2
 73
     1
 90
        2
 40
-0.6
 41
30.0
 62
     5
 63
     7
 74
     0
 91
        4
 64
     7
 65
   257
 75
     1
175
     1
 42
1.0
 92
        0
 66
     7
 43
1.0
 76
     1
 77
     6
 78
     2
 67
     7
 79
     5
170
     0
171
     0
290
     0
174
     0
 93
       13
 44
0.0
173
     0
291
     1
 45
0.0
1001
ACAD
1000
AcDbSavedByObjectVersion
1070
     0
  0
VISUALSTYLE
  5
2E
102
{ACAD_REACTORS
330
2A
102
}
102
{ACAD_XDICTIONARY
360
1A2
102
}
330
2A
100
AcDbVisualStyle
  2
GouraudWithEdges
 70
     3
 71
     2
 72
     2
 73
     1
 90
        2
 40
-0.6
 41
30.0
 62
     5
 63
     7
 74
     1
 91
        4
 64
     7
 65
   257
 75
     1
175
     1
 42
1.0
 92
        0
 66
   257
 43
1.0
 76
     1
 77
     6
 78
     2
 67
     7
 79
     5
170
     0
171
     0
290
     0
174
     0
 93
       13
 44
0.0
173
     0
291
     1
 45
0.0
1001
ACAD
1000
AcDbSavedByObjectVersion
1070
     0
  0
VISUALSTYLE
  5
38
102
{ACAD_REACTORS
330
2A
102
}
102
{ACAD_XDICTIONARY
360
1B6
102
}
330
2A
100
AcDbVisualStyle
  2
Linepattern
 70
    14
 71
     2
 72
     2
 73
     0
 90
        0
 40
-0.6
 41
-30.0
 62
     5
 63
     7
 74
     1
 91
        4
 64
     7
 65
   257
 75
     7
175
     7
 42
1.0
 92
        8
 66
     7
 43
1.0
 76
     1
 77
     6
 78
     2
 67
     7
 79
     5
170
     0
171
     0
290
     0
174
     0
 93
        1
 44
0.0
173
     0
291
     1
 45
0.0
1001
ACAD
1000
AcDbSavedByObjectVersion
1070
     0
  0
VISUALSTYLE
  5
33
102
{ACAD_REACTORS
330
2A
102
}
102
{ACAD_XDICTIONARY
360
1AC
102
}
330
2A
100
AcDbVisualStyle
  2
Realistic
 70
     8
 71
     2
 72
     2
 73
     0
 90
        0
 40
-0.6
 41
-30.0
 62
     5
 63
     7
 74
     1
 91
        0
 64
     7
 65
   257
 75
     1
175
     1
 42
1.0
 92
        8
 66
     8
 43
1.0
 76
     1
 77
     6
 78
     2
 67
     7
 79
     5
170
     0
171
     0
290
     0
174
     0
 93
       13
 44
0.0
173
     0
291
     0
 45
0.0
1001
ACAD
1000
AcDbSavedByObjectVersion
1070
     0
  0
VISUALSTYLE
  5
37
102
{ACAD_REACTORS
330
2A
102
}
102
{ACAD_XDICTIONARY
360
1B4
102
}
330
2A
100
AcDbVisualStyle
  2
Thicken
 70
    13
 71
     2
 72
     2
 73
     0
 90
        0
 40
-0.6
 41
-30.0
 62
     5
 63
     7
 74
     1
 91
        4
 64
     7
 65
   257
 75
     1
175
     1
 42
1.0
 92
       12
 66
     7
 43
1.0
 76
     1
 77
     6
 78
     2
 67
     7
 79
     5
170
     0
171
     0
290
     0
174
     0
 93
        1
 44
0.0
173
     0
291
     1
 45
0.0
1001
ACAD
1000
AcDbSavedByObjectVersion
1070
     0
  0
DICTIONARYVAR
  5
19A
102
{ACAD_REACTORS
330
197
102
}
330
197
100
DictionaryVariables
280
     0
  1
2
  0
DICTIONARYVAR
  5
19B
102
{ACAD_REACTORS
330
197
102
}
330
197
100
DictionaryVariables
280
     0
  1
1
  0
DICTIONARY
  5
1BE
330
3D
100
AcDbDictionary
280
     1
281
     1
  3
ACAD_XREC_ROUNDTRIP
360
1BF
  0
DICTIONARY
  5
1BC
330
3C
100
AcDbDictionary
280
     1
281
     1
  3
ACAD_XREC_ROUNDTRIP
360
1BD
  0
DICTIONARY
  5
1C0
330
3E
100
AcDbDictionary
280
     1
281
     1
  3
ACAD_XREC_ROUNDTRIP
360
1C1
  0
DICTIONARY
  5
1A4
330
2F
100
AcDbDictionary
280
     1
281
     1
  3
ACAD_XREC_ROUNDTRIP
360
1A5
  0
DICTIONARY
  5
1A8
330
31
100
AcDbDictionary
280
     1
281
     1
  3
ACAD_XREC_ROUNDTRIP
360
1A9
  0
DICTIONARY
  5
1A6
330
30
100
AcDbDictionary
280
     1
281
     1
  3
ACAD_XREC_ROUNDTRIP
360
1A7
  0
DICTIONARY
  5
1AA
330
32
100
AcDbDictionary
280
     1
281
     1
  3
ACAD_XREC_ROUNDTRIP
360
1AB
  0
DICTIONARY
  5
1B2
330
36
100
AcDbDictionary
280
     1
281
     1
  3
ACAD_XREC_ROUNDTRIP
360
1B3
  0
DICTIONARY
  5
1BA
330
3A
100
AcDbDictionary
280
     1
281
     1
  3
ACAD_XREC_ROUNDTRIP
360
1BB
  0
DICTIONARY
  5
1AE
330
34
100
AcDbDictionary
280
     1
281
     1
  3
ACAD_XREC_ROUNDTRIP
360
1AF
  0
DICTIONARY
  5
1B0
330
35
100
AcDbDictionary
280
     1
281
     1
  3
ACAD_XREC_ROUNDTRIP
360
1B1
  0
DICTIONARY
  5
1B8
330
39
100
AcDbDictionary
280
     1
281
     1
  3
ACAD_XREC_ROUNDTRIP
360
1B9
  0
DICTIONARY
  5
19C
330
2B
100
AcDbDictionary
280
     1
281
     1
  3
ACAD_XREC_ROUNDTRIP
360
19D
  0
DICTIONARY
  5
19E
330
2C
100
AcDbDictionary
280
     1
281
     1
  3
ACAD_XREC_ROUNDTRIP
360
19F
  0
DICTIONARY
  5
1A0
330
2D
100
AcDbDictionary
280
     1
281
     1
  3
ACAD_XREC_ROUNDTRIP
360
1A1
  0
DICTIONARY
  5
1A2
330
2E
100
AcDbDictionary
280
     1
281
     1
  3
ACAD_XREC_ROUNDTRIP
360
1A3
  0
DICTIONARY
  5
1B6
330
38
100
AcDbDictionary
280
     1
281
     1
  3
ACAD_XREC_ROUNDTRIP
360
1B7
  0
DICTIONARY
  5
1AC
330
33
100
AcDbDictionary
280
     1
281
     1
  3
ACAD_XREC_ROUNDTRIP
360
1AD
  0
DICTIONARY
  5
1B4
330
37
100
AcDbDictionary
280
     1
281
     1
  3
ACAD_XREC_ROUNDTRIP
360
1B5
  0
XRECORD
  5
1BF
102
{ACAD_REACTORS
330
1BE
102
}
330
1BE
100
AcDbXrecord
280
     1
102
MATERIAL
148
0.0
149
0.0
149
0.0
 93
        0
 94
      127
282
     0
 72
     1
 77
     1
171
     1
175
     1
179
     1
273
     0
  0
XRECORD
  5
1BD
102
{ACAD_REACTORS
330
1BC
102
}
330
1BC
100
AcDbXrecord
280
     1
102
MATERIAL
148
0.0
149
0.0
149
0.0
 93
        0
 94
      127
282
     0
 72
     1
 77
     1
171
     1
175
     1
179
     1
273
     0
  0
XRECORD
  5
1C1
102
{ACAD_REACTORS
330
1C0
102
}
330
1C0
100
AcDbXrecord
280
     1
102
MATERIAL
148
0.0
149
0.0
149
0.0
 93
        0
 94
      127
282
     0
 72
     1
 77
     1
171
     1
175
     1
179
     1
273
     0
  0
XRECORD
  5
1A5
102
{ACAD_REACTORS
330
1A4
102
}
330
1A4
100
AcDbXrecord
280
     1
102
RTVSPropertyOp0
 70
     1
102
RTVSPropertyOp1
 70
     1
102
RTVSPropertyOp2
 70
     1
102
RTVSPropertyOp3
 70
     1
102
RTVSPropertyOp4
 70
     1
102
RTVSPropertyOp5
 70
     1
102
RTVSPropertyOp6
 70
     1
102
RTVSPropertyOp7
 70
     1
102
RTVSPropertyOp8
 70
     1
102
RTVSPropertyOp9
 70
     1
102
RTVSPropertyOp10
 70
     1
102
RTVSPropertyOp11
 70
     1
102
RTVSPropertyOp12
 70
     1
102
RTVSPropertyOp13
 70
     1
102
RTVSPropertyOp14
 70
     1
102
RTVSPropertyOp15
 70
     1
102
RTVSPropertyOp16
 70
     1
102
RTVSPropertyOp17
 70
     1
102
RTVSPropertyOp18
 70
     1
102
RTVSPropertyOp19
 70
     1
102
RTVSPropertyOp20
 70
     1
102
RTVSPropertyOp21
 70
     1
102
RTVSPropertyOp22
 70
     1
102
RTVSPropertyOp23
 70
     1
102
RTVSPropertyOp24
 70
     1
102
RTVSPropertyOp25
 70
     1
102
RTVSPropertyOp26
 70
     1
102
RTVSPropertyOp27
 70
     1
  0
XRECORD
  5
1A9
102
{ACAD_REACTORS
330
1A8
102
}
330
1A8
100
AcDbXrecord
280
     1
102
RTVSPropertyOp0
 70
     1
102
RTVSPropertyOp1
 70
     1
102
RTVSPropertyOp2
 70
     1
102
RTVSPropertyOp3
 70
     1
102
RTVSPropertyOp4
 70
     1
102
RTVSPropertyOp5
 70
     1
102
RTVSPropertyOp6
 70
     1
102
RTVSPropertyOp7
 70
     1
102
RTVSPropertyOp8
 70
     1
102
RTVSPropertyOp9
 70
     1
102
RTVSPropertyOp10
 70
     1
102
RTVSPropertyOp11
 70
     1
102
RTVSPropertyOp12
 70
     1
102
RTVSPropertyOp13
 70
     1
102
RTVSPropertyOp14
 70
     1
102
RTVSPropertyOp15
 70
     1
102
RTVSPropertyOp16
 70
     1
102
RTVSPropertyOp17
 70
     1
102
RTVSPropertyOp18
 70
     1
102
RTVSPropertyOp19
 70
     1
102
RTVSPropertyOp20
 70
     1
102
RTVSPropertyOp21
 70
     1
102
RTVSPropertyOp22
 70
     1
102
RTVSPropertyOp23
 70
     1
102
RTVSPropertyOp24
 70
     1
102
RTVSPropertyOp25
 70
     1
102
RTVSPropertyOp26
 70
     1
102
RTVSPropertyOp27
 70
     1
  0
XRECORD
  5
1A7
102
{ACAD_REACTORS
330
1A6
102
}
330
1A6
100
AcDbXrecord
280
     1
102
RTVSPropertyOp0
 70
     1
102
RTVSPropertyOp1
 70
     1
102
RTVSPropertyOp2
 70
     1
102
RTVSPropertyOp3
 70
     1
102
RTVSPropertyOp4
 70
     1
102
RTVSPropertyOp5
 70
     1
102
RTVSPropertyOp6
 70
     1
102
RTVSPropertyOp7
 70
     1
102
RTVSPropertyOp8
 70
     1
102
RTVSPropertyOp9
 70
     1
102
RTVSPropertyOp10
 70
     1
102
RTVSPropertyOp11
 70
     1
102
RTVSPropertyOp12
 70
     1
102
RTVSPropertyOp13
 70
     1
102
RTVSPropertyOp14
 70
     1
102
RTVSPropertyOp15
 70
     1
102
RTVSPropertyOp16
 70
     1
102
RTVSPropertyOp17
 70
     1
102
RTVSPropertyOp18
 70
     1
102
RTVSPropertyOp19
 70
     1
102
RTVSPropertyOp20
 70
     1
102
RTVSPropertyOp21
 70
     1
102
RTVSPropertyOp22
 70
     1
102
RTVSPropertyOp23
 70
     1
102
RTVSPropertyOp24
 70
     1
102
RTVSPropertyOp25
 70
     1
102
RTVSPropertyOp26
 70
     1
102
RTVSPropertyOp27
 70
     1
  0
XRECORD
  5
1AB
102
{ACAD_REACTORS
330
1AA
102
}
330
1AA
100
AcDbXrecord
280
     1
102
RTVSPropertyOp0
 70
     1
102
RTVSPropertyOp1
 70
     1
102
RTVSPropertyOp2
 70
     1
102
RTVSPropertyOp3
 70
     1
102
RTVSPropertyOp4
 70
     1
102
RTVSPropertyOp5
 70
     1
102
RTVSPropertyOp6
 70
     1
102
RTVSPropertyOp7
 70
     1
102
RTVSPropertyOp8
 70
     1
102
RTVSPropertyOp9
 70
     1
102
RTVSPropertyOp10
 70
     1
102
RTVSPropertyOp11
 70
     1
102
RTVSPropertyOp12
 70
     1
102
RTVSPropertyOp13
 70
     1
102
RTVSPropertyOp14
 70
     1
102
RTVSPropertyOp15
 70
     1
102
RTVSPropertyOp16
 70
     1
102
RTVSPropertyOp17
 70
     1
102
RTVSPropertyOp18
 70
     1
102
RTVSPropertyOp19
 70
     1
102
RTVSPropertyOp20
 70
     1
102
RTVSPropertyOp21
 70
     1
102
RTVSPropertyOp22
 70
     1
102
RTVSPropertyOp23
 70
     1
102
RTVSPropertyOp24
 70
     1
102
RTVSPropertyOp25
 70
     1
102
RTVSPropertyOp26
 70
     1
102
RTVSPropertyOp27
 70
     1
  0
XRECORD
  5
1B3
102
{ACAD_REACTORS
330
1B2
102
}
330
1B2
100
AcDbXrecord
280
     1
102
RTVSPropertyOp0
 70
     1
102
RTVSPropertyOp1
 70
     1
102
RTVSPropertyOp2
 70
     1
102
RTVSPropertyOp3
 70
     1
102
RTVSPropertyOp4
 70
     1
102
RTVSPropertyOp5
 70
     1
102
RTVSPropertyOp6
 70
     1
102
RTVSPropertyOp7
 70
     1
102
RTVSPropertyOp8
 70
     1
102
RTVSPropertyOp9
 70
     1
102
RTVSPropertyOp10
 70
     1
102
RTVSPropertyOp11
 70
     1
102
RTVSPropertyOp12
 70
     1
102
RTVSPropertyOp13
 70
     1
102
RTVSPropertyOp14
 70
     1
102
RTVSPropertyOp15
 70
     1
102
RTVSPropertyOp16
 70
     1
102
RTVSPropertyOp17
 70
     1
102
RTVSPropertyOp18
 70
     1
102
RTVSPropertyOp19
 70
     1
102
RTVSPropertyOp20
 70
     1
102
RTVSPropertyOp21
 70
     1
102
RTVSPropertyOp22
 70
     1
102
RTVSPropertyOp23
 70
     1
102
RTVSPropertyOp24
 70
     1
102
RTVSPropertyOp25
 70
     1
102
RTVSPropertyOp26
 70
     1
102
RTVSPropertyOp27
 70
     1
  0
XRECORD
  5
1BB
102
{ACAD_REACTORS
330
1BA
102
}
330
1BA
100
AcDbXrecord
280
     1
102
RTVSPropertyOp0
 70
     1
102
RTVSPropertyOp1
 70
     1
102
RTVSPropertyOp2
 70
     1
102
RTVSPropertyOp3
 70
     1
102
RTVSPropertyOp4
 70
     1
102
RTVSPropertyOp5
 70
     1
102
RTVSPropertyOp6
 70
     1
102
RTVSPropertyOp7
 70
     1
102
RTVSPropertyOp8
 70
     1
102
RTVSPropertyOp9
 70
     1
102
RTVSPropertyOp10
 70
     1
102
RTVSPropertyOp11
 70
     1
102
RTVSPropertyOp12
 70
     1
102
RTVSPropertyOp13
 70
     1
102
RTVSPropertyOp14
 70
     1
102
RTVSPropertyOp15
 70
     1
102
RTVSPropertyOp16
 70
     1
102
RTVSPropertyOp17
 70
     1
102
RTVSPropertyOp18
 70
     1
102
RTVSPropertyOp19
 70
     1
102
RTVSPropertyOp20
 70
     1
102
RTVSPropertyOp21
 70
     1
102
RTVSPropertyOp22
 70
     1
102
RTVSPropertyOp23
 70
     1
102
RTVSPropertyOp24
 70
     1
102
RTVSPropertyOp25
 70
     1
102
RTVSPropertyOp26
 70
     1
102
RTVSPropertyOp27
 70
     1
  0
XRECORD
  5
1AF
102
{ACAD_REACTORS
330
1AE
102
}
330
1AE
100
AcDbXrecord
280
     1
102
RTVSPropertyOp0
 70
     1
102
RTVSPropertyOp1
 70
     1
102
RTVSPropertyOp2
 70
     1
102
RTVSPropertyOp3
 70
     1
102
RTVSPropertyOp4
 70
     1
102
RTVSPropertyOp5
 70
     1
102
RTVSPropertyOp6
 70
     1
102
RTVSPropertyOp7
 70
     1
102
RTVSPropertyOp8
 70
     1
102
RTVSPropertyOp9
 70
     1
102
RTVSPropertyOp10
 70
     1
102
RTVSPropertyOp11
 70
     1
102
RTVSPropertyOp12
 70
     1
102
RTVSPropertyOp13
 70
     1
102
RTVSPropertyOp14
 70
     1
102
RTVSPropertyOp15
 70
     1
102
RTVSPropertyOp16
 70
     1
102
RTVSPropertyOp17
 70
     1
102
RTVSPropertyOp18
 70
     1
102
RTVSPropertyOp19
 70
     1
102
RTVSPropertyOp20
 70
     1
102
RTVSPropertyOp21
 70
     1
102
RTVSPropertyOp22
 70
     1
102
RTVSPropertyOp23
 70
     1
102
RTVSPropertyOp24
 70
     1
102
RTVSPropertyOp25
 70
     1
102
RTVSPropertyOp26
 70
     1
102
RTVSPropertyOp27
 70
     1
  0
XRECORD
  5
1B1
102
{ACAD_REACTORS
330
1B0
102
}
330
1B0
100
AcDbXrecord
280
     1
102
RTVSPropertyOp0
 70
     1
102
RTVSPropertyOp1
 70
     1
102
RTVSPropertyOp2
 70
     1
102
RTVSPropertyOp3
 70
     1
102
RTVSPropertyOp4
 70
     1
102
RTVSPropertyOp5
 70
     1
102
RTVSPropertyOp6
 70
     1
102
RTVSPropertyOp7
 70
     1
102
RTVSPropertyOp8
 70
     1
102
RTVSPropertyOp9
 70
     1
102
RTVSPropertyOp10
 70
     1
102
RTVSPropertyOp11
 70
     1
102
RTVSPropertyOp12
 70
     1
102
RTVSPropertyOp13
 70
     1
102
RTVSPropertyOp14
 70
     1
102
RTVSPropertyOp15
 70
     1
102
RTVSPropertyOp16
 70
     1
102
RTVSPropertyOp17
 70
     1
102
RTVSPropertyOp18
 70
     1
102
RTVSPropertyOp19
 70
     1
102
RTVSPropertyOp20
 70
     1
102
RTVSPropertyOp21
 70
     1
102
RTVSPropertyOp22
 70
     1
102
RTVSPropertyOp23
 70
     1
102
RTVSPropertyOp24
 70
     1
102
RTVSPropertyOp25
 70
     1
102
RTVSPropertyOp26
 70
     1
102
RTVSPropertyOp27
 70
     1
  0
XRECORD
  5
1B9
102
{ACAD_REACTORS
330
1B8
102
}
330
1B8
100
AcDbXrecord
280
     1
102
RTVSPropertyOp0
 70
     1
102
RTVSPropertyOp1
 70
     1
102
RTVSPropertyOp2
 70
     1
102
RTVSPropertyOp3
 70
     1
102
RTVSPropertyOp4
 70
     1
102
RTVSPropertyOp5
 70
     1
102
RTVSPropertyOp6
 70
     1
102
RTVSPropertyOp7
 70
     1
102
RTVSPropertyOp8
 70
     1
102
RTVSPropertyOp9
 70
     1
102
RTVSPropertyOp10
 70
     1
102
RTVSPropertyOp11
 70
     1
102
RTVSPropertyOp12
 70
     1
102
RTVSPropertyOp13
 70
     1
102
RTVSPropertyOp14
 70
     1
102
RTVSPropertyOp15
 70
     1
102
RTVSPropertyOp16
 70
     1
102
RTVSPropertyOp17
 70
     1
102
RTVSPropertyOp18
 70
     1
102
RTVSPropertyOp19
 70
     1
102
RTVSPropertyOp20
 70
     1
102
RTVSPropertyOp21
 70
     1
102
RTVSPropertyOp22
 70
     1
102
RTVSPropertyOp23
 70
     1
102
RTVSPropertyOp24
 70
     1
102
RTVSPropertyOp25
 70
     1
102
RTVSPropertyOp26
 70
     1
102
RTVSPropertyOp27
 70
     1
  0
XRECORD
  5
19D
102
{ACAD_REACTORS
330
19C
102
}
330
19C
100
AcDbXrecord
280
     1
102
RTVSPropertyOp0
 70
     1
102
RTVSPropertyOp1
 70
     1
102
RTVSPropertyOp2
 70
     1
102
RTVSPropertyOp3
 70
     1
102
RTVSPropertyOp4
 70
     1
102
RTVSPropertyOp5
 70
     1
102
RTVSPropertyOp6
 70
     1
102
RTVSPropertyOp7
 70
     1
102
RTVSPropertyOp8
 70
     1
102
RTVSPropertyOp9
 70
     1
102
RTVSPropertyOp10
 70
     1
102
RTVSPropertyOp11
 70
     1
102
RTVSPropertyOp12
 70
     1
102
RTVSPropertyOp13
 70
     1
102
RTVSPropertyOp14
 70
     1
102
RTVSPropertyOp15
 70
     1
102
RTVSPropertyOp16
 70
     1
102
RTVSPropertyOp17
 70
     1
102
RTVSPropertyOp18
 70
     1
102
RTVSPropertyOp19
 70
     1
102
RTVSPropertyOp20
 70
     1
102
RTVSPropertyOp21
 70
     1
102
RTVSPropertyOp22
 70
     1
102
RTVSPropertyOp23
 70
     1
102
RTVSPropertyOp24
 70
     1
102
RTVSPropertyOp25
 70
     1
102
RTVSPropertyOp26
 70
     1
102
RTVSPropertyOp27
 70
     1
  0
XRECORD
  5
19F
102
{ACAD_REACTORS
330
19E
102
}
330
19E
100
AcDbXrecord
280
     1
102
RTVSPropertyOp0
 70
     1
102
RTVSPropertyOp1
 70
     1
102
RTVSPropertyOp2
 70
     1
102
RTVSPropertyOp3
 70
     1
102
RTVSPropertyOp4
 70
     1
102
RTVSPropertyOp5
 70
     1
102
RTVSPropertyOp6
 70
     1
102
RTVSPropertyOp7
 70
     1
102
RTVSPropertyOp8
 70
     1
102
RTVSPropertyOp9
 70
     1
102
RTVSPropertyOp10
 70
     1
102
RTVSPropertyOp11
 70
     1
102
RTVSPropertyOp12
 70
     1
102
RTVSPropertyOp13
 70
     1
102
RTVSPropertyOp14
 70
     1
102
RTVSPropertyOp15
 70
     1
102
RTVSPropertyOp16
 70
     1
102
RTVSPropertyOp17
 70
     1
102
RTVSPropertyOp18
 70
     1
102
RTVSPropertyOp19
 70
     1
102
RTVSPropertyOp20
 70
     1
102
RTVSPropertyOp21
 70
     1
102
RTVSPropertyOp22
 70
     1
102
RTVSPropertyOp23
 70
     1
102
RTVSPropertyOp24
 70
     1
102
RTVSPropertyOp25
 70
     1
102
RTVSPropertyOp26
 70
     1
102
RTVSPropertyOp27
 70
     1
  0
XRECORD
  5
1A1
102
{ACAD_REACTORS
330
1A0
102
}
330
1A0
100
AcDbXrecord
280
     1
102
RTVSPropertyOp0
 70
     1
102
RTVSPropertyOp1
 70
     1
102
RTVSPropertyOp2
 70
     1
102
RTVSPropertyOp3
 70
     1
102
RTVSPropertyOp4
 70
     1
102
RTVSPropertyOp5
 70
     1
102
RTVSPropertyOp6
 70
     1
102
RTVSPropertyOp7
 70
     1
102
RTVSPropertyOp8
 70
     1
102
RTVSPropertyOp9
 70
     1
102
RTVSPropertyOp10
 70
     1
102
RTVSPropertyOp11
 70
     1
102
RTVSPropertyOp12
 70
     1
102
RTVSPropertyOp13
 70
     1
102
RTVSPropertyOp14
 70
     1
102
RTVSPropertyOp15
 70
     1
102
RTVSPropertyOp16
 70
     1
102
RTVSPropertyOp17
 70
     1
102
RTVSPropertyOp18
 70
     1
102
RTVSPropertyOp19
 70
     1
102
RTVSPropertyOp20
 70
     1
102
RTVSPropertyOp21
 70
     1
102
RTVSPropertyOp22
 70
     1
102
RTVSPropertyOp23
 70
     1
102
RTVSPropertyOp24
 70
     1
102
RTVSPropertyOp25
 70
     1
102
RTVSPropertyOp26
 70
     1
102
RTVSPropertyOp27
 70
     1
  0
XRECORD
  5
1A3
102
{ACAD_REACTORS
330
1A2
102
}
330
1A2
100
AcDbXrecord
280
     1
102
RTVSPropertyOp0
 70
     1
102
RTVSPropertyOp1
 70
     1
102
RTVSPropertyOp2
 70
     1
102
RTVSPropertyOp3
 70
     1
102
RTVSPropertyOp4
 70
     1
102
RTVSPropertyOp5
 70
     1
102
RTVSPropertyOp6
 70
     1
102
RTVSPropertyOp7
 70
     1
102
RTVSPropertyOp8
 70
     1
102
RTVSPropertyOp9
 70
     1
102
RTVSPropertyOp10
 70
     1
102
RTVSPropertyOp11
 70
     1
102
RTVSPropertyOp12
 70
     1
102
RTVSPropertyOp13
 70
     1
102
RTVSPropertyOp14
 70
     1
102
RTVSPropertyOp15
 70
     1
102
RTVSPropertyOp16
 70
     1
102
RTVSPropertyOp17
 70
     1
102
RTVSPropertyOp18
 70
     1
102
RTVSPropertyOp19
 70
     1
102
RTVSPropertyOp20
 70
     1
102
RTVSPropertyOp21
 70
     1
102
RTVSPropertyOp22
 70
     1
102
RTVSPropertyOp23
 70
     1
102
RTVSPropertyOp24
 70
     1
102
RTVSPropertyOp25
 70
     1
102
RTVSPropertyOp26
 70
     1
102
RTVSPropertyOp27
 70
     1
  0
XRECORD
  5
1B7
102
{ACAD_REACTORS
330
1B6
102
}
330
1B6
100
AcDbXrecord
280
     1
102
RTVSPropertyOp0
 70
     1
102
RTVSPropertyOp1
 70
     1
102
RTVSPropertyOp2
 70
     1
102
RTVSPropertyOp3
 70
     1
102
RTVSPropertyOp4
 70
     1
102
RTVSPropertyOp5
 70
     1
102
RTVSPropertyOp6
 70
     1
102
RTVSPropertyOp7
 70
     1
102
RTVSPropertyOp8
 70
     1
102
RTVSPropertyOp9
 70
     1
102
RTVSPropertyOp10
 70
     1
102
RTVSPropertyOp11
 70
     1
102
RTVSPropertyOp12
 70
     1
102
RTVSPropertyOp13
 70
     1
102
RTVSPropertyOp14
 70
     1
102
RTVSPropertyOp15
 70
     1
102
RTVSPropertyOp16
 70
     1
102
RTVSPropertyOp17
 70
     1
102
RTVSPropertyOp18
 70
     1
102
RTVSPropertyOp19
 70
     1
102
RTVSPropertyOp20
 70
     1
102
RTVSPropertyOp21
 70
     1
102
RTVSPropertyOp22
 70
     1
102
RTVSPropertyOp23
 70
     1
102
RTVSPropertyOp24
 70
     1
102
RTVSPropertyOp25
 70
     1
102
RTVSPropertyOp26
 70
     1
102
RTVSPropertyOp27
 70
     1
  0
XRECORD
  5
1AD
102
{ACAD_REACTORS
330
1AC
102
}
330
1AC
100
AcDbXrecord
280
     1
102
RTVSPropertyOp0
 70
     1
102
RTVSPropertyOp1
 70
     1
102
RTVSPropertyOp2
 70
     1
102
RTVSPropertyOp3
 70
     1
102
RTVSPropertyOp4
 70
     1
102
RTVSPropertyOp5
 70
     1
102
RTVSPropertyOp6
 70
     1
102
RTVSPropertyOp7
 70
     1
102
RTVSPropertyOp8
 70
     1
102
RTVSPropertyOp9
 70
     1
102
RTVSPropertyOp10
 70
     1
102
RTVSPropertyOp11
 70
     1
102
RTVSPropertyOp12
 70
     1
102
RTVSPropertyOp13
 70
     1
102
RTVSPropertyOp14
 70
     1
102
RTVSPropertyOp15
 70
     1
102
RTVSPropertyOp16
 70
     1
102
RTVSPropertyOp17
 70
     1
102
RTVSPropertyOp18
 70
     1
102
RTVSPropertyOp19
 70
     1
102
RTVSPropertyOp20
 70
     1
102
RTVSPropertyOp21
 70
     1
102
RTVSPropertyOp22
 70
     1
102
RTVSPropertyOp23
 70
     1
102
RTVSPropertyOp24
 70
     1
102
RTVSPropertyOp25
 70
     1
102
RTVSPropertyOp26
 70
     1
102
RTVSPropertyOp27
 70
     1
  0
XRECORD
  5
1B5
102
{ACAD_REACTORS
330
1B4
102
}
330
1B4
100
AcDbXrecord
280
     1
102
RTVSPropertyOp0
 70
     1
102
RTVSPropertyOp1
 70
     1
102
RTVSPropertyOp2
 70
     1
102
RTVSPropertyOp3
 70
     1
102
RTVSPropertyOp4
 70
     1
102
RTVSPropertyOp5
 70
     1
102
RTVSPropertyOp6
 70
     1
102
RTVSPropertyOp7
 70
     1
102
RTVSPropertyOp8
 70
     1
102
RTVSPropertyOp9
 70
     1
102
RTVSPropertyOp10
 70
     1
102
RTVSPropertyOp11
 70
     1
102
RTVSPropertyOp12
 70
     1
102
RTVSPropertyOp13
 70
     1
102
RTVSPropertyOp14
 70
     1
102
RTVSPropertyOp15
 70
     1
102
RTVSPropertyOp16
 70
     1
102
RTVSPropertyOp17
 70
     1
102
RTVSPropertyOp18
 70
     1
102
RTVSPropertyOp19
 70
     1
102
RTVSPropertyOp20
 70
     1
102
RTVSPropertyOp21
 70
     1
102
RTVSPropertyOp22
 70
     1
102
RTVSPropertyOp23
 70
     1
102
RTVSPropertyOp24
 70
     1
102
RTVSPropertyOp25
 70
     1
102
RTVSPropertyOp26
 70
     1
102
RTVSPropertyOp27
 70
     1
  0
ENDSEC
  0
EOF
